  0
SECTION
  2
HEADER
  9
$ACADVER
  1
AC1024
  9
$ACADMAINTVER
 70
    37
  9
$DWGCODEPAGE
  3
ANSI_1252
  9
$LASTSAVEDBY
  1
austin.powers
  9
$INSBASE
 10
0.0
 20
0.0
 30
0.0
  9
$EXTMIN
 10
15.86892716759883
 20
10.38965239653842
 30
-0.0000037079799675
  9
$EXTMAX
 10
150.0417398290566
 20
56.24607383666674
 30
0.0010327277846152
  9
$LIMMIN
 10
0.0
 20
0.0
  9
$LIMMAX
 10
12.0
 20
9.0
  9
$ORTHOMODE
 70
     0
  9
$REGENMODE
 70
     1
  9
$FILLMODE
 70
     1
  9
$QTEXTMODE
 70
     0
  9
$MIRRTEXT
 70
     0
  9
$LTSCALE
 40
1.0
  9
$ATTMODE
 70
     1
  9
$TEXTSIZE
 40
0.2
  9
$TRACEWID
 40
0.05
  9
$TEXTSTYLE
  7
Standard
  9
$CLAYER
  8
0
  9
$CELTYPE
  6
ByLayer
  9
$CECOLOR
 62
   256
  9
$CELTSCALE
 40
1.0
  9
$DISPSILH
 70
     0
  9
$DIMSCALE
 40
1.0
  9
$DIMASZ
 40
0.5
  9
$DIMEXO
 40
0.25
  9
$DIMDLI
 40
0.38
  9
$DIMRND
 40
0.0625
  9
$DIMDLE
 40
0.0
  9
$DIMEXE
 40
0.25
  9
$DIMTP
 40
0.0
  9
$DIMTM
 40
0.0
  9
$DIMTXT
 40
0.7
  9
$DIMCEN
 40
0.0
  9
$DIMTSZ
 40
0.0
  9
$DIMTOL
 70
     0
  9
$DIMLIM
 70
     0
  9
$DIMTIH
 70
     1
  9
$DIMTOH
 70
     1
  9
$DIMSE1
 70
     0
  9
$DIMSE2
 70
     0
  9
$DIMTAD
 70
     0
  9
$DIMZIN
 70
     0
  9
$DIMBLK
  1

  9
$DIMASO
 70
     1
  9
$DIMSHO
 70
     1
  9
$DIMPOST
  1

  9
$DIMAPOST
  1

  9
$DIMALT
 70
     0
  9
$DIMALTD
 70
     2
  9
$DIMALTF
 40
25.4
  9
$DIMLFAC
 40
1.0
  9
$DIMTOFL
 70
     0
  9
$DIMTVP
 40
0.0
  9
$DIMTIX
 70
     0
  9
$DIMSOXD
 70
     0
  9
$DIMSAH
 70
     0
  9
$DIMBLK1
  1

  9
$DIMBLK2
  1

  9
$DIMSTYLE
  2
New OWP
  9
$DIMCLRD
 70
     0
  9
$DIMCLRE
 70
     0
  9
$DIMCLRT
 70
     0
  9
$DIMTFAC
 40
1.0
  9
$DIMGAP
 40
0.09
  9
$DIMJUST
 70
     0
  9
$DIMSD1
 70
     0
  9
$DIMSD2
 70
     0
  9
$DIMTOLJ
 70
     1
  9
$DIMTZIN
 70
     0
  9
$DIMALTZ
 70
     0
  9
$DIMALTTZ
 70
     0
  9
$DIMUPT
 70
     0
  9
$DIMDEC
 70
     4
  9
$DIMTDEC
 70
     4
  9
$DIMALTU
 70
     2
  9
$DIMALTTD
 70
     2
  9
$DIMTXSTY
  7
Standard
  9
$DIMAUNIT
 70
     0
  9
$DIMADEC
 70
     0
  9
$DIMALTRND
 40
0.0
  9
$DIMAZIN
 70
     0
  9
$DIMDSEP
 70
    46
  9
$DIMATFIT
 70
     3
  9
$DIMFRAC
 70
     1
  9
$DIMLDRBLK
  1

  9
$DIMLUNIT
 70
     5
  9
$DIMLWD
 70
    -2
  9
$DIMLWE
 70
    -2
  9
$DIMTMOVE
 70
     0
  9
$DIMFXL
 40
1.0
  9
$DIMFXLON
 70
     0
  9
$DIMJOGANG
 40
0.7853981633974483
  9
$DIMTFILL
 70
     0
  9
$DIMTFILLCLR
 70
     0
  9
$DIMARCSYM
 70
     0
  9
$DIMLTYPE
  6

  9
$DIMLTEX1
  6

  9
$DIMLTEX2
  6

  9
$DIMTXTDIRECTION
 70
     0
  9
$LUNITS
 70
     2
  9
$LUPREC
 70
     4
  9
$SKETCHINC
 40
0.1
  9
$FILLETRAD
 40
0.0
  9
$AUNITS
 70
     0
  9
$AUPREC
 70
     0
  9
$MENU
  1
.
  9
$ELEVATION
 40
0.0
  9
$PELEVATION
 40
0.0
  9
$THICKNESS
 40
0.0
  9
$LIMCHECK
 70
     0
  9
$CHAMFERA
 40
0.0
  9
$CHAMFERB
 40
0.0
  9
$CHAMFERC
 40
0.0
  9
$CHAMFERD
 40
0.0
  9
$SKPOLY
 70
     0
  9
$TDCREATE
 40
2457235.647136296
  9
$TDUCREATE
 40
2457235.813802963
  9
$TDUPDATE
 40
2457238.535175359
  9
$TDUUPDATE
 40
2457238.701842026
  9
$TDINDWG
 40
0.0644493634
  9
$TDUSRTIMER
 40
0.0644482407
  9
$USRTIMER
 70
     1
  9
$ANGBASE
 50
0.0
  9
$ANGDIR
 70
     0
  9
$PDMODE
 70
     0
  9
$PDSIZE
 40
0.0
  9
$PLINEWID
 40
0.0
  9
$SPLFRAME
 70
     0
  9
$SPLINETYPE
 70
     6
  9
$SPLINESEGS
 70
     8
  9
$HANDSEED
  5
1A5E
  9
$SURFTAB1
 70
     6
  9
$SURFTAB2
 70
     6
  9
$SURFTYPE
 70
     6
  9
$SURFU
 70
     6
  9
$SURFV
 70
     6
  9
$UCSBASE
  2

  9
$UCSNAME
  2

  9
$UCSORG
 10
0.0
 20
0.0
 30
0.0
  9
$UCSXDIR
 10
1.0
 20
0.0
 30
0.0
  9
$UCSYDIR
 10
0.0
 20
1.0
 30
0.0
  9
$UCSORTHOREF
  2

  9
$UCSORTHOVIEW
 70
     1
  9
$UCSORGTOP
 10
0.0
 20
0.0
 30
0.0
  9
$UCSORGBOTTOM
 10
0.0
 20
0.0
 30
0.0
  9
$UCSORGLEFT
 10
0.0
 20
0.0
 30
0.0
  9
$UCSORGRIGHT
 10
0.0
 20
0.0
 30
0.0
  9
$UCSORGFRONT
 10
0.0
 20
0.0
 30
0.0
  9
$UCSORGBACK
 10
0.0
 20
0.0
 30
0.0
  9
$PUCSBASE
  2

  9
$PUCSNAME
  2

  9
$PUCSORG
 10
0.0
 20
0.0
 30
0.0
  9
$PUCSXDIR
 10
1.0
 20
0.0
 30
0.0
  9
$PUCSYDIR
 10
0.0
 20
1.0
 30
0.0
  9
$PUCSORTHOREF
  2

  9
$PUCSORTHOVIEW
 70
     0
  9
$PUCSORGTOP
 10
0.0
 20
0.0
 30
0.0
  9
$PUCSORGBOTTOM
 10
0.0
 20
0.0
 30
0.0
  9
$PUCSORGLEFT
 10
0.0
 20
0.0
 30
0.0
  9
$PUCSORGRIGHT
 10
0.0
 20
0.0
 30
0.0
  9
$PUCSORGFRONT
 10
0.0
 20
0.0
 30
0.0
  9
$PUCSORGBACK
 10
0.0
 20
0.0
 30
0.0
  9
$USERI1
 70
     0
  9
$USERI2
 70
     0
  9
$USERI3
 70
     0
  9
$USERI4
 70
     0
  9
$USERI5
 70
     0
  9
$USERR1
 40
0.0
  9
$USERR2
 40
0.0
  9
$USERR3
 40
0.0
  9
$USERR4
 40
0.0
  9
$USERR5
 40
0.0
  9
$WORLDVIEW
 70
     1
  9
$SHADEDGE
 70
     3
  9
$SHADEDIF
 70
    70
  9
$TILEMODE
 70
     1
  9
$MAXACTVP
 70
    64
  9
$PINSBASE
 10
0.0
 20
0.0
 30
0.0
  9
$PLIMCHECK
 70
     0
  9
$PEXTMIN
 10
0.0
 20
0.0
 30
0.0
  9
$PEXTMAX
 10
0.0
 20
0.0
 30
0.0
  9
$PLIMMIN
 10
0.0
 20
0.0
  9
$PLIMMAX
 10
12.0
 20
9.0
  9
$UNITMODE
 70
     0
  9
$VISRETAIN
 70
     1
  9
$PLINEGEN
 70
     0
  9
$PSLTSCALE
 70
     1
  9
$TREEDEPTH
 70
  3020
  9
$CMLSTYLE
  2
Standard
  9
$CMLJUST
 70
     0
  9
$CMLSCALE
 40
1.0
  9
$PROXYGRAPHICS
 70
     1
  9
$MEASUREMENT
 70
     0
  9
$CELWEIGHT
370
    -1
  9
$ENDCAPS
280
     0
  9
$JOINSTYLE
280
     0
  9
$LWDISPLAY
290
     0
  9
$INSUNITS
 70
     1
  9
$HYPERLINKBASE
  1

  9
$STYLESHEET
  1

  9
$XEDIT
290
     1
  9
$CEPSNTYPE
380
     0
  9
$PSTYLEMODE
290
     1
  9
$FINGERPRINTGUID
  2
{87D22706-806E-4EE9-AD3A-1189DE9A6783}
  9
$VERSIONGUID
  2
{FF8F4A61-42E3-4730-8009-A981FC1A72A0}
  9
$EXTNAMES
290
     1
  9
$PSVPSCALE
 40
0.0
  9
$OLESTARTUP
290
     0
  9
$SORTENTS
280
   127
  9
$INDEXCTL
280
     0
  9
$HIDETEXT
280
     1
  9
$XCLIPFRAME
280
     2
  9
$HALOGAP
280
     0
  9
$OBSCOLOR
 70
   257
  9
$OBSLTYPE
280
     0
  9
$INTERSECTIONDISPLAY
280
     0
  9
$INTERSECTIONCOLOR
 70
   257
  9
$DIMASSOC
280
     2
  9
$PROJECTNAME
  1

  9
$CAMERADISPLAY
290
     0
  9
$LENSLENGTH
 40
50.0
  9
$CAMERAHEIGHT
 40
0.0
  9
$STEPSPERSEC
 40
2.0
  9
$STEPSIZE
 40
6.0
  9
$3DDWFPREC
 40
2.0
  9
$PSOLWIDTH
 40
0.25
  9
$PSOLHEIGHT
 40
4.0
  9
$LOFTANG1
 40
1.570796326794896
  9
$LOFTANG2
 40
1.570796326794896
  9
$LOFTMAG1
 40
0.0
  9
$LOFTMAG2
 40
0.0
  9
$LOFTPARAM
 70
     7
  9
$LOFTNORMALS
280
     1
  9
$LATITUDE
 40
37.795
  9
$LONGITUDE
 40
-122.394
  9
$NORTHDIRECTION
 40
0.0
  9
$TIMEZONE
 70
 -8000
  9
$LIGHTGLYPHDISPLAY
280
     1
  9
$TILEMODELIGHTSYNCH
280
     1
  9
$CMATERIAL
347
96
  9
$SOLIDHIST
280
     1
  9
$SHOWHIST
280
     1
  9
$DWFFRAME
280
     2
  9
$DGNFRAME
280
     0
  9
$REALWORLDSCALE
290
     1
  9
$INTERFERECOLOR
 62
     1
  9
$INTERFEREOBJVS
345
A3
  9
$INTERFEREVPVS
346
17E
  9
$CSHADOW
280
     0
  9
$SHADOWPLANELOCATION
 40
0.0
  0
ENDSEC
  0
SECTION
  2
CLASSES
  0
CLASS
  1
ACDBDICTIONARYWDFLT
  2
AcDbDictionaryWithDefault
  3
ObjectDBX Classes
 90
        0
 91
        1
280
     0
281
     0
  0
CLASS
  1
DICTIONARYVAR
  2
AcDbDictionaryVar
  3
ObjectDBX Classes
 90
        0
 91
        7
280
     0
281
     0
  0
CLASS
  1
TABLESTYLE
  2
AcDbTableStyle
  3
ObjectDBX Classes
 90
     4095
 91
        1
280
     0
281
     0
  0
CLASS
  1
MATERIAL
  2
AcDbMaterial
  3
ObjectDBX Classes
 90
     1153
 91
        3
280
     0
281
     0
  0
CLASS
  1
VISUALSTYLE
  2
AcDbVisualStyle
  3
ObjectDBX Classes
 90
     4095
 91
       26
280
     0
281
     0
  0
CLASS
  1
SCALE
  2
AcDbScale
  3
ObjectDBX Classes
 90
     1153
 91
       33
280
     0
281
     0
  0
CLASS
  1
MLEADERSTYLE
  2
AcDbMLeaderStyle
  3
ACDB_MLEADERSTYLE_CLASS
 90
     4095
 91
        2
280
     0
281
     0
  0
CLASS
  1
CELLSTYLEMAP
  2
AcDbCellStyleMap
  3
ObjectDBX Classes
 90
     1152
 91
        5
280
     0
281
     0
  0
CLASS
  1
EXACXREFPANELOBJECT
  2
ExAcXREFPanelObject
  3
EXAC_ESW
 90
     1025
 91
        0
280
     0
281
     0
  0
CLASS
  1
NPOCOLLECTION
  2
AcDbImpNonPersistentObjectsCollection
  3
ObjectDBX Classes
 90
     1153
 91
        1
280
     0
281
     0
  0
CLASS
  1
LAYER_INDEX
  2
AcDbLayerIndex
  3
ObjectDBX Classes
 90
        0
 91
        0
280
     0
281
     0
  0
CLASS
  1
SPATIAL_INDEX
  2
AcDbSpatialIndex
  3
ObjectDBX Classes
 90
        0
 91
        0
280
     0
281
     0
  0
CLASS
  1
IDBUFFER
  2
AcDbIdBuffer
  3
ObjectDBX Classes
 90
        0
 91
        0
280
     0
281
     0
  0
CLASS
  1
ACSH_REVOLVE_CLASS
  2
AcDbShRevolve
  3
ObjectDBX Classes
 90
     1153
 91
        0
280
     0
281
     0
  0
CLASS
  1
ACAD_EVALUATION_GRAPH
  2
AcDbEvalGraph
  3
ObjectDBX Classes
 90
     1153
 91
        0
280
     0
281
     0
  0
CLASS
  1
ACSH_HISTORY_CLASS
  2
AcDbShHistory
  3
ObjectDBX Classes
 90
     1153
 91
        0
280
     0
281
     0
  0
CLASS
  1
ACSH_EXTRUSION_CLASS
  2
AcDbShExtrusion
  3
ObjectDBX Classes
 90
     1153
 91
        0
280
     0
281
     0
  0
CLASS
  1
SOLID_BACKGROUND
  2
AcDbSolidBackground
  3
SCENEOE
 90
     4095
 91
        0
280
     0
281
     0
  0
CLASS
  1
ACDBASSOCPERSSUBENTMANAGER
  2
AcDbAssocPersSubentManager
  3
ObjectDBX Classes
 90
     1024
 91
        1
280
     0
281
     0
  0
CLASS
  1
ACDBPERSSUBENTMANAGER
  2
AcDbPersSubentManager
  3
AcDbPersSubentManager
 90
     1024
 91
        1
280
     0
281
     0
  0
CLASS
  1
ACSH_BOOLEAN_CLASS
  2
AcDbShBoolean
  3
ObjectDBX Classes
 90
     1153
 91
        0
280
     0
281
     0
  0
CLASS
  1
DIMASSOC
  2
AcDbDimAssoc
  3
"AcDbDimAssoc|Product Desc:     AcDim ARX App For Dimension|Company:          Autodesk, Inc.|WEB Address:      www.autodesk.com"
 90
        0
 91
       14
280
     0
281
     0
  0
CLASS
  1
SORTENTSTABLE
  2
AcDbSortentsTable
  3
ObjectDBX Classes
 90
        0
 91
        4
280
     0
281
     0
  0
CLASS
  1
AEC_REFEDIT_STATUS_TRACKER
  2
AecDbRefEditStatusTracker
  3
AecArchBase60|Product Desc: Autodesk Architectural Desktop 2007 |Company: Autodesk,Inc. |WEB Address: www.autodesk.com
 90
      129
 91
        1
280
     0
281
     0
  0
ENDSEC
  0
SECTION
  2
TABLES
  0
TABLE
  2
VPORT
  5
8
330
0
100
AcDbSymbolTable
 70
     1
  0
VPORT
  5
94
330
8
100
AcDbSymbolTableRecord
100
AcDbViewportTableRecord
  2
*Active
 70
     0
 10
0.0
 20
0.0
 11
1.0
 21
1.0
 12
112.4700250147102
 22
-22.8019533030178
 13
0.0
 23
0.0
 14
0.5
 24
0.5
 15
0.5
 25
0.5
 16
-0.0000000000004761
 26
0.0
 36
162.8224960507833
 17
24.02968287802068
 27
31.71561683355371
 37
0.0000000000000275
 40
201.5467028173266
 41
2.239304812834224
 42
50.0
 43
0.0
 44
0.0
 50
0.0
 51
0.0
 71
     0
 72
  1000
 73
     1
 74
     3
 75
     0
 76
     0
 77
     0
 78
     1
281
     0
 65
     1
110
0.0
120
0.0
130
0.0
111
1.0
121
0.0
131
0.0
112
0.0
122
1.0
132
0.0
 79
     0
146
0.0
348
9F
 60
     2
 61
     5
292
     1
282
     1
141
0.0
142
0.0
 63
   250
421
  3355443
  0
ENDTAB
  0
TABLE
  2
LTYPE
  5
5
330
0
100
AcDbSymbolTable
 70
     1
  0
LTYPE
  5
14
330
5
100
AcDbSymbolTableRecord
100
AcDbLinetypeTableRecord
  2
ByBlock
 70
     0
  3

 72
    65
 73
     0
 40
0.0
  0
LTYPE
  5
15
330
5
100
AcDbSymbolTableRecord
100
AcDbLinetypeTableRecord
  2
ByLayer
 70
     0
  3

 72
    65
 73
     0
 40
0.0
  0
LTYPE
  5
16
330
5
100
AcDbSymbolTableRecord
100
AcDbLinetypeTableRecord
  2
Continuous
 70
     0
  3
Solid line
 72
    65
 73
     0
 40
0.0
  0
ENDTAB
  0
TABLE
  2
LAYER
  5
2
102
{ACAD_XDICTIONARY
360
505
102
}
330
0
100
AcDbSymbolTable
 70
     4
  0
LAYER
  5
10
102
{ACAD_XDICTIONARY
360
E6
102
}
330
2
100
AcDbSymbolTableRecord
100
AcDbLayerTableRecord
  2
0
 70
     0
 62
     7
  6
Continuous
370
    -3
390
F
347
98
  0
LAYER
  5
1C1
330
2
100
AcDbSymbolTableRecord
100
AcDbLayerTableRecord
  2
Defpoints
 70
     0
 62
     7
  6
Continuous
290
     0
370
    -3
390
F
347
98
  0
LAYER
  5
33E
330
2
100
AcDbSymbolTableRecord
100
AcDbLayerTableRecord
  2
Layer1
 70
     0
 62
    10
  6
Continuous
370
    -3
390
F
347
98
1001
AcAecLayerStandard
1000

1000

1001
AcCmTransparency
1071
        0
  0
LAYER
  5
4EE
330
2
100
AcDbSymbolTableRecord
100
AcDbLayerTableRecord
  2
3D
 70
     0
 62
    54
420
 10984219
  6
Continuous
370
    -3
390
F
347
98
1001
AcAecLayerStandard
1000

1000

1001
AcCmTransparency
1071
        0
  0
ENDTAB
  0
TABLE
  2
STYLE
  5
3
330
0
100
AcDbSymbolTable
 70
     3
  0
STYLE
  5
11
330
3
100
AcDbSymbolTableRecord
100
AcDbTextStyleTableRecord
  2
Standard
 70
     0
 40
0.0
 41
1.0
 50
0.0
 71
     0
 42
0.2
  3
arial_0.ttf
  4

1001
ACAD
1000
Arial
1071
       34
  0
STYLE
  5
DC
330
3
100
AcDbSymbolTableRecord
100
AcDbTextStyleTableRecord
  2
Annotative
 70
     0
 40
0.0
 41
1.0
 50
0.0
 71
     0
 42
0.2
  3
arial_0.ttf
  4

1001
AcadAnnotative
1000
AnnotativeData
1002
{
1070
     1
1070
     1
1002
}
1001
ACAD
1000
Arial
1071
       34
  0
ENDTAB
  0
TABLE
  2
VIEW
  5
6
330
0
100
AcDbSymbolTable
 70
     0
  0
ENDTAB
  0
TABLE
  2
UCS
  5
7
330
0
100
AcDbSymbolTable
 70
     0
  0
ENDTAB
  0
TABLE
  2
APPID
  5
9
330
0
100
AcDbSymbolTable
 70
    12
  0
APPID
  5
12
330
9
100
AcDbSymbolTableRecord
100
AcDbRegAppTableRecord
  2
ACAD
 70
     0
  0
APPID
  5
DD
330
9
100
AcDbSymbolTableRecord
100
AcDbRegAppTableRecord
  2
AcadAnnoPO
 70
     0
  0
APPID
  5
DE
330
9
100
AcDbSymbolTableRecord
100
AcDbRegAppTableRecord
  2
AcadAnnotative
 70
     0
  0
APPID
  5
DF
330
9
100
AcDbSymbolTableRecord
100
AcDbRegAppTableRecord
  2
ACAD_DSTYLE_DIMJAG
 70
     0
  0
APPID
  5
E0
330
9
100
AcDbSymbolTableRecord
100
AcDbRegAppTableRecord
  2
ACAD_DSTYLE_DIMTALN
 70
     0
  0
APPID
  5
107
330
9
100
AcDbSymbolTableRecord
100
AcDbRegAppTableRecord
  2
ACAD_MLEADERVER
 70
     0
  0
APPID
  5
189
330
9
100
AcDbSymbolTableRecord
100
AcDbRegAppTableRecord
  2
ACAD_DSTYLE_DIMBREAK
 70
     0
  0
APPID
  5
196
330
9
100
AcDbSymbolTableRecord
100
AcDbRegAppTableRecord
  2
ACAD_EXEMPT_FROM_CAD_STANDARDS
 70
     0
  0
APPID
  5
33F
330
9
100
AcDbSymbolTableRecord
100
AcDbRegAppTableRecord
  2
AcAecLayerStandard
 70
     0
  0
APPID
  5
340
330
9
100
AcDbSymbolTableRecord
100
AcDbRegAppTableRecord
  2
AcCmTransparency
 70
     0
  0
APPID
  5
55A
330
9
100
AcDbSymbolTableRecord
100
AcDbRegAppTableRecord
  2
ACAD_NAV_VCDISPLAY
 70
     0
  0
APPID
  5
5E1
330
9
100
AcDbSymbolTableRecord
100
AcDbRegAppTableRecord
  2
ACAD_PSEXT
 70
     0
  0
ENDTAB
  0
TABLE
  2
DIMSTYLE
  5
A
330
0
100
AcDbSymbolTable
 70
     4
100
AcDbDimStyleTable
 71
     3
340
18A
340
27
340
E1
  0
DIMSTYLE
105
27
330
A
100
AcDbSymbolTableRecord
100
AcDbDimStyleTableRecord
  2
Standard
 70
     0
340
11
  0
DIMSTYLE
105
E1
330
A
100
AcDbSymbolTableRecord
100
AcDbDimStyleTableRecord
  2
Annotative
 70
     0
 40
0.0
340
11
1001
AcadAnnotative
1000
AnnotativeData
1002
{
1070
     1
1070
     1
1002
}
1001
ACAD_DSTYLE_DIMJAG
1070
   388
1040
1.5
1001
ACAD_DSTYLE_DIMTALN
1070
   392
1070
     0
  0
DIMSTYLE
105
18A
330
A
100
AcDbSymbolTableRecord
100
AcDbDimStyleTableRecord
  2
New OWP
 70
     0
 41
0.5
 42
0.25
 44
0.25
 45
0.0625
140
0.7
141
0.0
276
     1
277
     5
340
11
1001
ACAD_DSTYLE_DIMBREAK
1070
   391
1040
0.125
1001
ACAD_DSTYLE_DIMJAG
1070
   388
1040
1.5
1001
ACAD_DSTYLE_DIMTALN
1070
   392
1070
     0
  0
ENDTAB
  0
TABLE
  2
BLOCK_RECORD
  5
1
330
0
100
AcDbSymbolTable
 70
    71
  0
BLOCK_RECORD
  5
1F
102
{ACAD_XDICTIONARY
360
15D
102
}
330
1
100
AcDbSymbolTableRecord
100
AcDbBlockTableRecord
  2
*Model_Space
340
22
 70
     0
280
     1
281
     0
  0
BLOCK_RECORD
  5
58
330
1
100
AcDbSymbolTableRecord
100
AcDbBlockTableRecord
  2
*Paper_Space
340
59
 70
     0
280
     1
281
     0
  0
BLOCK_RECORD
  5
5D
330
1
100
AcDbSymbolTableRecord
100
AcDbBlockTableRecord
  2
*Paper_Space0
340
5E
 70
     0
280
     1
281
     0
  0
BLOCK_RECORD
  5
2B9
330
1
100
AcDbSymbolTableRecord
100
AcDbBlockTableRecord
  2
_None
340
0
 70
     0
280
     1
281
     0
  0
BLOCK_RECORD
  5
301
330
1
100
AcDbSymbolTableRecord
100
AcDbBlockTableRecord
  2
_Open
340
0
 70
     0
280
     1
281
     0
  0
BLOCK_RECORD
  5
31B
330
1
100
AcDbSymbolTableRecord
100
AcDbBlockTableRecord
  2
_Open90
340
0
 70
     0
280
     1
281
     0
  0
BLOCK_RECORD
  5
501
330
1
100
AcDbSymbolTableRecord
100
AcDbBlockTableRecord
  2
_ArchTick
340
0
 70
     0
280
     1
281
     0
  0
BLOCK_RECORD
  5
723
330
1
100
AcDbSymbolTableRecord
100
AcDbBlockTableRecord
  2
*D5
340
0
 70
     0
280
     1
281
     0
  0
BLOCK_RECORD
  5
73D
330
1
100
AcDbSymbolTableRecord
100
AcDbBlockTableRecord
  2
*D6
340
0
 70
     0
280
     1
281
     0
  0
BLOCK_RECORD
  5
757
330
1
100
AcDbSymbolTableRecord
100
AcDbBlockTableRecord
  2
*D7
340
0
 70
     0
280
     1
281
     0
  0
BLOCK_RECORD
  5
771
330
1
100
AcDbSymbolTableRecord
100
AcDbBlockTableRecord
  2
*D8
340
0
 70
     0
280
     1
281
     0
  0
BLOCK_RECORD
  5
78B
330
1
100
AcDbSymbolTableRecord
100
AcDbBlockTableRecord
  2
*D9
340
0
 70
     0
280
     1
281
     0
  0
BLOCK_RECORD
  5
7A5
330
1
100
AcDbSymbolTableRecord
100
AcDbBlockTableRecord
  2
*D10
340
0
 70
     0
280
     1
281
     0
  0
BLOCK_RECORD
  5
7BF
330
1
100
AcDbSymbolTableRecord
100
AcDbBlockTableRecord
  2
*D11
340
0
 70
     0
280
     1
281
     0
  0
BLOCK_RECORD
  5
7D9
330
1
100
AcDbSymbolTableRecord
100
AcDbBlockTableRecord
  2
*D12
340
0
 70
     0
280
     1
281
     0
  0
BLOCK_RECORD
  5
7F3
330
1
100
AcDbSymbolTableRecord
100
AcDbBlockTableRecord
  2
*D13
340
0
 70
     0
280
     1
281
     0
  0
BLOCK_RECORD
  5
80D
330
1
100
AcDbSymbolTableRecord
100
AcDbBlockTableRecord
  2
*D14
340
0
 70
     0
280
     1
281
     0
  0
BLOCK_RECORD
  5
827
330
1
100
AcDbSymbolTableRecord
100
AcDbBlockTableRecord
  2
*D15
340
0
 70
     0
280
     1
281
     0
  0
BLOCK_RECORD
  5
841
330
1
100
AcDbSymbolTableRecord
100
AcDbBlockTableRecord
  2
*D16
340
0
 70
     0
280
     1
281
     0
  0
BLOCK_RECORD
  5
8B8
330
1
100
AcDbSymbolTableRecord
100
AcDbBlockTableRecord
  2
*D17
340
0
 70
     0
280
     1
281
     0
  0
BLOCK_RECORD
  5
8D2
330
1
100
AcDbSymbolTableRecord
100
AcDbBlockTableRecord
  2
*D18
340
0
 70
     0
280
     1
281
     0
  0
BLOCK_RECORD
  5
8EC
330
1
100
AcDbSymbolTableRecord
100
AcDbBlockTableRecord
  2
*D19
340
0
 70
     0
280
     1
281
     0
  0
BLOCK_RECORD
  5
924
330
1
100
AcDbSymbolTableRecord
100
AcDbBlockTableRecord
  2
*D20
340
0
 70
     0
280
     1
281
     0
  0
BLOCK_RECORD
  5
93E
330
1
100
AcDbSymbolTableRecord
100
AcDbBlockTableRecord
  2
*D21
340
0
 70
     0
280
     1
281
     0
  0
BLOCK_RECORD
  5
958
330
1
100
AcDbSymbolTableRecord
100
AcDbBlockTableRecord
  2
*D22
340
0
 70
     0
280
     1
281
     0
  0
BLOCK_RECORD
  5
972
330
1
100
AcDbSymbolTableRecord
100
AcDbBlockTableRecord
  2
*D23
340
0
 70
     0
280
     1
281
     0
  0
BLOCK_RECORD
  5
98C
330
1
100
AcDbSymbolTableRecord
100
AcDbBlockTableRecord
  2
*D24
340
0
 70
     0
280
     1
281
     0
  0
BLOCK_RECORD
  5
9A6
330
1
100
AcDbSymbolTableRecord
100
AcDbBlockTableRecord
  2
*D25
340
0
 70
     0
280
     1
281
     0
  0
BLOCK_RECORD
  5
9C2
330
1
100
AcDbSymbolTableRecord
100
AcDbBlockTableRecord
  2
*D26
340
0
 70
     0
280
     1
281
     0
  0
BLOCK_RECORD
  5
9DC
330
1
100
AcDbSymbolTableRecord
100
AcDbBlockTableRecord
  2
*D27
340
0
 70
     0
280
     1
281
     0
  0
BLOCK_RECORD
  5
9F6
330
1
100
AcDbSymbolTableRecord
100
AcDbBlockTableRecord
  2
*D28
340
0
 70
     0
280
     1
281
     0
  0
BLOCK_RECORD
  5
A10
330
1
100
AcDbSymbolTableRecord
100
AcDbBlockTableRecord
  2
*D29
340
0
 70
     0
280
     1
281
     0
  0
BLOCK_RECORD
  5
A2A
330
1
100
AcDbSymbolTableRecord
100
AcDbBlockTableRecord
  2
*D30
340
0
 70
     0
280
     1
281
     0
  0
BLOCK_RECORD
  5
A44
330
1
100
AcDbSymbolTableRecord
100
AcDbBlockTableRecord
  2
*D31
340
0
 70
     0
280
     1
281
     0
  0
BLOCK_RECORD
  5
A5E
330
1
100
AcDbSymbolTableRecord
100
AcDbBlockTableRecord
  2
*D32
340
0
 70
     0
280
     1
281
     0
  0
BLOCK_RECORD
  5
A78
330
1
100
AcDbSymbolTableRecord
100
AcDbBlockTableRecord
  2
*D33
340
0
 70
     0
280
     1
281
     0
  0
BLOCK_RECORD
  5
A92
330
1
100
AcDbSymbolTableRecord
100
AcDbBlockTableRecord
  2
*D34
340
0
 70
     0
280
     1
281
     0
  0
BLOCK_RECORD
  5
B03
330
1
100
AcDbSymbolTableRecord
100
AcDbBlockTableRecord
  2
*D35
340
0
 70
     0
280
     1
281
     0
  0
BLOCK_RECORD
  5
B1D
330
1
100
AcDbSymbolTableRecord
100
AcDbBlockTableRecord
  2
*D36
340
0
 70
     0
280
     1
281
     0
  0
BLOCK_RECORD
  5
B37
330
1
100
AcDbSymbolTableRecord
100
AcDbBlockTableRecord
  2
*D37
340
0
 70
     0
280
     1
281
     0
  0
BLOCK_RECORD
  5
B51
330
1
100
AcDbSymbolTableRecord
100
AcDbBlockTableRecord
  2
*D38
340
0
 70
     0
280
     1
281
     0
  0
BLOCK_RECORD
  5
B6B
330
1
100
AcDbSymbolTableRecord
100
AcDbBlockTableRecord
  2
*D39
340
0
 70
     0
280
     1
281
     0
  0
BLOCK_RECORD
  5
B85
330
1
100
AcDbSymbolTableRecord
100
AcDbBlockTableRecord
  2
*D40
340
0
 70
     0
280
     1
281
     0
  0
BLOCK_RECORD
  5
B9F
330
1
100
AcDbSymbolTableRecord
100
AcDbBlockTableRecord
  2
*D41
340
0
 70
     0
280
     1
281
     0
  0
BLOCK_RECORD
  5
BB9
330
1
100
AcDbSymbolTableRecord
100
AcDbBlockTableRecord
  2
*D42
340
0
 70
     0
280
     1
281
     0
  0
BLOCK_RECORD
  5
BD3
330
1
100
AcDbSymbolTableRecord
100
AcDbBlockTableRecord
  2
*D43
340
0
 70
     0
280
     1
281
     0
  0
BLOCK_RECORD
  5
BED
330
1
100
AcDbSymbolTableRecord
100
AcDbBlockTableRecord
  2
*D44
340
0
 70
     0
280
     1
281
     0
  0
BLOCK_RECORD
  5
C07
330
1
100
AcDbSymbolTableRecord
100
AcDbBlockTableRecord
  2
*D45
340
0
 70
     0
280
     1
281
     0
  0
BLOCK_RECORD
  5
C21
330
1
100
AcDbSymbolTableRecord
100
AcDbBlockTableRecord
  2
*D46
340
0
 70
     0
280
     1
281
     0
  0
BLOCK_RECORD
  5
E6B
330
1
100
AcDbSymbolTableRecord
100
AcDbBlockTableRecord
  2
*D47
340
0
 70
     0
280
     1
281
     0
  0
BLOCK_RECORD
  5
E85
330
1
100
AcDbSymbolTableRecord
100
AcDbBlockTableRecord
  2
*D48
340
0
 70
     0
280
     1
281
     0
  0
BLOCK_RECORD
  5
E9F
330
1
100
AcDbSymbolTableRecord
100
AcDbBlockTableRecord
  2
*D49
340
0
 70
     0
280
     1
281
     0
  0
BLOCK_RECORD
  5
EED
330
1
100
AcDbSymbolTableRecord
100
AcDbBlockTableRecord
  2
*D50
340
0
 70
     0
280
     1
281
     0
  0
BLOCK_RECORD
  5
EFA
330
1
100
AcDbSymbolTableRecord
100
AcDbBlockTableRecord
  2
*D51
340
0
 70
     0
280
     1
281
     0
  0
BLOCK_RECORD
  5
F07
330
1
100
AcDbSymbolTableRecord
100
AcDbBlockTableRecord
  2
*D52
340
0
 70
     0
280
     1
281
     0
  0
BLOCK_RECORD
  5
133A
330
1
100
AcDbSymbolTableRecord
100
AcDbBlockTableRecord
  2
*D54
340
0
 70
     0
280
     1
281
     0
  0
BLOCK_RECORD
  5
1351
330
1
100
AcDbSymbolTableRecord
100
AcDbBlockTableRecord
  2
*D55
340
0
 70
     0
280
     1
281
     0
  0
BLOCK_RECORD
  5
135E
330
1
100
AcDbSymbolTableRecord
100
AcDbBlockTableRecord
  2
*D56
340
0
 70
     0
280
     1
281
     0
  0
BLOCK_RECORD
  5
1377
330
1
100
AcDbSymbolTableRecord
100
AcDbBlockTableRecord
  2
*D57
340
0
 70
     0
280
     1
281
     0
  0
BLOCK_RECORD
  5
1384
330
1
100
AcDbSymbolTableRecord
100
AcDbBlockTableRecord
  2
*D58
340
0
 70
     0
280
     1
281
     0
  0
BLOCK_RECORD
  5
1391
330
1
100
AcDbSymbolTableRecord
100
AcDbBlockTableRecord
  2
*D59
340
0
 70
     0
280
     1
281
     0
  0
BLOCK_RECORD
  5
170A
330
1
100
AcDbSymbolTableRecord
100
AcDbBlockTableRecord
  2
*D61
340
0
 70
     0
280
     1
281
     0
  0
BLOCK_RECORD
  5
1721
330
1
100
AcDbSymbolTableRecord
100
AcDbBlockTableRecord
  2
*D62
340
0
 70
     0
280
     1
281
     0
  0
BLOCK_RECORD
  5
172E
330
1
100
AcDbSymbolTableRecord
100
AcDbBlockTableRecord
  2
*D63
340
0
 70
     0
280
     1
281
     0
  0
BLOCK_RECORD
  5
173D
330
1
100
AcDbSymbolTableRecord
100
AcDbBlockTableRecord
  2
*D64
340
0
 70
     0
280
     1
281
     0
  0
BLOCK_RECORD
  5
174A
330
1
100
AcDbSymbolTableRecord
100
AcDbBlockTableRecord
  2
*D65
340
0
 70
     0
280
     1
281
     0
  0
BLOCK_RECORD
  5
1757
330
1
100
AcDbSymbolTableRecord
100
AcDbBlockTableRecord
  2
*D66
340
0
 70
     0
280
     1
281
     0
  0
BLOCK_RECORD
  5
1A1E
330
1
100
AcDbSymbolTableRecord
100
AcDbBlockTableRecord
  2
*D68
340
0
 70
     0
280
     1
281
     0
  0
BLOCK_RECORD
  5
1A35
330
1
100
AcDbSymbolTableRecord
100
AcDbBlockTableRecord
  2
*D69
340
0
 70
     0
280
     1
281
     0
  0
BLOCK_RECORD
  5
1A42
330
1
100
AcDbSymbolTableRecord
100
AcDbBlockTableRecord
  2
*D70
340
0
 70
     0
280
     1
281
     0
  0
ENDTAB
  0
ENDSEC
  0
SECTION
  2
BLOCKS
  0
BLOCK
  5
20
330
1F
100
AcDbEntity
  8
0
100
AcDbBlockBegin
  2
*Model_Space
 70
     0
 10
0.0
 20
0.0
 30
0.0
  3
*Model_Space
  1

  0
ENDBLK
  5
21
330
1F
100
AcDbEntity
  8
0
100
AcDbBlockEnd
  0
BLOCK
  5
5A
330
58
100
AcDbEntity
 67
     1
  8
0
100
AcDbBlockBegin
  2
*Paper_Space
 70
     0
 10
0.0
 20
0.0
 30
0.0
  3
*Paper_Space
  1

  0
ENDBLK
  5
5B
330
58
100
AcDbEntity
 67
     1
  8
0
100
AcDbBlockEnd
  0
BLOCK
  5
5F
330
5D
100
AcDbEntity
 67
     1
  8
0
100
AcDbBlockBegin
  2
*Paper_Space0
 70
     0
 10
0.0
 20
0.0
 30
0.0
  3
*Paper_Space0
  1

  0
ENDBLK
  5
60
330
5D
100
AcDbEntity
 67
     1
  8
0
100
AcDbBlockEnd
  0
BLOCK
  5
2BA
330
2B9
100
AcDbEntity
  8
0
100
AcDbBlockBegin
  2
_None
 70
     0
 10
0.0
 20
0.0
 30
0.0
  3
_None
  1

  0
ENDBLK
  5
2BB
330
2B9
100
AcDbEntity
  8
0
100
AcDbBlockEnd
  0
BLOCK
  5
305
330
301
100
AcDbEntity
  8
0
100
AcDbBlockBegin
  2
_Open
 70
     0
 10
0.0
 20
0.0
 30
0.0
  3
_Open
  1

  0
LINE
  5
302
330
301
100
AcDbEntity
  8
0
  6
ByBlock
 62
     0
370
    -2
100
AcDbLine
 10
-1.0
 20
0.1666666666666666
 30
0.0
 11
0.0
 21
0.0
 31
0.0
  0
LINE
  5
303
330
301
100
AcDbEntity
  8
0
  6
ByBlock
 62
     0
370
    -2
100
AcDbLine
 10
-1.0
 20
-0.1666666666666666
 30
0.0
 11
0.0
 21
0.0
 31
0.0
  0
LINE
  5
304
330
301
100
AcDbEntity
  8
0
  6
ByBlock
 62
     0
370
    -2
100
AcDbLine
 10
0.0
 20
0.0
 30
0.0
 11
-1.0
 21
0.0
 31
0.0
  0
ENDBLK
  5
306
330
301
100
AcDbEntity
  8
0
100
AcDbBlockEnd
  0
BLOCK
  5
31F
330
31B
100
AcDbEntity
  8
0
100
AcDbBlockBegin
  2
_Open90
 70
     0
 10
0.0
 20
0.0
 30
0.0
  3
_Open90
  1

  0
LINE
  5
31C
330
31B
100
AcDbEntity
  8
0
  6
ByBlock
 62
     0
370
    -2
100
AcDbLine
 10
-0.5
 20
0.5
 30
0.0
 11
0.0
 21
0.0
 31
0.0
  0
LINE
  5
31D
330
31B
100
AcDbEntity
  8
0
  6
ByBlock
 62
     0
370
    -2
100
AcDbLine
 10
0.0
 20
0.0
 30
0.0
 11
-0.5
 21
-0.5
 31
0.0
  0
LINE
  5
31E
330
31B
100
AcDbEntity
  8
0
  6
ByBlock
 62
     0
370
    -2
100
AcDbLine
 10
0.0
 20
0.0
 30
0.0
 11
-1.0
 21
0.0
 31
0.0
  0
ENDBLK
  5
320
330
31B
100
AcDbEntity
  8
0
100
AcDbBlockEnd
  0
BLOCK
  5
502
330
501
100
AcDbEntity
  8
0
100
AcDbBlockBegin
  2
_ArchTick
 70
     0
 10
0.0
 20
0.0
 30
0.0
  3
_ArchTick
  1

  0
LWPOLYLINE
  5
503
330
501
100
AcDbEntity
  8
0
 62
     0
100
AcDbPolyline
 90
        2
 70
     0
 43
0.15
 10
-0.5
 20
-0.5
 10
0.5
 20
0.5
  0
ENDBLK
  5
504
330
501
100
AcDbEntity
  8
0
100
AcDbBlockEnd
  0
BLOCK
  5
724
330
723
100
AcDbEntity
  8
0
100
AcDbBlockBegin
  2
*D5
 70
     1
 10
0.0
 20
0.0
 30
0.0
  3
*D5
  1

  0
LINE
  5
731
330
723
100
AcDbEntity
  8
0
 62
     0
440
 16777216
370
    -2
100
AcDbLine
 10
9.523915667628953
 20
50.67990411398834
 30
0.0
 11
3.912701444382698
 21
50.67990411398834
 31
0.0
  0
LINE
  5
732
330
723
100
AcDbEntity
  8
0
 62
     0
440
 16777216
370
    -2
100
AcDbLine
 10
9.523915667628976
 20
10.17990563366454
 30
0.0
 11
3.91270144438269
 21
10.17990563366454
 31
0.0
  0
LINE
  5
733
330
723
100
AcDbEntity
  8
0
 62
     0
440
 16777216
370
    -2
100
AcDbLine
 10
4.162701444382698
 20
50.17990411398834
 30
0.0
 11
4.162701444382695
 21
31.22873843453585
 31
0.0
  0
LINE
  5
734
330
723
100
AcDbEntity
  8
0
 62
     0
440
 16777216
370
    -2
100
AcDbLine
 10
4.162701444382689
 20
10.67990563366454
 30
0.0
 11
4.162701444382693
 21
29.63107131311704
 31
0.0
  0
SOLID
  5
735
330
723
100
AcDbEntity
  8
0
 62
     0
440
 16777216
100
AcDbTrace
 10
4.079368111049365
 20
50.17990411398834
 30
0.0
 11
4.246034777716031
 21
50.17990411398834
 31
0.0
 12
4.162701444382698
 22
50.67990411398834
 32
0.0
 13
4.162701444382698
 23
50.67990411398834
 33
0.0
  0
SOLID
  5
736
330
723
100
AcDbEntity
  8
0
 62
     0
440
 16777216
100
AcDbTrace
 10
4.079368111049356
 20
10.67990563366454
 30
0.0
 11
4.246034777716023
 21
10.67990563366454
 31
0.0
 12
4.162701444382689
 22
10.17990563366454
 32
0.0
 13
4.162701444382689
 23
10.17990563366454
 33
0.0
  0
MTEXT
  5
737
330
723
100
AcDbEntity
  8
0
 62
     0
440
 16777216
100
AcDbMText
 10
4.162701444382689
 20
30.42990487382644
 30
0.0
 40
0.7
 41
0.0
 46
0.0
 71
     5
 72
     1
  1
\A1;40{\H1.000000x;\S1#2;}
 73
     1
 44
1.0
  0
POINT
  5
738
330
723
100
AcDbEntity
  8
Defpoints
 62
     0
440
 16777216
100
AcDbPoint
 10
9.773915667628953
 20
50.67990411398834
 30
0.0
  0
POINT
  5
739
330
723
100
AcDbEntity
  8
Defpoints
 62
     0
440
 16777216
100
AcDbPoint
 10
9.773915667628976
 20
10.17990563366454
 30
0.0
  0
POINT
  5
73A
330
723
100
AcDbEntity
  8
Defpoints
 62
     0
440
 16777216
100
AcDbPoint
 10
4.162701444382689
 20
10.17990563366454
 30
0.0
  0
ENDBLK
  5
725
330
723
100
AcDbEntity
  8
0
100
AcDbBlockEnd
  0
BLOCK
  5
73E
330
73D
100
AcDbEntity
  8
0
100
AcDbBlockBegin
  2
*D6
 70
     1
 10
0.0
 20
0.0
 30
0.0
  3
*D6
  1

  0
LINE
  5
74B
330
73D
100
AcDbEntity
  8
0
 62
     0
440
 16777216
370
    -2
100
AcDbLine
 10
14.02391566762895
 20
50.67990411398834
 30
0.0
 11
16.14646844361701
 21
50.67990411398832
 31
0.0
  0
LINE
  5
74C
330
73D
100
AcDbEntity
  8
0
 62
     0
440
 16777216
370
    -2
100
AcDbLine
 10
14.02391566762895
 20
41.28860011398833
 30
0.0
 11
16.14646844361701
 21
41.28860011398831
 31
0.0
  0
LINE
  5
74D
330
73D
100
AcDbEntity
  8
0
 62
     0
440
 16777216
370
    -2
100
AcDbLine
 10
15.89646844361701
 20
50.17990411398834
 30
0.0
 11
15.89646844361701
 21
46.79526166378368
 31
0.0
  0
LINE
  5
74E
330
73D
100
AcDbEntity
  8
0
 62
     0
440
 16777216
370
    -2
100
AcDbLine
 10
15.89646844361701
 20
41.78860011398833
 30
0.0
 11
15.89646844361701
 21
45.17324256419297
 31
0.0
  0
SOLID
  5
74F
330
73D
100
AcDbEntity
  8
0
 62
     0
440
 16777216
100
AcDbTrace
 10
15.81313511028367
 20
50.17990411398834
 30
0.0
 11
15.97980177695034
 21
50.17990411398834
 31
0.0
 12
15.89646844361701
 22
50.67990411398834
 32
0.0
 13
15.89646844361701
 23
50.67990411398834
 33
0.0
  0
SOLID
  5
750
330
73D
100
AcDbEntity
  8
0
 62
     0
440
 16777216
100
AcDbTrace
 10
15.81313511028367
 20
41.78860011398833
 30
0.0
 11
15.97980177695034
 21
41.78860011398833
 31
0.0
 12
15.89646844361701
 22
41.28860011398833
 32
0.0
 13
15.89646844361701
 23
41.28860011398833
 33
0.0
  0
MTEXT
  5
751
330
73D
100
AcDbEntity
  8
0
 62
     0
440
 16777216
100
AcDbMText
 10
15.896468443617
 20
45.98425211398833
 30
0.0
 40
0.7
 41
0.0
 46
0.0
 71
     5
 72
     1
  1
\A1;9{\H1.000000x;\S3#8;}
 73
     1
 44
1.0
  0
POINT
  5
752
330
73D
100
AcDbEntity
  8
Defpoints
 62
     0
440
 16777216
100
AcDbPoint
 10
13.77391566762895
 20
50.67990411398834
 30
0.0
  0
POINT
  5
753
330
73D
100
AcDbEntity
  8
Defpoints
 62
     0
440
 16777216
100
AcDbPoint
 10
13.77391566762895
 20
41.28860011398833
 30
0.0
  0
POINT
  5
754
330
73D
100
AcDbEntity
  8
Defpoints
 62
     0
440
 16777216
100
AcDbPoint
 10
15.89646844361701
 20
41.28860011398833
 30
0.0
  0
ENDBLK
  5
73F
330
73D
100
AcDbEntity
  8
0
100
AcDbBlockEnd
  0
BLOCK
  5
758
330
757
100
AcDbEntity
  8
0
100
AcDbBlockBegin
  2
*D7
 70
     1
 10
0.0
 20
0.0
 30
0.0
  3
*D7
  1

  0
LINE
  5
765
330
757
100
AcDbEntity
  8
0
 62
     0
440
 16777216
370
    -2
100
AcDbLine
 10
14.02391566762895
 20
10.17990563366454
 30
0.0
 11
16.01821809606017
 21
10.17990563366454
 31
0.0
  0
LINE
  5
766
330
757
100
AcDbEntity
  8
0
 62
     0
440
 16777216
370
    -2
100
AcDbLine
 10
14.02391566762895
 20
19.57120963366454
 30
0.0
 11
16.01821809606017
 21
19.57120963366454
 31
0.0
  0
LINE
  5
767
330
757
100
AcDbEntity
  8
0
 62
     0
440
 16777216
370
    -2
100
AcDbLine
 10
15.76821809606016
 20
10.67990563366454
 30
0.0
 11
15.76821809606016
 21
14.06454808386918
 31
0.0
  0
LINE
  5
768
330
757
100
AcDbEntity
  8
0
 62
     0
440
 16777216
370
    -2
100
AcDbLine
 10
15.76821809606016
 20
19.07120963366454
 30
0.0
 11
15.76821809606016
 21
15.6865671834599
 31
0.0
  0
SOLID
  5
769
330
757
100
AcDbEntity
  8
0
 62
     0
440
 16777216
100
AcDbTrace
 10
15.68488476272683
 20
10.67990563366454
 30
0.0
 11
15.8515514293935
 21
10.67990563366454
 31
0.0
 12
15.76821809606016
 22
10.17990563366454
 32
0.0
 13
15.76821809606016
 23
10.17990563366454
 33
0.0
  0
SOLID
  5
76A
330
757
100
AcDbEntity
  8
0
 62
     0
440
 16777216
100
AcDbTrace
 10
15.68488476272683
 20
19.07120963366454
 30
0.0
 11
15.8515514293935
 21
19.07120963366454
 31
0.0
 12
15.76821809606016
 22
19.57120963366454
 32
0.0
 13
15.76821809606016
 23
19.57120963366454
 33
0.0
  0
MTEXT
  5
76B
330
757
100
AcDbEntity
  8
0
 62
     0
440
 16777216
100
AcDbMText
 10
15.76821809606016
 20
14.87555763366454
 30
0.0
 40
0.7
 41
0.0
 46
0.0
 71
     5
 72
     1
  1
\A1;9{\H1.000000x;\S3#8;}
 73
     1
 44
1.0
  0
POINT
  5
76C
330
757
100
AcDbEntity
  8
Defpoints
 62
     0
440
 16777216
100
AcDbPoint
 10
13.77391566762895
 20
10.17990563366454
 30
0.0
  0
POINT
  5
76D
330
757
100
AcDbEntity
  8
Defpoints
 62
     0
440
 16777216
100
AcDbPoint
 10
13.77391566762895
 20
19.57120963366454
 30
0.0
  0
POINT
  5
76E
330
757
100
AcDbEntity
  8
Defpoints
 62
     0
440
 16777216
100
AcDbPoint
 10
15.76821809606016
 20
19.57120963366454
 30
0.0
  0
ENDBLK
  5
759
330
757
100
AcDbEntity
  8
0
100
AcDbBlockEnd
  0
BLOCK
  5
772
330
771
100
AcDbEntity
  8
0
100
AcDbBlockBegin
  2
*D8
 70
     1
 10
0.0
 20
0.0
 30
0.0
  3
*D8
  1

  0
LINE
  5
77F
330
771
100
AcDbEntity
  8
0
 62
     0
440
 16777216
370
    -2
100
AcDbLine
 10
9.773915667628953
 20
50.92990411398833
 30
0.0
 11
9.773915667628953
 21
53.39669560433502
 31
0.0
  0
LINE
  5
780
330
771
100
AcDbEntity
  8
0
 62
     0
440
 16777216
370
    -2
100
AcDbLine
 10
13.77391566762895
 20
50.92990411398833
 30
0.0
 11
13.77391566762895
 21
53.39669560433502
 31
0.0
  0
LINE
  5
781
330
771
100
AcDbEntity
  8
0
 62
     0
440
 16777216
370
    -2
100
AcDbLine
 10
10.27391566762895
 20
53.14669560433501
 30
0.0
 11
11.44182835521422
 21
53.14669560433501
 31
0.0
  0
LINE
  5
782
330
771
100
AcDbEntity
  8
0
 62
     0
440
 16777216
370
    -2
100
AcDbLine
 10
13.27391566762895
 20
53.14669560433501
 30
0.0
 11
12.10600298004368
 21
53.14669560433501
 31
0.0
  0
SOLID
  5
783
330
771
100
AcDbEntity
  8
0
 62
     0
440
 16777216
100
AcDbTrace
 10
10.27391566762895
 20
53.23002893766835
 30
0.0
 11
10.27391566762895
 21
53.06336227100167
 31
0.0
 12
9.773915667628953
 22
53.14669560433501
 32
0.0
 13
9.773915667628953
 23
53.14669560433501
 33
0.0
  0
SOLID
  5
784
330
771
100
AcDbEntity
  8
0
 62
     0
440
 16777216
100
AcDbTrace
 10
13.27391566762895
 20
53.23002893766835
 30
0.0
 11
13.27391566762895
 21
53.06336227100167
 31
0.0
 12
13.77391566762895
 22
53.14669560433501
 32
0.0
 13
13.77391566762895
 23
53.14669560433501
 33
0.0
  0
MTEXT
  5
785
330
771
100
AcDbEntity
  8
0
 62
     0
440
 16777216
100
AcDbMText
 10
11.77391566762895
 20
53.14669560433501
 30
0.0
 40
0.7
 41
0.0
 46
0.0
 71
     5
 72
     1
  1
\A1;4
 73
     1
 44
1.0
  0
POINT
  5
786
330
771
100
AcDbEntity
  8
Defpoints
 62
     0
440
 16777216
100
AcDbPoint
 10
9.773915667628953
 20
50.67990411398834
 30
0.0
  0
POINT
  5
787
330
771
100
AcDbEntity
  8
Defpoints
 62
     0
440
 16777216
100
AcDbPoint
 10
13.77391566762895
 20
50.67990411398834
 30
0.0
  0
POINT
  5
788
330
771
100
AcDbEntity
  8
Defpoints
 62
     0
440
 16777216
100
AcDbPoint
 10
13.77391566762895
 20
53.14669560433501
 30
0.0
  0
ENDBLK
  5
773
330
771
100
AcDbEntity
  8
0
100
AcDbBlockEnd
  0
BLOCK
  5
78C
330
78B
100
AcDbEntity
  8
0
100
AcDbBlockBegin
  2
*D9
 70
     1
 10
0.0
 20
0.0
 30
0.0
  3
*D9
  1

  0
LINE
  5
799
330
78B
100
AcDbEntity
  8
0
 62
     0
440
 16777216
370
    -2
100
AcDbLine
 10
44.6717422811289
 20
50.92990417668167
 30
0.0
 11
44.6717422811289
 21
54.12314319379046
 31
0.0
  0
LINE
  5
79A
330
78B
100
AcDbEntity
  8
0
 62
     0
440
 16777216
370
    -2
100
AcDbLine
 10
49.6717422811289
 20
50.92990417668167
 30
0.0
 11
49.6717422811289
 21
54.12314319379046
 31
0.0
  0
LINE
  5
79B
330
78B
100
AcDbEntity
  8
0
 62
     0
440
 16777216
370
    -2
100
AcDbLine
 10
45.1717422811289
 20
53.87314319379044
 30
0.0
 11
46.84968225384375
 21
53.87314319379044
 31
0.0
  0
LINE
  5
79C
330
78B
100
AcDbEntity
  8
0
 62
     0
440
 16777216
370
    -2
100
AcDbLine
 10
49.1717422811289
 20
53.87314319379044
 30
0.0
 11
47.49380230841403
 21
53.87314319379044
 31
0.0
  0
SOLID
  5
79D
330
78B
100
AcDbEntity
  8
0
 62
     0
440
 16777216
100
AcDbTrace
 10
45.1717422811289
 20
53.95647652712378
 30
0.0
 11
45.1717422811289
 21
53.78980986045711
 31
0.0
 12
44.6717422811289
 22
53.87314319379044
 32
0.0
 13
44.6717422811289
 23
53.87314319379044
 33
0.0
  0
SOLID
  5
79E
330
78B
100
AcDbEntity
  8
0
 62
     0
440
 16777216
100
AcDbTrace
 10
49.1717422811289
 20
53.95647652712378
 30
0.0
 11
49.1717422811289
 21
53.78980986045711
 31
0.0
 12
49.6717422811289
 22
53.87314319379044
 32
0.0
 13
49.6717422811289
 23
53.87314319379044
 33
0.0
  0
MTEXT
  5
79F
330
78B
100
AcDbEntity
  8
0
 62
     0
440
 16777216
100
AcDbMText
 10
47.1717422811289
 20
53.87314319379044
 30
0.0
 40
0.7
 41
0.0
 46
0.0
 71
     5
 72
     1
  1
\A1;5
 73
     1
 44
1.0
  0
POINT
  5
7A0
330
78B
100
AcDbEntity
  8
Defpoints
 62
     0
440
 16777216
100
AcDbPoint
 10
44.6717422811289
 20
50.67990417668167
 30
-2.444578435206094
  0
POINT
  5
7A1
330
78B
100
AcDbEntity
  8
Defpoints
 62
     0
440
 16777216
100
AcDbPoint
 10
49.6717422811289
 20
50.67990417668167
 30
-2.444578435206094
  0
POINT
  5
7A2
330
78B
100
AcDbEntity
  8
Defpoints
 62
     0
440
 16777216
100
AcDbPoint
 10
49.6717422811289
 20
53.87314319379044
 30
0.0
  0
ENDBLK
  5
78D
330
78B
100
AcDbEntity
  8
0
100
AcDbBlockEnd
  0
BLOCK
  5
7A6
330
7A5
100
AcDbEntity
  8
0
100
AcDbBlockBegin
  2
*D10
 70
     1
 10
0.0
 20
0.0
 30
0.0
  3
*D10
  1

  0
LINE
  5
7B3
330
7A5
100
AcDbEntity
  8
0
 62
     0
440
 16777216
370
    -2
100
AcDbLine
 10
44.42174228112889
 20
50.67990417668167
 30
0.0
 11
42.14991529785343
 21
50.67990417668167
 31
0.0
  0
LINE
  5
7B4
330
7A5
100
AcDbEntity
  8
0
 62
     0
440
 16777216
370
    -2
100
AcDbLine
 10
44.42174228112889
 20
43.6994747873445
 30
0.0
 11
42.14991529785343
 21
43.6994747873445
 31
0.0
  0
LINE
  5
7B5
330
7A5
100
AcDbEntity
  8
0
 62
     0
440
 16777216
370
    -2
100
AcDbLine
 10
42.39991529785343
 20
50.17990417668167
 30
0.0
 11
42.39991529785342
 21
47.62968948201308
 31
0.0
  0
LINE
  5
7B6
330
7A5
100
AcDbEntity
  8
0
 62
     0
440
 16777216
370
    -2
100
AcDbLine
 10
42.39991529785342
 20
44.1994747873445
 30
0.0
 11
42.39991529785342
 21
46.74968948201309
 31
0.0
  0
SOLID
  5
7B7
330
7A5
100
AcDbEntity
  8
0
 62
     0
440
 16777216
100
AcDbTrace
 10
42.31658196452008
 20
50.17990417668167
 30
0.0
 11
42.48324863118677
 21
50.17990417668167
 31
0.0
 12
42.39991529785343
 22
50.67990417668167
 32
0.0
 13
42.39991529785343
 23
50.67990417668167
 33
0.0
  0
SOLID
  5
7B8
330
7A5
100
AcDbEntity
  8
0
 62
     0
440
 16777216
100
AcDbTrace
 10
42.31658196452007
 20
44.1994747873445
 30
0.0
 11
42.48324863118675
 21
44.1994747873445
 31
0.0
 12
42.39991529785342
 22
43.6994747873445
 32
0.0
 13
42.39991529785342
 23
43.6994747873445
 33
0.0
  0
MTEXT
  5
7B9
330
7A5
100
AcDbEntity
  8
0
 62
     0
440
 16777216
100
AcDbMText
 10
42.39991529785341
 20
47.18968948201309
 30
0.0
 40
0.7
 41
0.0
 46
0.0
 71
     5
 72
     1
  1
\A1;7
 73
     1
 44
1.0
  0
POINT
  5
7BA
330
7A5
100
AcDbEntity
  8
Defpoints
 62
     0
440
 16777216
100
AcDbPoint
 10
44.6717422811289
 20
50.67990417668167
 30
-2.444578435206094
  0
POINT
  5
7BB
330
7A5
100
AcDbEntity
  8
Defpoints
 62
     0
440
 16777216
100
AcDbPoint
 10
44.67174228112889
 20
43.6994747873445
 30
-2.444578435206149
  0
POINT
  5
7BC
330
7A5
100
AcDbEntity
  8
Defpoints
 62
     0
440
 16777216
100
AcDbPoint
 10
42.39991529785342
 20
43.6994747873445
 30
0.0
  0
ENDBLK
  5
7A7
330
7A5
100
AcDbEntity
  8
0
100
AcDbBlockEnd
  0
BLOCK
  5
7C0
330
7BF
100
AcDbEntity
  8
0
100
AcDbBlockBegin
  2
*D11
 70
     1
 10
0.0
 20
0.0
 30
0.0
  3
*D11
  1

  0
LINE
  5
7CD
330
7BF
100
AcDbEntity
  8
0
 62
     0
440
 16777216
370
    -2
100
AcDbLine
 10
44.42174228112889
 20
10.17990567668168
 30
0.0
 11
42.14991529785343
 21
10.17990567668168
 31
0.0
  0
LINE
  5
7CE
330
7BF
100
AcDbEntity
  8
0
 62
     0
440
 16777216
370
    -2
100
AcDbLine
 10
44.42174228112889
 20
17.1603350660188
 30
0.0
 11
42.14991529785343
 21
17.1603350660188
 31
0.0
  0
LINE
  5
7CF
330
7BF
100
AcDbEntity
  8
0
 62
     0
440
 16777216
370
    -2
100
AcDbLine
 10
42.39991529785341
 20
10.67990567668168
 30
0.0
 11
42.39991529785341
 21
13.23012037135024
 31
0.0
  0
LINE
  5
7D0
330
7BF
100
AcDbEntity
  8
0
 62
     0
440
 16777216
370
    -2
100
AcDbLine
 10
42.39991529785342
 20
16.6603350660188
 30
0.0
 11
42.39991529785341
 21
14.11012037135024
 31
0.0
  0
SOLID
  5
7D1
330
7BF
100
AcDbEntity
  8
0
 62
     0
440
 16777216
100
AcDbTrace
 10
42.31658196452007
 20
10.67990567668168
 30
0.0
 11
42.48324863118675
 21
10.67990567668168
 31
0.0
 12
42.39991529785341
 22
10.17990567668168
 32
0.0
 13
42.39991529785341
 23
10.17990567668168
 33
0.0
  0
SOLID
  5
7D2
330
7BF
100
AcDbEntity
  8
0
 62
     0
440
 16777216
100
AcDbTrace
 10
42.31658196452007
 20
16.6603350660188
 30
0.0
 11
42.48324863118675
 21
16.6603350660188
 31
0.0
 12
42.39991529785342
 22
17.1603350660188
 32
0.0
 13
42.39991529785342
 23
17.1603350660188
 33
0.0
  0
MTEXT
  5
7D3
330
7BF
100
AcDbEntity
  8
0
 62
     0
440
 16777216
100
AcDbMText
 10
42.39991529785341
 20
13.67012037135025
 30
0.0
 40
0.7
 41
0.0
 46
0.0
 71
     5
 72
     1
  1
\A1;7
 73
     1
 44
1.0
  0
POINT
  5
7D4
330
7BF
100
AcDbEntity
  8
Defpoints
 62
     0
440
 16777216
100
AcDbPoint
 10
44.6717422811289
 20
10.17990567668168
 30
-2.444578435206094
  0
POINT
  5
7D5
330
7BF
100
AcDbEntity
  8
Defpoints
 62
     0
440
 16777216
100
AcDbPoint
 10
44.6717422811289
 20
17.1603350660188
 30
-2.444578435206149
  0
POINT
  5
7D6
330
7BF
100
AcDbEntity
  8
Defpoints
 62
     0
440
 16777216
100
AcDbPoint
 10
42.39991529785342
 20
17.1603350660188
 30
0.0
  0
ENDBLK
  5
7C1
330
7BF
100
AcDbEntity
  8
0
100
AcDbBlockEnd
  0
BLOCK
  5
7DA
330
7D9
100
AcDbEntity
  8
0
100
AcDbBlockBegin
  2
*D12
 70
     1
 10
0.0
 20
0.0
 30
0.0
  3
*D12
  1

  0
LINE
  5
7E7
330
7D9
100
AcDbEntity
  8
0
 62
     0
440
 16777216
370
    -2
100
AcDbLine
 10
49.9217422811289
 20
50.67990417668167
 30
0.0
 11
53.65273125884162
 21
50.67990417668167
 31
0.0
  0
LINE
  5
7E8
330
7D9
100
AcDbEntity
  8
0
 62
     0
440
 16777216
370
    -2
100
AcDbLine
 10
49.9217422811289
 20
10.17990567668168
 30
0.0
 11
53.65273125884161
 21
10.17990567668168
 31
0.0
  0
LINE
  5
7E9
330
7D9
100
AcDbEntity
  8
0
 62
     0
440
 16777216
370
    -2
100
AcDbLine
 10
53.40273125884163
 20
50.17990417668167
 30
0.0
 11
53.40273125884163
 21
31.22873848739109
 31
0.0
  0
LINE
  5
7EA
330
7D9
100
AcDbEntity
  8
0
 62
     0
440
 16777216
370
    -2
100
AcDbLine
 10
53.40273125884162
 20
10.67990567668168
 30
0.0
 11
53.40273125884163
 21
29.63107136597227
 31
0.0
  0
SOLID
  5
7EB
330
7D9
100
AcDbEntity
  8
0
 62
     0
440
 16777216
100
AcDbTrace
 10
53.3193979255083
 20
50.17990417668167
 30
0.0
 11
53.48606459217497
 21
50.17990417668167
 31
0.0
 12
53.40273125884163
 22
50.67990417668167
 32
0.0
 13
53.40273125884163
 23
50.67990417668167
 33
0.0
  0
SOLID
  5
7EC
330
7D9
100
AcDbEntity
  8
0
 62
     0
440
 16777216
100
AcDbTrace
 10
53.31939792550827
 20
10.67990567668168
 30
0.0
 11
53.48606459217496
 21
10.67990567668168
 31
0.0
 12
53.40273125884162
 22
10.17990567668168
 32
0.0
 13
53.40273125884162
 23
10.17990567668168
 33
0.0
  0
MTEXT
  5
7ED
330
7D9
100
AcDbEntity
  8
0
 62
     0
440
 16777216
100
AcDbMText
 10
53.40273125884162
 20
30.42990492668169
 30
0.0
 40
0.7
 41
0.0
 46
0.0
 71
     5
 72
     1
  1
\A1;40{\H1.000000x;\S1#2;}
 73
     1
 44
1.0
  0
POINT
  5
7EE
330
7D9
100
AcDbEntity
  8
Defpoints
 62
     0
440
 16777216
100
AcDbPoint
 10
49.6717422811289
 20
50.67990417668167
 30
-2.444578435206094
  0
POINT
  5
7EF
330
7D9
100
AcDbEntity
  8
Defpoints
 62
     0
440
 16777216
100
AcDbPoint
 10
49.6717422811289
 20
10.17990567668168
 30
-2.444578435206094
  0
POINT
  5
7F0
330
7D9
100
AcDbEntity
  8
Defpoints
 62
     0
440
 16777216
100
AcDbPoint
 10
53.40273125884162
 20
10.17990567668168
 30
0.0
  0
ENDBLK
  5
7DB
330
7D9
100
AcDbEntity
  8
0
100
AcDbBlockEnd
  0
BLOCK
  5
7F4
330
7F3
100
AcDbEntity
  8
0
100
AcDbBlockBegin
  2
*D13
 70
     1
 10
0.0
 20
0.0
 30
0.0
  3
*D13
  1

  0
LINE
  5
801
330
7F3
100
AcDbEntity
  8
0
 62
     0
440
 16777216
370
    -2
100
AcDbLine
 10
84.290153719253
 20
50.67990567668167
 30
0.0
 11
81.2988841616795
 21
50.67990567668167
 31
0.0
  0
LINE
  5
802
330
7F3
100
AcDbEntity
  8
0
 62
     0
440
 16777216
370
    -2
100
AcDbLine
 10
84.290153719253
 20
43.67990567668168
 30
0.0
 11
81.2988841616795
 21
43.67990567668168
 31
0.0
  0
LINE
  5
803
330
7F3
100
AcDbEntity
  8
0
 62
     0
440
 16777216
370
    -2
100
AcDbLine
 10
81.54888416167954
 20
50.17990567668167
 30
0.0
 11
81.54888416167954
 21
47.61990567668166
 31
0.0
  0
LINE
  5
804
330
7F3
100
AcDbEntity
  8
0
 62
     0
440
 16777216
370
    -2
100
AcDbLine
 10
81.54888416167954
 20
44.17990567668168
 30
0.0
 11
81.54888416167954
 21
46.73990567668168
 31
0.0
  0
SOLID
  5
805
330
7F3
100
AcDbEntity
  8
0
 62
     0
440
 16777216
100
AcDbTrace
 10
81.46555082834622
 20
50.17990567668167
 30
0.0
 11
81.63221749501285
 21
50.17990567668167
 31
0.0
 12
81.54888416167954
 22
50.67990567668167
 32
0.0
 13
81.54888416167954
 23
50.67990567668167
 33
0.0
  0
SOLID
  5
806
330
7F3
100
AcDbEntity
  8
0
 62
     0
440
 16777216
100
AcDbTrace
 10
81.46555082834622
 20
44.17990567668168
 30
0.0
 11
81.63221749501285
 21
44.17990567668168
 31
0.0
 12
81.54888416167954
 22
43.67990567668168
 32
0.0
 13
81.54888416167954
 23
43.67990567668168
 33
0.0
  0
MTEXT
  5
807
330
7F3
100
AcDbEntity
  8
0
 62
     0
440
 16777216
100
AcDbMText
 10
81.54888416167951
 20
47.17990567668169
 30
0.0
 40
0.7
 41
0.0
 46
0.0
 71
     5
 72
     1
  1
\A1;7
 73
     1
 44
1.0
  0
POINT
  5
808
330
7F3
100
AcDbEntity
  8
Defpoints
 62
     0
440
 16777216
100
AcDbPoint
 10
84.54015371925304
 20
50.67990567668167
 30
-2.444578435206094
  0
POINT
  5
809
330
7F3
100
AcDbEntity
  8
Defpoints
 62
     0
440
 16777216
100
AcDbPoint
 10
84.54015371925304
 20
43.67990567668168
 30
-2.444578435206094
  0
POINT
  5
80A
330
7F3
100
AcDbEntity
  8
Defpoints
 62
     0
440
 16777216
100
AcDbPoint
 10
81.54888416167954
 20
43.67990567668168
 30
0.0
  0
ENDBLK
  5
7F5
330
7F3
100
AcDbEntity
  8
0
100
AcDbBlockEnd
  0
BLOCK
  5
80E
330
80D
100
AcDbEntity
  8
0
100
AcDbBlockBegin
  2
*D14
 70
     1
 10
0.0
 20
0.0
 30
0.0
  3
*D14
  1

  0
LINE
  5
81B
330
80D
100
AcDbEntity
  8
0
 62
     0
440
 16777216
370
    -2
100
AcDbLine
 10
84.54015371925304
 20
50.92990567668167
 30
0.0
 11
84.54015371925304
 21
53.5061398578707
 31
0.0
  0
LINE
  5
81C
330
80D
100
AcDbEntity
  8
0
 62
     0
440
 16777216
370
    -2
100
AcDbLine
 10
88.04015371925302
 20
50.92990567668167
 30
0.0
 11
88.04015371925302
 21
53.5061398578707
 31
0.0
  0
LINE
  5
81D
330
80D
100
AcDbEntity
  8
0
 62
     0
440
 16777216
370
    -2
100
AcDbLine
 10
85.04015371925303
 20
53.2561398578707
 30
0.0
 11
85.4713451699124
 21
53.2561398578707
 31
0.0
  0
LINE
  5
81E
330
80D
100
AcDbEntity
  8
0
 62
     0
440
 16777216
370
    -2
100
AcDbLine
 10
87.54015371925303
 20
53.2561398578707
 30
0.0
 11
87.10896226859366
 21
53.2561398578707
 31
0.0
  0
SOLID
  5
81F
330
80D
100
AcDbEntity
  8
0
 62
     0
440
 16777216
100
AcDbTrace
 10
85.04015371925303
 20
53.33947319120404
 30
0.0
 11
85.04015371925303
 21
53.17280652453736
 31
0.0
 12
84.54015371925304
 22
53.2561398578707
 32
0.0
 13
84.54015371925304
 23
53.2561398578707
 33
0.0
  0
SOLID
  5
820
330
80D
100
AcDbEntity
  8
0
 62
     0
440
 16777216
100
AcDbTrace
 10
87.54015371925303
 20
53.33947319120404
 30
0.0
 11
87.54015371925303
 21
53.17280652453736
 31
0.0
 12
88.04015371925302
 22
53.2561398578707
 32
0.0
 13
88.04015371925302
 23
53.2561398578707
 33
0.0
  0
MTEXT
  5
821
330
80D
100
AcDbEntity
  8
0
 62
     0
440
 16777216
100
AcDbMText
 10
86.29015371925303
 20
53.2561398578707
 30
0.0
 40
0.7
 41
0.0
 46
0.0
 71
     5
 72
     1
  1
\A1;3{\H1.000000x;\S1#2;}
 73
     1
 44
1.0
  0
POINT
  5
822
330
80D
100
AcDbEntity
  8
Defpoints
 62
     0
440
 16777216
100
AcDbPoint
 10
84.54015371925304
 20
50.67990567668167
 30
-2.444578435206094
  0
POINT
  5
823
330
80D
100
AcDbEntity
  8
Defpoints
 62
     0
440
 16777216
100
AcDbPoint
 10
88.04015371925302
 20
50.67990567668167
 30
-2.444578435206094
  0
POINT
  5
824
330
80D
100
AcDbEntity
  8
Defpoints
 62
     0
440
 16777216
100
AcDbPoint
 10
88.04015371925302
 20
53.2561398578707
 30
0.0
  0
ENDBLK
  5
80F
330
80D
100
AcDbEntity
  8
0
100
AcDbBlockEnd
  0
BLOCK
  5
828
330
827
100
AcDbEntity
  8
0
100
AcDbBlockBegin
  2
*D15
 70
     1
 10
0.0
 20
0.0
 30
0.0
  3
*D15
  1

  0
LINE
  5
835
330
827
100
AcDbEntity
  8
0
 62
     0
440
 16777216
370
    -2
100
AcDbLine
 10
84.290153719253
 20
10.17990567668168
 30
0.0
 11
81.89889221396127
 21
10.17990567668168
 31
0.0
  0
LINE
  5
836
330
827
100
AcDbEntity
  8
0
 62
     0
440
 16777216
370
    -2
100
AcDbLine
 10
84.41616593386406
 20
17.17990567668167
 30
0.0
 11
81.89889221396127
 21
17.17990567668167
 31
0.0
  0
LINE
  5
837
330
827
100
AcDbEntity
  8
0
 62
     0
440
 16777216
370
    -2
100
AcDbLine
 10
82.14889221396125
 20
10.67990567668168
 30
0.0
 11
82.14889221396125
 21
13.23990567668168
 31
0.0
  0
LINE
  5
838
330
827
100
AcDbEntity
  8
0
 62
     0
440
 16777216
370
    -2
100
AcDbLine
 10
82.14889221396125
 20
16.67990567668167
 30
0.0
 11
82.14889221396125
 21
14.11990567668168
 31
0.0
  0
SOLID
  5
839
330
827
100
AcDbEntity
  8
0
 62
     0
440
 16777216
100
AcDbTrace
 10
82.06555888062792
 20
10.67990567668168
 30
0.0
 11
82.23222554729458
 21
10.67990567668168
 31
0.0
 12
82.14889221396125
 22
10.17990567668168
 32
0.0
 13
82.14889221396125
 23
10.17990567668168
 33
0.0
  0
SOLID
  5
83A
330
827
100
AcDbEntity
  8
0
 62
     0
440
 16777216
100
AcDbTrace
 10
82.06555888062792
 20
16.67990567668167
 30
0.0
 11
82.23222554729458
 21
16.67990567668167
 31
0.0
 12
82.14889221396125
 22
17.17990567668167
 32
0.0
 13
82.14889221396125
 23
17.17990567668167
 33
0.0
  0
MTEXT
  5
83B
330
827
100
AcDbEntity
  8
0
 62
     0
440
 16777216
100
AcDbMText
 10
82.14889221396125
 20
13.67990567668169
 30
0.0
 40
0.7
 41
0.0
 46
0.0
 71
     5
 72
     1
  1
\A1;7
 73
     1
 44
1.0
  0
POINT
  5
83C
330
827
100
AcDbEntity
  8
Defpoints
 62
     0
440
 16777216
100
AcDbPoint
 10
84.54015371925304
 20
10.17990567668168
 30
-2.444578435206094
  0
POINT
  5
83D
330
827
100
AcDbEntity
  8
Defpoints
 62
     0
440
 16777216
100
AcDbPoint
 10
84.66616593386406
 20
17.17990567668167
 30
-2.444578435206094
  0
POINT
  5
83E
330
827
100
AcDbEntity
  8
Defpoints
 62
     0
440
 16777216
100
AcDbPoint
 10
82.14889221396125
 20
17.17990567668167
 30
0.0
  0
ENDBLK
  5
829
330
827
100
AcDbEntity
  8
0
100
AcDbBlockEnd
  0
BLOCK
  5
842
330
841
100
AcDbEntity
  8
0
100
AcDbBlockBegin
  2
*D16
 70
     1
 10
0.0
 20
0.0
 30
0.0
  3
*D16
  1

  0
LINE
  5
84F
330
841
100
AcDbEntity
  8
0
 62
     0
440
 16777216
370
    -2
100
AcDbLine
 10
88.29015371925303
 20
50.67990567668167
 30
0.0
 11
91.64196175834119
 21
50.67990567668167
 31
0.0
  0
LINE
  5
850
330
841
100
AcDbEntity
  8
0
 62
     0
440
 16777216
370
    -2
100
AcDbLine
 10
88.29015371925303
 20
10.17990567668168
 30
0.0
 11
91.64196175834119
 21
10.17990567668168
 31
0.0
  0
LINE
  5
851
330
841
100
AcDbEntity
  8
0
 62
     0
440
 16777216
370
    -2
100
AcDbLine
 10
91.3919617583412
 20
50.17990567668167
 30
0.0
 11
91.39196175834118
 21
31.22873923739109
 31
0.0
  0
LINE
  5
852
330
841
100
AcDbEntity
  8
0
 62
     0
440
 16777216
370
    -2
100
AcDbLine
 10
91.39196175834118
 20
10.67990567668168
 30
0.0
 11
91.39196175834118
 21
29.63107211597226
 31
0.0
  0
SOLID
  5
853
330
841
100
AcDbEntity
  8
0
 62
     0
440
 16777216
100
AcDbTrace
 10
91.30862842500787
 20
50.17990567668167
 30
0.0
 11
91.47529509167453
 21
50.17990567668167
 31
0.0
 12
91.3919617583412
 22
50.67990567668167
 32
0.0
 13
91.3919617583412
 23
50.67990567668167
 33
0.0
  0
SOLID
  5
854
330
841
100
AcDbEntity
  8
0
 62
     0
440
 16777216
100
AcDbTrace
 10
91.30862842500786
 20
10.67990567668168
 30
0.0
 11
91.47529509167453
 21
10.67990567668168
 31
0.0
 12
91.39196175834118
 22
10.17990567668168
 32
0.0
 13
91.39196175834118
 23
10.17990567668168
 33
0.0
  0
MTEXT
  5
855
330
841
100
AcDbEntity
  8
0
 62
     0
440
 16777216
100
AcDbMText
 10
91.39196175834118
 20
30.42990567668169
 30
0.0
 40
0.7
 41
0.0
 46
0.0
 71
     5
 72
     1
  1
\A1;40{\H1.000000x;\S1#2;}
 73
     1
 44
1.0
  0
POINT
  5
856
330
841
100
AcDbEntity
  8
Defpoints
 62
     0
440
 16777216
100
AcDbPoint
 10
88.04015371925302
 20
50.67990567668167
 30
-2.444578435206094
  0
POINT
  5
857
330
841
100
AcDbEntity
  8
Defpoints
 62
     0
440
 16777216
100
AcDbPoint
 10
88.040153719253
 20
10.17990567668168
 30
-2.444578435206094
  0
POINT
  5
858
330
841
100
AcDbEntity
  8
Defpoints
 62
     0
440
 16777216
100
AcDbPoint
 10
91.39196175834118
 20
10.17990567668168
 30
0.0
  0
ENDBLK
  5
843
330
841
100
AcDbEntity
  8
0
100
AcDbBlockEnd
  0
BLOCK
  5
8B9
330
8B8
100
AcDbEntity
  8
0
100
AcDbBlockBegin
  2
*D17
 70
     1
 10
0.0
 20
0.0
 30
0.0
  3
*D17
  1

  0
LINE
  5
8C6
330
8B8
100
AcDbEntity
  8
0
 62
     0
440
 16777216
370
    -2
100
AcDbLine
 10
122.6555305343458
 20
50.6799041105518
 30
0.0
 11
118.5596352287832
 21
50.6799041105518
 31
0.0
  0
LINE
  5
8C7
330
8B8
100
AcDbEntity
  8
0
 62
     0
440
 16777216
370
    -2
100
AcDbLine
 10
122.6555305343458
 20
39.65273061055182
 30
0.0
 11
118.5596352287832
 21
39.65273061055182
 31
0.0
  0
LINE
  5
8C8
330
8B8
100
AcDbEntity
  8
0
 62
     0
440
 16777216
370
    -2
100
AcDbLine
 10
118.8096352287832
 20
50.17990411055182
 30
0.0
 11
118.8096352287832
 21
45.60774982985604
 31
0.0
  0
LINE
  5
8C9
330
8B8
100
AcDbEntity
  8
0
 62
     0
440
 16777216
370
    -2
100
AcDbLine
 10
118.8096352287832
 20
40.15273061055181
 30
0.0
 11
118.8096352287832
 21
44.72488489124757
 31
0.0
  0
SOLID
  5
8CA
330
8B8
100
AcDbEntity
  8
0
 62
     0
440
 16777216
100
AcDbTrace
 10
118.7263018954499
 20
50.17990411055182
 30
0.0
 11
118.8929685621165
 21
50.17990411055182
 31
0.0
 12
118.8096352287832
 22
50.6799041105518
 32
0.0
 13
118.8096352287832
 23
50.6799041105518
 33
0.0
  0
SOLID
  5
8CB
330
8B8
100
AcDbEntity
  8
0
 62
     0
440
 16777216
100
AcDbTrace
 10
118.7263018954499
 20
40.15273061055181
 30
0.0
 11
118.8929685621165
 21
40.15273061055181
 31
0.0
 12
118.8096352287832
 22
39.65273061055182
 32
0.0
 13
118.8096352287832
 23
39.65273061055182
 33
0.0
  0
MTEXT
  5
8CC
330
8B8
100
AcDbEntity
  8
0
 62
     0
440
 16777216
100
AcDbMText
 10
118.8096352287832
 20
45.16631736055184
 30
0.0
 40
0.7
 41
0.0
 46
0.0
 71
     5
 72
     1
  1
\A1;11
 73
     1
 44
1.0
  0
POINT
  5
8CD
330
8B8
100
AcDbEntity
  8
Defpoints
 62
     0
440
 16777216
100
AcDbPoint
 10
122.9055305343458
 20
50.6799041105518
 30
0.0000000000003594
  0
POINT
  5
8CE
330
8B8
100
AcDbEntity
  8
Defpoints
 62
     0
440
 16777216
100
AcDbPoint
 10
122.9055305343458
 20
39.65273061055182
 30
0.0
  0
POINT
  5
8CF
330
8B8
100
AcDbEntity
  8
Defpoints
 62
     0
440
 16777216
100
AcDbPoint
 10
118.8096352287832
 20
39.65273061055182
 30
0.0
  0
ENDBLK
  5
8BA
330
8B8
100
AcDbEntity
  8
0
100
AcDbBlockEnd
  0
BLOCK
  5
8D3
330
8D2
100
AcDbEntity
  8
0
100
AcDbBlockBegin
  2
*D18
 70
     1
 10
0.0
 20
0.0
 30
0.0
  3
*D18
  1

  0
LINE
  5
8E0
330
8D2
100
AcDbEntity
  8
0
 62
     0
440
 16777216
370
    -2
100
AcDbLine
 10
122.9055305343458
 20
50.92990411055182
 30
0.0
 11
122.9055305343458
 21
53.46254712540274
 31
0.0
  0
LINE
  5
8E1
330
8D2
100
AcDbEntity
  8
0
 62
     0
440
 16777216
370
    -2
100
AcDbLine
 10
126.9055305343458
 20
50.92990411055182
 30
0.0
 11
126.9055305343458
 21
53.46254712540274
 31
0.0
  0
LINE
  5
8E2
330
8D2
100
AcDbEntity
  8
0
 62
     0
440
 16777216
370
    -2
100
AcDbLine
 10
123.4055305343458
 20
53.21254712540276
 30
0.0
 11
124.5734432219311
 21
53.21254712540276
 31
0.0
  0
LINE
  5
8E3
330
8D2
100
AcDbEntity
  8
0
 62
     0
440
 16777216
370
    -2
100
AcDbLine
 10
126.4055305343458
 20
53.21254712540276
 30
0.0
 11
125.2376178467606
 21
53.21254712540276
 31
0.0
  0
SOLID
  5
8E4
330
8D2
100
AcDbEntity
  8
0
 62
     0
440
 16777216
100
AcDbTrace
 10
123.4055305343458
 20
53.2958804587361
 30
0.0
 11
123.4055305343458
 21
53.12921379206943
 31
0.0
 12
122.9055305343458
 22
53.21254712540276
 32
0.0
 13
122.9055305343458
 23
53.21254712540276
 33
0.0
  0
SOLID
  5
8E5
330
8D2
100
AcDbEntity
  8
0
 62
     0
440
 16777216
100
AcDbTrace
 10
126.4055305343458
 20
53.2958804587361
 30
0.0
 11
126.4055305343458
 21
53.12921379206943
 31
0.0
 12
126.9055305343458
 22
53.21254712540276
 32
0.0
 13
126.9055305343458
 23
53.21254712540276
 33
0.0
  0
MTEXT
  5
8E6
330
8D2
100
AcDbEntity
  8
0
 62
     0
440
 16777216
100
AcDbMText
 10
124.9055305343458
 20
53.21254712540276
 30
0.0
 40
0.7
 41
0.0
 46
0.0
 71
     5
 72
     1
  1
\A1;4
 73
     1
 44
1.0
  0
POINT
  5
8E7
330
8D2
100
AcDbEntity
  8
Defpoints
 62
     0
440
 16777216
100
AcDbPoint
 10
122.9055305343458
 20
50.6799041105518
 30
0.0000000000003594
  0
POINT
  5
8E8
330
8D2
100
AcDbEntity
  8
Defpoints
 62
     0
440
 16777216
100
AcDbPoint
 10
126.9055305343458
 20
50.6799041105518
 30
0.000000000000371
  0
POINT
  5
8E9
330
8D2
100
AcDbEntity
  8
Defpoints
 62
     0
440
 16777216
100
AcDbPoint
 10
126.9055305343458
 20
53.21254712540276
 30
0.0
  0
ENDBLK
  5
8D4
330
8D2
100
AcDbEntity
  8
0
100
AcDbBlockEnd
  0
BLOCK
  5
8ED
330
8EC
100
AcDbEntity
  8
0
100
AcDbBlockBegin
  2
*D19
 70
     1
 10
0.0
 20
0.0
 30
0.0
  3
*D19
  1

  0
LINE
  5
919
330
8EC
100
AcDbEntity
  8
0
 62
     0
440
 16777216
370
    -2
100
AcDbLine
 10
124.1555305343458
 20
9.929905610551813
 30
0.0
 11
124.1555305343458
 21
8.603562829142719
 31
0.0
  0
LINE
  5
91A
330
8EC
100
AcDbEntity
  8
0
 62
     0
440
 16777216
370
    -2
100
AcDbLine
 10
125.6555305343458
 20
9.929905610551813
 30
0.0
 11
125.6555305343458
 21
8.603562829142719
 31
0.0
  0
LINE
  5
91B
330
8EC
100
AcDbEntity
  8
0
 62
     0
440
 16777216
370
    -2
100
AcDbLine
 10
124.6555305343458
 20
8.853562829142717
 30
0.0
 11
125.1555305343458
 21
8.853562829142717
 31
0.0
  0
LINE
  5
91C
330
8EC
100
AcDbEntity
  8
0
 62
     0
440
 16777216
370
    -2
100
AcDbLine
 10
125.6555305343458
 20
8.853562829142717
 30
0.0
 11
126.1555305343458
 21
8.853562829142717
 31
0.0
  0
SOLID
  5
91D
330
8EC
100
AcDbEntity
  8
0
 62
     0
440
 16777216
100
AcDbTrace
 10
124.6555305343458
 20
8.936896162476051
 30
0.0
 11
124.6555305343458
 21
8.770229495809383
 31
0.0
 12
124.1555305343458
 22
8.853562829142717
 32
0.0
 13
124.1555305343458
 23
8.853562829142717
 33
0.0
  0
SOLID
  5
91E
330
8EC
100
AcDbEntity
  8
0
 62
     0
440
 16777216
100
AcDbTrace
 10
125.1555305343458
 20
8.936896162476051
 30
0.0
 11
125.1555305343458
 21
8.770229495809383
 31
0.0
 12
125.6555305343458
 22
8.853562829142717
 32
0.0
 13
125.6555305343458
 23
8.853562829142717
 33
0.0
  0
MTEXT
  5
91F
330
8EC
100
AcDbEntity
  8
0
 62
     0
440
 16777216
100
AcDbMText
 10
126.9416310345732
 20
8.853562829142717
 30
0.0
 40
0.7
 41
0.0
 46
0.0
 71
     5
 72
     1
  1
\A1;1{\H1.000000x;\S1#2;}
 73
     1
 44
1.0
  0
POINT
  5
920
330
8EC
100
AcDbEntity
  8
Defpoints
 62
     0
440
 16777216
100
AcDbPoint
 10
124.1555305343458
 20
10.17990561055181
 30
0.0000000000003629
  0
POINT
  5
921
330
8EC
100
AcDbEntity
  8
Defpoints
 62
     0
440
 16777216
100
AcDbPoint
 10
125.6555305343458
 20
10.17990561055181
 30
0.0000000000003675
  0
POINT
  5
922
330
8EC
100
AcDbEntity
  8
Defpoints
 62
     0
440
 16777216
100
AcDbPoint
 10
125.6555305343458
 20
8.853562829142717
 30
0.0
  0
ENDBLK
  5
8EE
330
8EC
100
AcDbEntity
  8
0
100
AcDbBlockEnd
  0
BLOCK
  5
925
330
924
100
AcDbEntity
  8
0
100
AcDbBlockBegin
  2
*D20
 70
     1
 10
0.0
 20
0.0
 30
0.0
  3
*D20
  1

  0
LINE
  5
932
330
924
100
AcDbEntity
  8
0
 62
     0
440
 16777216
370
    -2
100
AcDbLine
 10
163.2368825152447
 20
50.67990407560349
 30
0.0
 11
160.5178962261236
 21
50.67990407560349
 31
0.0
  0
LINE
  5
933
330
924
100
AcDbEntity
  8
0
 62
     0
440
 16777216
370
    -2
100
AcDbLine
 10
163.2368825152447
 20
41.58207832560349
 30
0.0
 11
160.5178962261236
 21
41.58207832560349
 31
0.0
  0
LINE
  5
934
330
924
100
AcDbEntity
  8
0
 62
     0
440
 16777216
370
    -2
100
AcDbLine
 10
160.7678962261236
 20
50.1799040756035
 30
0.0
 11
160.7678962261236
 21
46.93579338341385
 31
0.0
  0
LINE
  5
935
330
924
100
AcDbEntity
  8
0
 62
     0
440
 16777216
370
    -2
100
AcDbLine
 10
160.7678962261236
 20
42.0820783256035
 30
0.0
 11
160.7678962261236
 21
45.32618901779311
 31
0.0
  0
SOLID
  5
936
330
924
100
AcDbEntity
  8
0
 62
     0
440
 16777216
100
AcDbTrace
 10
160.6845628927902
 20
50.1799040756035
 30
0.0
 11
160.8512295594569
 21
50.1799040756035
 31
0.0
 12
160.7678962261236
 22
50.67990407560349
 32
0.0
 13
160.7678962261236
 23
50.67990407560349
 33
0.0
  0
SOLID
  5
937
330
924
100
AcDbEntity
  8
0
 62
     0
440
 16777216
100
AcDbTrace
 10
160.6845628927902
 20
42.0820783256035
 30
0.0
 11
160.8512295594569
 21
42.0820783256035
 31
0.0
 12
160.7678962261236
 22
41.58207832560349
 32
0.0
 13
160.7678962261236
 23
41.58207832560349
 33
0.0
  0
MTEXT
  5
938
330
924
100
AcDbEntity
  8
0
 62
     0
440
 16777216
100
AcDbMText
 10
160.7678962261236
 20
46.13099120060352
 30
0.0
 40
0.7
 41
0.0
 46
0.0
 71
     5
 72
     1
  1
\A1;9{\H1.000000x;\S1#8;}
 73
     1
 44
1.0
  0
POINT
  5
939
330
924
100
AcDbEntity
  8
Defpoints
 62
     0
440
 16777216
100
AcDbPoint
 10
163.4868825152447
 20
50.67990407560349
 30
-2.444578435206094
  0
POINT
  5
93A
330
924
100
AcDbEntity
  8
Defpoints
 62
     0
440
 16777216
100
AcDbPoint
 10
163.4868825152447
 20
41.58207832560349
 30
-2.444578435206094
  0
POINT
  5
93B
330
924
100
AcDbEntity
  8
Defpoints
 62
     0
440
 16777216
100
AcDbPoint
 10
160.7678962261236
 20
41.58207832560349
 30
0.0
  0
ENDBLK
  5
926
330
924
100
AcDbEntity
  8
0
100
AcDbBlockEnd
  0
BLOCK
  5
93F
330
93E
100
AcDbEntity
  8
0
100
AcDbBlockBegin
  2
*D21
 70
     1
 10
0.0
 20
0.0
 30
0.0
  3
*D21
  1

  0
LINE
  5
94C
330
93E
100
AcDbEntity
  8
0
 62
     0
440
 16777216
370
    -2
100
AcDbLine
 10
163.4868825152447
 20
50.9299040756035
 30
0.0
 11
163.4868825152447
 21
52.93171733516921
 31
0.0
  0
LINE
  5
94D
330
93E
100
AcDbEntity
  8
0
 62
     0
440
 16777216
370
    -2
100
AcDbLine
 10
166.9868825152447
 20
50.9299040756035
 30
0.0
 11
166.9868825152447
 21
52.93171733516921
 31
0.0
  0
LINE
  5
94E
330
93E
100
AcDbEntity
  8
0
 62
     0
440
 16777216
370
    -2
100
AcDbLine
 10
163.9868825152447
 20
52.6817173351692
 30
0.0
 11
164.4180739659041
 21
52.6817173351692
 31
0.0
  0
LINE
  5
94F
330
93E
100
AcDbEntity
  8
0
 62
     0
440
 16777216
370
    -2
100
AcDbLine
 10
166.4868825152447
 20
52.6817173351692
 30
0.0
 11
166.0556910645853
 21
52.6817173351692
 31
0.0
  0
SOLID
  5
950
330
93E
100
AcDbEntity
  8
0
 62
     0
440
 16777216
100
AcDbTrace
 10
163.9868825152447
 20
52.76505066850254
 30
0.0
 11
163.9868825152447
 21
52.59838400183586
 31
0.0
 12
163.4868825152447
 22
52.6817173351692
 32
0.0
 13
163.4868825152447
 23
52.6817173351692
 33
0.0
  0
SOLID
  5
951
330
93E
100
AcDbEntity
  8
0
 62
     0
440
 16777216
100
AcDbTrace
 10
166.4868825152447
 20
52.76505066850254
 30
0.0
 11
166.4868825152447
 21
52.59838400183586
 31
0.0
 12
166.9868825152447
 22
52.6817173351692
 32
0.0
 13
166.9868825152447
 23
52.6817173351692
 33
0.0
  0
MTEXT
  5
952
330
93E
100
AcDbEntity
  8
0
 62
     0
440
 16777216
100
AcDbMText
 10
165.2368825152447
 20
52.6817173351692
 30
0.0
 40
0.7
 41
0.0
 46
0.0
 71
     5
 72
     1
  1
\A1;3{\H1.000000x;\S1#2;}
 73
     1
 44
1.0
  0
POINT
  5
953
330
93E
100
AcDbEntity
  8
Defpoints
 62
     0
440
 16777216
100
AcDbPoint
 10
163.4868825152447
 20
50.67990407560349
 30
-2.444578435206094
  0
POINT
  5
954
330
93E
100
AcDbEntity
  8
Defpoints
 62
     0
440
 16777216
100
AcDbPoint
 10
166.9868825152447
 20
50.67990407560349
 30
-2.444578435206094
  0
POINT
  5
955
330
93E
100
AcDbEntity
  8
Defpoints
 62
     0
440
 16777216
100
AcDbPoint
 10
166.9868825152447
 20
52.6817173351692
 30
0.0
  0
ENDBLK
  5
940
330
93E
100
AcDbEntity
  8
0
100
AcDbBlockEnd
  0
BLOCK
  5
959
330
958
100
AcDbEntity
  8
0
100
AcDbBlockBegin
  2
*D22
 70
     1
 10
0.0
 20
0.0
 30
0.0
  3
*D22
  1

  0
LINE
  5
966
330
958
100
AcDbEntity
  8
0
 62
     0
440
 16777216
370
    -2
100
AcDbLine
 10
127.1555305343458
 20
50.6799041105518
 30
0.0
 11
131.1961948057568
 21
50.6799041105518
 31
0.0
  0
LINE
  5
967
330
958
100
AcDbEntity
  8
0
 62
     0
440
 16777216
370
    -2
100
AcDbLine
 10
125.9055305343458
 20
10.17990561055181
 30
0.0
 11
131.1961948057568
 21
10.17990561055181
 31
0.0
  0
LINE
  5
968
330
958
100
AcDbEntity
  8
0
 62
     0
440
 16777216
370
    -2
100
AcDbLine
 10
130.9461948057568
 20
50.17990411055182
 30
0.0
 11
130.9461948057568
 21
31.22873842126123
 31
0.0
  0
LINE
  5
969
330
958
100
AcDbEntity
  8
0
 62
     0
440
 16777216
370
    -2
100
AcDbLine
 10
130.9461948057568
 20
10.67990561055181
 30
0.0
 11
130.9461948057568
 21
29.6310712998424
 31
0.0
  0
SOLID
  5
96A
330
958
100
AcDbEntity
  8
0
 62
     0
440
 16777216
100
AcDbTrace
 10
130.8628614724234
 20
50.17990411055182
 30
0.0
 11
131.0295281390901
 21
50.17990411055182
 31
0.0
 12
130.9461948057568
 22
50.6799041105518
 32
0.0
 13
130.9461948057568
 23
50.6799041105518
 33
0.0
  0
SOLID
  5
96B
330
958
100
AcDbEntity
  8
0
 62
     0
440
 16777216
100
AcDbTrace
 10
130.8628614724234
 20
10.67990561055181
 30
0.0
 11
131.0295281390901
 21
10.67990561055181
 31
0.0
 12
130.9461948057568
 22
10.17990561055181
 32
0.0
 13
130.9461948057568
 23
10.17990561055181
 33
0.0
  0
MTEXT
  5
96C
330
958
100
AcDbEntity
  8
0
 62
     0
440
 16777216
100
AcDbMText
 10
130.9461948057568
 20
30.42990486055183
 30
0.0
 40
0.7
 41
0.0
 46
0.0
 71
     5
 72
     1
  1
\A1;40{\H1.000000x;\S1#2;}
 73
     1
 44
1.0
  0
POINT
  5
96D
330
958
100
AcDbEntity
  8
Defpoints
 62
     0
440
 16777216
100
AcDbPoint
 10
126.9055305343458
 20
50.6799041105518
 30
0.000000000000371
  0
POINT
  5
96E
330
958
100
AcDbEntity
  8
Defpoints
 62
     0
440
 16777216
100
AcDbPoint
 10
125.6555305343458
 20
10.17990561055181
 30
0.0000000000003675
  0
POINT
  5
96F
330
958
100
AcDbEntity
  8
Defpoints
 62
     0
440
 16777216
100
AcDbPoint
 10
130.9461948057568
 20
10.17990561055181
 30
0.0
  0
ENDBLK
  5
95A
330
958
100
AcDbEntity
  8
0
100
AcDbBlockEnd
  0
BLOCK
  5
973
330
972
100
AcDbEntity
  8
0
100
AcDbBlockBegin
  2
*D23
 70
     1
 10
0.0
 20
0.0
 30
0.0
  3
*D23
  1

  0
LINE
  5
980
330
972
100
AcDbEntity
  8
0
 62
     0
440
 16777216
370
    -2
100
AcDbLine
 10
167.2368825152447
 20
50.67990407560349
 30
0.0
 11
169.9604891635591
 21
50.67990407560349
 31
0.0
  0
LINE
  5
981
330
972
100
AcDbEntity
  8
0
 62
     0
440
 16777216
370
    -2
100
AcDbLine
 10
165.9868825152447
 20
10.1799055756035
 30
0.0
 11
169.9604891635591
 21
10.1799055756035
 31
0.0
  0
LINE
  5
982
330
972
100
AcDbEntity
  8
0
 62
     0
440
 16777216
370
    -2
100
AcDbLine
 10
169.7104891635591
 20
50.1799040756035
 30
0.0
 11
169.7104891635591
 21
31.22873838631291
 31
0.0
  0
LINE
  5
983
330
972
100
AcDbEntity
  8
0
 62
     0
440
 16777216
370
    -2
100
AcDbLine
 10
169.7104891635591
 20
10.6799055756035
 30
0.0
 11
169.7104891635591
 21
29.63107126489408
 31
0.0
  0
SOLID
  5
984
330
972
100
AcDbEntity
  8
0
 62
     0
440
 16777216
100
AcDbTrace
 10
169.6271558302258
 20
50.1799040756035
 30
0.0
 11
169.7938224968924
 21
50.1799040756035
 31
0.0
 12
169.7104891635591
 22
50.67990407560349
 32
0.0
 13
169.7104891635591
 23
50.67990407560349
 33
0.0
  0
SOLID
  5
985
330
972
100
AcDbEntity
  8
0
 62
     0
440
 16777216
100
AcDbTrace
 10
169.6271558302258
 20
10.6799055756035
 30
0.0
 11
169.7938224968924
 21
10.6799055756035
 31
0.0
 12
169.7104891635591
 22
10.1799055756035
 32
0.0
 13
169.7104891635591
 23
10.1799055756035
 33
0.0
  0
MTEXT
  5
986
330
972
100
AcDbEntity
  8
0
 62
     0
440
 16777216
100
AcDbMText
 10
169.7104891635591
 20
30.42990482560352
 30
0.0
 40
0.7
 41
0.0
 46
0.0
 71
     5
 72
     1
  1
\A1;40{\H1.000000x;\S1#2;}
 73
     1
 44
1.0
  0
POINT
  5
987
330
972
100
AcDbEntity
  8
Defpoints
 62
     0
440
 16777216
100
AcDbPoint
 10
166.9868825152447
 20
50.67990407560349
 30
-2.444578435206094
  0
POINT
  5
988
330
972
100
AcDbEntity
  8
Defpoints
 62
     0
440
 16777216
100
AcDbPoint
 10
165.7368825152447
 20
10.1799055756035
 30
-2.444578435206094
  0
POINT
  5
989
330
972
100
AcDbEntity
  8
Defpoints
 62
     0
440
 16777216
100
AcDbPoint
 10
169.7104891635591
 20
10.1799055756035
 30
0.0
  0
ENDBLK
  5
974
330
972
100
AcDbEntity
  8
0
100
AcDbBlockEnd
  0
BLOCK
  5
98D
330
98C
100
AcDbEntity
  8
0
100
AcDbBlockBegin
  2
*D24
 70
     1
 10
0.0
 20
0.0
 30
0.0
  3
*D24
  1

  0
LINE
  5
99A
330
98C
100
AcDbEntity
  8
0
 62
     0
440
 16777216
370
    -2
100
AcDbLine
 10
164.7368825152447
 20
9.929905575603491
 30
0.0
 11
164.7368825152447
 21
8.602451147066579
 31
0.0
  0
LINE
  5
99B
330
98C
100
AcDbEntity
  8
0
 62
     0
440
 16777216
370
    -2
100
AcDbLine
 10
165.7368825152447
 20
9.929905575603502
 30
0.0
 11
165.7368825152447
 21
8.602451147066579
 31
0.0
  0
LINE
  5
99C
330
98C
100
AcDbEntity
  8
0
 62
     0
440
 16777216
370
    -2
100
AcDbLine
 10
164.2368825152447
 20
8.852451147066577
 30
0.0
 11
163.7368825152447
 21
8.852451147066577
 31
0.0
  0
LINE
  5
99D
330
98C
100
AcDbEntity
  8
0
 62
     0
440
 16777216
370
    -2
100
AcDbLine
 10
166.2368825152447
 20
8.852451147066577
 30
0.0
 11
166.7368825152447
 21
8.852451147066577
 31
0.0
  0
SOLID
  5
99E
330
98C
100
AcDbEntity
  8
0
 62
     0
440
 16777216
100
AcDbTrace
 10
164.2368825152447
 20
8.935784480399911
 30
0.0
 11
164.2368825152447
 21
8.769117813733245
 31
0.0
 12
164.7368825152447
 22
8.852451147066577
 32
0.0
 13
164.7368825152447
 23
8.852451147066577
 33
0.0
  0
SOLID
  5
99F
330
98C
100
AcDbEntity
  8
0
 62
     0
440
 16777216
100
AcDbTrace
 10
166.2368825152447
 20
8.935784480399911
 30
0.0
 11
166.2368825152447
 21
8.769117813733245
 31
0.0
 12
165.7368825152447
 22
8.852451147066577
 32
0.0
 13
165.7368825152447
 23
8.852451147066577
 33
0.0
  0
MTEXT
  5
9A0
330
98C
100
AcDbEntity
  8
0
 62
     0
440
 16777216
100
AcDbMText
 10
165.2368825152447
 20
8.852451147066577
 30
0.0
 40
0.7
 41
0.0
 46
0.0
 71
     5
 72
     1
  1
\A1;1
 73
     1
 44
1.0
  0
POINT
  5
9A1
330
98C
100
AcDbEntity
  8
Defpoints
 62
     0
440
 16777216
100
AcDbPoint
 10
164.7368825152447
 20
10.17990557560349
 30
-2.444578435206094
  0
POINT
  5
9A2
330
98C
100
AcDbEntity
  8
Defpoints
 62
     0
440
 16777216
100
AcDbPoint
 10
165.7368825152447
 20
10.1799055756035
 30
-2.444578435206094
  0
POINT
  5
9A3
330
98C
100
AcDbEntity
  8
Defpoints
 62
     0
440
 16777216
100
AcDbPoint
 10
165.7368825152447
 20
8.852451147066577
 30
0.0
  0
ENDBLK
  5
98E
330
98C
100
AcDbEntity
  8
0
100
AcDbBlockEnd
  0
BLOCK
  5
9A7
330
9A6
100
AcDbEntity
  8
0
100
AcDbBlockBegin
  2
*D25
 70
     1
 10
0.0
 20
0.0
 30
0.0
  3
*D25
  1

  0
LINE
  5
9B4
330
9A6
100
AcDbEntity
  8
0
 62
     0
440
 16777216
370
    -2
100
AcDbLine
 10
207.1287704600427
 20
50.9299040756035
 30
0.0
 11
207.1287704600427
 21
52.58109624588922
 31
0.0
  0
LINE
  5
9B5
330
9A6
100
AcDbEntity
  8
0
 62
     0
440
 16777216
370
    -2
100
AcDbLine
 10
211.1287704600427
 20
50.9299040756035
 30
0.0
 11
211.1287704600427
 21
52.58109624588922
 31
0.0
  0
LINE
  5
9B6
330
9A6
100
AcDbEntity
  8
0
 62
     0
440
 16777216
370
    -2
100
AcDbLine
 10
207.6287704600427
 20
52.33109624588923
 30
0.0
 11
208.796683147628
 21
52.33109624588923
 31
0.0
  0
LINE
  5
9B7
330
9A6
100
AcDbEntity
  8
0
 62
     0
440
 16777216
370
    -2
100
AcDbLine
 10
210.6287704600427
 20
52.33109624588923
 30
0.0
 11
209.4608577724574
 21
52.33109624588923
 31
0.0
  0
SOLID
  5
9B8
330
9A6
100
AcDbEntity
  8
0
 62
     0
440
 16777216
100
AcDbTrace
 10
207.6287704600427
 20
52.41442957922258
 30
0.0
 11
207.6287704600427
 21
52.24776291255589
 31
0.0
 12
207.1287704600427
 22
52.33109624588923
 32
0.0
 13
207.1287704600427
 23
52.33109624588923
 33
0.0
  0
SOLID
  5
9B9
330
9A6
100
AcDbEntity
  8
0
 62
     0
440
 16777216
100
AcDbTrace
 10
210.6287704600427
 20
52.41442957922258
 30
0.0
 11
210.6287704600427
 21
52.24776291255589
 31
0.0
 12
211.1287704600427
 22
52.33109624588923
 32
0.0
 13
211.1287704600427
 23
52.33109624588923
 33
0.0
  0
MTEXT
  5
9BA
330
9A6
100
AcDbEntity
  8
0
 62
     0
440
 16777216
100
AcDbMText
 10
209.1287704600427
 20
52.33109624588923
 30
0.0
 40
0.7
 41
0.0
 46
0.0
 71
     5
 72
     1
  1
\A1;4
 73
     1
 44
1.0
  0
POINT
  5
9BB
330
9A6
100
AcDbEntity
  8
Defpoints
 62
     0
440
 16777216
100
AcDbPoint
 10
207.1287704600427
 20
50.67990407560349
 30
-2.444578435206093
  0
POINT
  5
9BC
330
9A6
100
AcDbEntity
  8
Defpoints
 62
     0
440
 16777216
100
AcDbPoint
 10
211.1287704600427
 20
50.67990407560349
 30
-2.444578435206095
  0
POINT
  5
9BD
330
9A6
100
AcDbEntity
  8
Defpoints
 62
     0
440
 16777216
100
AcDbPoint
 10
211.1287704600427
 20
52.33109624588923
 30
0.0
  0
ENDBLK
  5
9A8
330
9A6
100
AcDbEntity
  8
0
100
AcDbBlockEnd
  0
BLOCK
  5
9C3
330
9C2
100
AcDbEntity
  8
0
100
AcDbBlockBegin
  2
*D26
 70
     1
 10
0.0
 20
0.0
 30
0.0
  3
*D26
  1

  0
LINE
  5
9CF
330
9C2
100
AcDbEntity
  8
0
 62
     0
440
 16777216
370
    -2
100
AcDbLine
 10
207.1287704600427
 20
50.9299040756035
 30
0.0
 11
207.1287704600427
 21
52.58109624588922
 31
0.0
  0
LINE
  5
9D0
330
9C2
100
AcDbEntity
  8
0
 62
     0
440
 16777216
370
    -2
100
AcDbLine
 10
211.1287704600427
 20
50.9299040756035
 30
0.0
 11
211.1287704600427
 21
52.58109624588922
 31
0.0
  0
LINE
  5
9D1
330
9C2
100
AcDbEntity
  8
0
 62
     0
440
 16777216
370
    -2
100
AcDbLine
 10
207.6287704600427
 20
52.33109624588923
 30
0.0
 11
208.796683147628
 21
52.33109624588923
 31
0.0
  0
LINE
  5
9D2
330
9C2
100
AcDbEntity
  8
0
 62
     0
440
 16777216
370
    -2
100
AcDbLine
 10
210.6287704600427
 20
52.33109624588923
 30
0.0
 11
209.4608577724574
 21
52.33109624588923
 31
0.0
  0
SOLID
  5
9D3
330
9C2
100
AcDbEntity
  8
0
 62
     0
440
 16777216
100
AcDbTrace
 10
207.6287704600427
 20
52.41442957922258
 30
0.0
 11
207.6287704600427
 21
52.24776291255589
 31
0.0
 12
207.1287704600427
 22
52.33109624588923
 32
0.0
 13
207.1287704600427
 23
52.33109624588923
 33
0.0
  0
SOLID
  5
9D4
330
9C2
100
AcDbEntity
  8
0
 62
     0
440
 16777216
100
AcDbTrace
 10
210.6287704600427
 20
52.41442957922258
 30
0.0
 11
210.6287704600427
 21
52.24776291255589
 31
0.0
 12
211.1287704600427
 22
52.33109624588923
 32
0.0
 13
211.1287704600427
 23
52.33109624588923
 33
0.0
  0
MTEXT
  5
9D5
330
9C2
100
AcDbEntity
  8
0
 62
     0
440
 16777216
100
AcDbMText
 10
209.1287704600427
 20
52.33109624588923
 30
0.0
 40
0.7
 41
0.0
 46
0.0
 71
     5
 72
     1
  1
\A1;4
 73
     1
 44
1.0
  0
POINT
  5
9D6
330
9C2
100
AcDbEntity
  8
Defpoints
 62
     0
440
 16777216
100
AcDbPoint
 10
207.1287704600427
 20
50.67990407560349
 30
-2.444578435205476
  0
POINT
  5
9D7
330
9C2
100
AcDbEntity
  8
Defpoints
 62
     0
440
 16777216
100
AcDbPoint
 10
211.1287704600427
 20
50.67990407560349
 30
-2.444578435205478
  0
POINT
  5
9D8
330
9C2
100
AcDbEntity
  8
Defpoints
 62
     0
440
 16777216
100
AcDbPoint
 10
211.1287704600427
 20
52.33109624588923
 30
0.0
  0
ENDBLK
  5
9C4
330
9C2
100
AcDbEntity
  8
0
100
AcDbBlockEnd
  0
BLOCK
  5
9DD
330
9DC
100
AcDbEntity
  8
0
100
AcDbBlockBegin
  2
*D27
 70
     1
 10
0.0
 20
0.0
 30
0.0
  3
*D27
  1

  0
LINE
  5
9E9
330
9DC
100
AcDbEntity
  8
0
 62
     0
440
 16777216
370
    -2
100
AcDbLine
 10
164.7368825152447
 20
9.929905575603491
 30
0.0
 11
164.7368825152447
 21
8.602451147066579
 31
0.0
  0
LINE
  5
9EA
330
9DC
100
AcDbEntity
  8
0
 62
     0
440
 16777216
370
    -2
100
AcDbLine
 10
165.7368825152447
 20
9.929905575603502
 30
0.0
 11
165.7368825152447
 21
8.602451147066579
 31
0.0
  0
LINE
  5
9EB
330
9DC
100
AcDbEntity
  8
0
 62
     0
440
 16777216
370
    -2
100
AcDbLine
 10
164.2368825152447
 20
8.852451147066577
 30
0.0
 11
163.7368825152447
 21
8.852451147066577
 31
0.0
  0
LINE
  5
9EC
330
9DC
100
AcDbEntity
  8
0
 62
     0
440
 16777216
370
    -2
100
AcDbLine
 10
166.2368825152447
 20
8.852451147066577
 30
0.0
 11
166.7368825152447
 21
8.852451147066577
 31
0.0
  0
SOLID
  5
9ED
330
9DC
100
AcDbEntity
  8
0
 62
     0
440
 16777216
100
AcDbTrace
 10
164.2368825152447
 20
8.935784480399911
 30
0.0
 11
164.2368825152447
 21
8.769117813733245
 31
0.0
 12
164.7368825152447
 22
8.852451147066577
 32
0.0
 13
164.7368825152447
 23
8.852451147066577
 33
0.0
  0
SOLID
  5
9EE
330
9DC
100
AcDbEntity
  8
0
 62
     0
440
 16777216
100
AcDbTrace
 10
166.2368825152447
 20
8.935784480399911
 30
0.0
 11
166.2368825152447
 21
8.769117813733245
 31
0.0
 12
165.7368825152447
 22
8.852451147066577
 32
0.0
 13
165.7368825152447
 23
8.852451147066577
 33
0.0
  0
MTEXT
  5
9EF
330
9DC
100
AcDbEntity
  8
0
 62
     0
440
 16777216
100
AcDbMText
 10
165.2368825152447
 20
8.852451147066577
 30
0.0
 40
0.7
 41
0.0
 46
0.0
 71
     5
 72
     1
  1
\A1;1
 73
     1
 44
1.0
  0
POINT
  5
9F0
330
9DC
100
AcDbEntity
  8
Defpoints
 62
     0
440
 16777216
100
AcDbPoint
 10
164.7368825152447
 20
10.17990557560349
 30
-2.444578435205609
  0
POINT
  5
9F1
330
9DC
100
AcDbEntity
  8
Defpoints
 62
     0
440
 16777216
100
AcDbPoint
 10
165.7368825152447
 20
10.1799055756035
 30
-2.444578435205609
  0
POINT
  5
9F2
330
9DC
100
AcDbEntity
  8
Defpoints
 62
     0
440
 16777216
100
AcDbPoint
 10
165.7368825152447
 20
8.852451147066577
 30
0.0
  0
ENDBLK
  5
9DE
330
9DC
100
AcDbEntity
  8
0
100
AcDbBlockEnd
  0
BLOCK
  5
9F7
330
9F6
100
AcDbEntity
  8
0
100
AcDbBlockBegin
  2
*D28
 70
     1
 10
0.0
 20
0.0
 30
0.0
  3
*D28
  1

  0
LINE
  5
A03
330
9F6
100
AcDbEntity
  8
0
 62
     0
440
 16777216
370
    -2
100
AcDbLine
 10
167.2368825152447
 20
50.67990407560349
 30
0.0
 11
169.9604891635591
 21
50.67990407560349
 31
0.0
  0
LINE
  5
A04
330
9F6
100
AcDbEntity
  8
0
 62
     0
440
 16777216
370
    -2
100
AcDbLine
 10
165.9868825152447
 20
10.1799055756035
 30
0.0
 11
169.9604891635591
 21
10.1799055756035
 31
0.0
  0
LINE
  5
A05
330
9F6
100
AcDbEntity
  8
0
 62
     0
440
 16777216
370
    -2
100
AcDbLine
 10
169.7104891635591
 20
50.1799040756035
 30
0.0
 11
169.7104891635591
 21
31.22873838631291
 31
0.0
  0
LINE
  5
A06
330
9F6
100
AcDbEntity
  8
0
 62
     0
440
 16777216
370
    -2
100
AcDbLine
 10
169.7104891635591
 20
10.6799055756035
 30
0.0
 11
169.7104891635591
 21
29.63107126489408
 31
0.0
  0
SOLID
  5
A07
330
9F6
100
AcDbEntity
  8
0
 62
     0
440
 16777216
100
AcDbTrace
 10
169.6271558302258
 20
50.1799040756035
 30
0.0
 11
169.7938224968924
 21
50.1799040756035
 31
0.0
 12
169.7104891635591
 22
50.67990407560349
 32
0.0
 13
169.7104891635591
 23
50.67990407560349
 33
0.0
  0
SOLID
  5
A08
330
9F6
100
AcDbEntity
  8
0
 62
     0
440
 16777216
100
AcDbTrace
 10
169.6271558302258
 20
10.6799055756035
 30
0.0
 11
169.7938224968924
 21
10.6799055756035
 31
0.0
 12
169.7104891635591
 22
10.1799055756035
 32
0.0
 13
169.7104891635591
 23
10.1799055756035
 33
0.0
  0
MTEXT
  5
A09
330
9F6
100
AcDbEntity
  8
0
 62
     0
440
 16777216
100
AcDbMText
 10
169.7104891635591
 20
30.42990482560352
 30
0.0
 40
0.7
 41
0.0
 46
0.0
 71
     5
 72
     1
  1
\A1;40{\H1.000000x;\S1#2;}
 73
     1
 44
1.0
  0
POINT
  5
A0A
330
9F6
100
AcDbEntity
  8
Defpoints
 62
     0
440
 16777216
100
AcDbPoint
 10
166.9868825152447
 20
50.67990407560349
 30
-2.444578435205598
  0
POINT
  5
A0B
330
9F6
100
AcDbEntity
  8
Defpoints
 62
     0
440
 16777216
100
AcDbPoint
 10
165.7368825152447
 20
10.1799055756035
 30
-2.444578435205598
  0
POINT
  5
A0C
330
9F6
100
AcDbEntity
  8
Defpoints
 62
     0
440
 16777216
100
AcDbPoint
 10
169.7104891635591
 20
10.1799055756035
 30
0.0
  0
ENDBLK
  5
9F8
330
9F6
100
AcDbEntity
  8
0
100
AcDbBlockEnd
  0
BLOCK
  5
A11
330
A10
100
AcDbEntity
  8
0
100
AcDbBlockBegin
  2
*D29
 70
     1
 10
0.0
 20
0.0
 30
0.0
  3
*D29
  1

  0
LINE
  5
A1D
330
A10
100
AcDbEntity
  8
0
 62
     0
440
 16777216
370
    -2
100
AcDbLine
 10
127.1555305343458
 20
50.6799041105518
 30
0.0
 11
131.1961948057568
 21
50.6799041105518
 31
0.0
  0
LINE
  5
A1E
330
A10
100
AcDbEntity
  8
0
 62
     0
440
 16777216
370
    -2
100
AcDbLine
 10
125.9055305343458
 20
10.17990561055181
 30
0.0
 11
131.1961948057568
 21
10.17990561055181
 31
0.0
  0
LINE
  5
A1F
330
A10
100
AcDbEntity
  8
0
 62
     0
440
 16777216
370
    -2
100
AcDbLine
 10
130.9461948057568
 20
50.17990411055182
 30
0.0
 11
130.9461948057568
 21
31.22873842126123
 31
0.0
  0
LINE
  5
A20
330
A10
100
AcDbEntity
  8
0
 62
     0
440
 16777216
370
    -2
100
AcDbLine
 10
130.9461948057568
 20
10.67990561055181
 30
0.0
 11
130.9461948057568
 21
29.6310712998424
 31
0.0
  0
SOLID
  5
A21
330
A10
100
AcDbEntity
  8
0
 62
     0
440
 16777216
100
AcDbTrace
 10
130.8628614724234
 20
50.17990411055182
 30
0.0
 11
131.0295281390901
 21
50.17990411055182
 31
0.0
 12
130.9461948057568
 22
50.6799041105518
 32
0.0
 13
130.9461948057568
 23
50.6799041105518
 33
0.0
  0
SOLID
  5
A22
330
A10
100
AcDbEntity
  8
0
 62
     0
440
 16777216
100
AcDbTrace
 10
130.8628614724234
 20
10.67990561055181
 30
0.0
 11
131.0295281390901
 21
10.67990561055181
 31
0.0
 12
130.9461948057568
 22
10.17990561055181
 32
0.0
 13
130.9461948057568
 23
10.17990561055181
 33
0.0
  0
MTEXT
  5
A23
330
A10
100
AcDbEntity
  8
0
 62
     0
440
 16777216
100
AcDbMText
 10
130.9461948057568
 20
30.42990486055183
 30
0.0
 40
0.7
 41
0.0
 46
0.0
 71
     5
 72
     1
  1
\A1;40{\H1.000000x;\S1#2;}
 73
     1
 44
1.0
  0
POINT
  5
A24
330
A10
100
AcDbEntity
  8
Defpoints
 62
     0
440
 16777216
100
AcDbPoint
 10
126.9055305343458
 20
50.6799041105518
 30
0.0000000000007539
  0
POINT
  5
A25
330
A10
100
AcDbEntity
  8
Defpoints
 62
     0
440
 16777216
100
AcDbPoint
 10
125.6555305343458
 20
10.17990561055181
 30
0.0000000000007504
  0
POINT
  5
A26
330
A10
100
AcDbEntity
  8
Defpoints
 62
     0
440
 16777216
100
AcDbPoint
 10
130.9461948057568
 20
10.17990561055181
 30
0.0
  0
ENDBLK
  5
A12
330
A10
100
AcDbEntity
  8
0
100
AcDbBlockEnd
  0
BLOCK
  5
A2B
330
A2A
100
AcDbEntity
  8
0
100
AcDbBlockBegin
  2
*D30
 70
     1
 10
0.0
 20
0.0
 30
0.0
  3
*D30
  1

  0
LINE
  5
A37
330
A2A
100
AcDbEntity
  8
0
 62
     0
440
 16777216
370
    -2
100
AcDbLine
 10
163.4868825152447
 20
50.9299040756035
 30
0.0
 11
163.4868825152447
 21
52.93171733516921
 31
0.0
  0
LINE
  5
A38
330
A2A
100
AcDbEntity
  8
0
 62
     0
440
 16777216
370
    -2
100
AcDbLine
 10
166.9868825152447
 20
50.9299040756035
 30
0.0
 11
166.9868825152447
 21
52.93171733516921
 31
0.0
  0
LINE
  5
A39
330
A2A
100
AcDbEntity
  8
0
 62
     0
440
 16777216
370
    -2
100
AcDbLine
 10
163.9868825152447
 20
52.6817173351692
 30
0.0
 11
164.4180739659041
 21
52.6817173351692
 31
0.0
  0
LINE
  5
A3A
330
A2A
100
AcDbEntity
  8
0
 62
     0
440
 16777216
370
    -2
100
AcDbLine
 10
166.4868825152447
 20
52.6817173351692
 30
0.0
 11
166.0556910645853
 21
52.6817173351692
 31
0.0
  0
SOLID
  5
A3B
330
A2A
100
AcDbEntity
  8
0
 62
     0
440
 16777216
100
AcDbTrace
 10
163.9868825152447
 20
52.76505066850254
 30
0.0
 11
163.9868825152447
 21
52.59838400183586
 31
0.0
 12
163.4868825152447
 22
52.6817173351692
 32
0.0
 13
163.4868825152447
 23
52.6817173351692
 33
0.0
  0
SOLID
  5
A3C
330
A2A
100
AcDbEntity
  8
0
 62
     0
440
 16777216
100
AcDbTrace
 10
166.4868825152447
 20
52.76505066850254
 30
0.0
 11
166.4868825152447
 21
52.59838400183586
 31
0.0
 12
166.9868825152447
 22
52.6817173351692
 32
0.0
 13
166.9868825152447
 23
52.6817173351692
 33
0.0
  0
MTEXT
  5
A3D
330
A2A
100
AcDbEntity
  8
0
 62
     0
440
 16777216
100
AcDbMText
 10
165.2368825152447
 20
52.6817173351692
 30
0.0
 40
0.7
 41
0.0
 46
0.0
 71
     5
 72
     1
  1
\A1;3{\H1.000000x;\S1#2;}
 73
     1
 44
1.0
  0
POINT
  5
A3E
330
A2A
100
AcDbEntity
  8
Defpoints
 62
     0
440
 16777216
100
AcDbPoint
 10
163.4868825152447
 20
50.67990407560349
 30
-2.444578435205606
  0
POINT
  5
A3F
330
A2A
100
AcDbEntity
  8
Defpoints
 62
     0
440
 16777216
100
AcDbPoint
 10
166.9868825152447
 20
50.67990407560349
 30
-2.444578435205606
  0
POINT
  5
A40
330
A2A
100
AcDbEntity
  8
Defpoints
 62
     0
440
 16777216
100
AcDbPoint
 10
166.9868825152447
 20
52.6817173351692
 30
0.0
  0
ENDBLK
  5
A2C
330
A2A
100
AcDbEntity
  8
0
100
AcDbBlockEnd
  0
BLOCK
  5
A45
330
A44
100
AcDbEntity
  8
0
100
AcDbBlockBegin
  2
*D31
 70
     1
 10
0.0
 20
0.0
 30
0.0
  3
*D31
  1

  0
LINE
  5
A51
330
A44
100
AcDbEntity
  8
0
 62
     0
440
 16777216
370
    -2
100
AcDbLine
 10
163.2368825152447
 20
50.67990407560349
 30
0.0
 11
160.5178962261236
 21
50.67990407560349
 31
0.0
  0
LINE
  5
A52
330
A44
100
AcDbEntity
  8
0
 62
     0
440
 16777216
370
    -2
100
AcDbLine
 10
163.2368825152447
 20
41.58207832560349
 30
0.0
 11
160.5178962261236
 21
41.58207832560349
 31
0.0
  0
LINE
  5
A53
330
A44
100
AcDbEntity
  8
0
 62
     0
440
 16777216
370
    -2
100
AcDbLine
 10
160.7678962261236
 20
50.1799040756035
 30
0.0
 11
160.7678962261236
 21
46.93579338341385
 31
0.0
  0
LINE
  5
A54
330
A44
100
AcDbEntity
  8
0
 62
     0
440
 16777216
370
    -2
100
AcDbLine
 10
160.7678962261236
 20
42.0820783256035
 30
0.0
 11
160.7678962261236
 21
45.32618901779311
 31
0.0
  0
SOLID
  5
A55
330
A44
100
AcDbEntity
  8
0
 62
     0
440
 16777216
100
AcDbTrace
 10
160.6845628927902
 20
50.1799040756035
 30
0.0
 11
160.8512295594569
 21
50.1799040756035
 31
0.0
 12
160.7678962261236
 22
50.67990407560349
 32
0.0
 13
160.7678962261236
 23
50.67990407560349
 33
0.0
  0
SOLID
  5
A56
330
A44
100
AcDbEntity
  8
0
 62
     0
440
 16777216
100
AcDbTrace
 10
160.6845628927902
 20
42.0820783256035
 30
0.0
 11
160.8512295594569
 21
42.0820783256035
 31
0.0
 12
160.7678962261236
 22
41.58207832560349
 32
0.0
 13
160.7678962261236
 23
41.58207832560349
 33
0.0
  0
MTEXT
  5
A57
330
A44
100
AcDbEntity
  8
0
 62
     0
440
 16777216
100
AcDbMText
 10
160.7678962261236
 20
46.13099120060352
 30
0.0
 40
0.7
 41
0.0
 46
0.0
 71
     5
 72
     1
  1
\A1;9{\H1.000000x;\S1#8;}
 73
     1
 44
1.0
  0
POINT
  5
A58
330
A44
100
AcDbEntity
  8
Defpoints
 62
     0
440
 16777216
100
AcDbPoint
 10
163.4868825152447
 20
50.67990407560349
 30
-2.444578435205623
  0
POINT
  5
A59
330
A44
100
AcDbEntity
  8
Defpoints
 62
     0
440
 16777216
100
AcDbPoint
 10
163.4868825152447
 20
41.58207832560349
 30
-2.444578435205623
  0
POINT
  5
A5A
330
A44
100
AcDbEntity
  8
Defpoints
 62
     0
440
 16777216
100
AcDbPoint
 10
160.7678962261236
 20
41.58207832560349
 30
0.0
  0
ENDBLK
  5
A46
330
A44
100
AcDbEntity
  8
0
100
AcDbBlockEnd
  0
BLOCK
  5
A5F
330
A5E
100
AcDbEntity
  8
0
100
AcDbBlockBegin
  2
*D32
 70
     1
 10
0.0
 20
0.0
 30
0.0
  3
*D32
  1

  0
LINE
  5
A6B
330
A5E
100
AcDbEntity
  8
0
 62
     0
440
 16777216
370
    -2
100
AcDbLine
 10
124.1555305343458
 20
9.929905610551813
 30
0.0
 11
124.1555305343458
 21
8.603562829142719
 31
0.0
  0
LINE
  5
A6C
330
A5E
100
AcDbEntity
  8
0
 62
     0
440
 16777216
370
    -2
100
AcDbLine
 10
125.6555305343458
 20
9.929905610551813
 30
0.0
 11
125.6555305343458
 21
8.603562829142719
 31
0.0
  0
LINE
  5
A6D
330
A5E
100
AcDbEntity
  8
0
 62
     0
440
 16777216
370
    -2
100
AcDbLine
 10
124.6555305343458
 20
8.853562829142717
 30
0.0
 11
125.1555305343458
 21
8.853562829142717
 31
0.0
  0
LINE
  5
A6E
330
A5E
100
AcDbEntity
  8
0
 62
     0
440
 16777216
370
    -2
100
AcDbLine
 10
125.6555305343458
 20
8.853562829142717
 30
0.0
 11
126.1555305343458
 21
8.853562829142717
 31
0.0
  0
SOLID
  5
A6F
330
A5E
100
AcDbEntity
  8
0
 62
     0
440
 16777216
100
AcDbTrace
 10
124.6555305343458
 20
8.936896162476051
 30
0.0
 11
124.6555305343458
 21
8.770229495809383
 31
0.0
 12
124.1555305343458
 22
8.853562829142717
 32
0.0
 13
124.1555305343458
 23
8.853562829142717
 33
0.0
  0
SOLID
  5
A70
330
A5E
100
AcDbEntity
  8
0
 62
     0
440
 16777216
100
AcDbTrace
 10
125.1555305343458
 20
8.936896162476051
 30
0.0
 11
125.1555305343458
 21
8.770229495809383
 31
0.0
 12
125.6555305343458
 22
8.853562829142717
 32
0.0
 13
125.6555305343458
 23
8.853562829142717
 33
0.0
  0
MTEXT
  5
A71
330
A5E
100
AcDbEntity
  8
0
 62
     0
440
 16777216
100
AcDbMText
 10
126.9416310345732
 20
8.853562829142717
 30
0.0
 40
0.7
 41
0.0
 46
0.0
 71
     5
 72
     1
  1
\A1;1{\H1.000000x;\S1#2;}
 73
     1
 44
1.0
  0
POINT
  5
A72
330
A5E
100
AcDbEntity
  8
Defpoints
 62
     0
440
 16777216
100
AcDbPoint
 10
124.1555305343458
 20
10.17990561055181
 30
0.0000000000007303
  0
POINT
  5
A73
330
A5E
100
AcDbEntity
  8
Defpoints
 62
     0
440
 16777216
100
AcDbPoint
 10
125.6555305343458
 20
10.17990561055181
 30
0.0000000000007349
  0
POINT
  5
A74
330
A5E
100
AcDbEntity
  8
Defpoints
 62
     0
440
 16777216
100
AcDbPoint
 10
125.6555305343458
 20
8.853562829142717
 30
0.0
  0
ENDBLK
  5
A60
330
A5E
100
AcDbEntity
  8
0
100
AcDbBlockEnd
  0
BLOCK
  5
A79
330
A78
100
AcDbEntity
  8
0
100
AcDbBlockBegin
  2
*D33
 70
     1
 10
0.0
 20
0.0
 30
0.0
  3
*D33
  1

  0
LINE
  5
A85
330
A78
100
AcDbEntity
  8
0
 62
     0
440
 16777216
370
    -2
100
AcDbLine
 10
122.9055305343458
 20
50.92990411055182
 30
0.0
 11
122.9055305343458
 21
53.46254712540274
 31
0.0
  0
LINE
  5
A86
330
A78
100
AcDbEntity
  8
0
 62
     0
440
 16777216
370
    -2
100
AcDbLine
 10
126.9055305343458
 20
50.92990411055182
 30
0.0
 11
126.9055305343458
 21
53.46254712540274
 31
0.0
  0
LINE
  5
A87
330
A78
100
AcDbEntity
  8
0
 62
     0
440
 16777216
370
    -2
100
AcDbLine
 10
123.4055305343458
 20
53.21254712540276
 30
0.0
 11
124.5734432219311
 21
53.21254712540276
 31
0.0
  0
LINE
  5
A88
330
A78
100
AcDbEntity
  8
0
 62
     0
440
 16777216
370
    -2
100
AcDbLine
 10
126.4055305343458
 20
53.21254712540276
 30
0.0
 11
125.2376178467606
 21
53.21254712540276
 31
0.0
  0
SOLID
  5
A89
330
A78
100
AcDbEntity
  8
0
 62
     0
440
 16777216
100
AcDbTrace
 10
123.4055305343458
 20
53.2958804587361
 30
0.0
 11
123.4055305343458
 21
53.12921379206943
 31
0.0
 12
122.9055305343458
 22
53.21254712540276
 32
0.0
 13
122.9055305343458
 23
53.21254712540276
 33
0.0
  0
SOLID
  5
A8A
330
A78
100
AcDbEntity
  8
0
 62
     0
440
 16777216
100
AcDbTrace
 10
126.4055305343458
 20
53.2958804587361
 30
0.0
 11
126.4055305343458
 21
53.12921379206943
 31
0.0
 12
126.9055305343458
 22
53.21254712540276
 32
0.0
 13
126.9055305343458
 23
53.21254712540276
 33
0.0
  0
MTEXT
  5
A8B
330
A78
100
AcDbEntity
  8
0
 62
     0
440
 16777216
100
AcDbMText
 10
124.9055305343458
 20
53.21254712540276
 30
0.0
 40
0.7
 41
0.0
 46
0.0
 71
     5
 72
     1
  1
\A1;4
 73
     1
 44
1.0
  0
POINT
  5
A8C
330
A78
100
AcDbEntity
  8
Defpoints
 62
     0
440
 16777216
100
AcDbPoint
 10
122.9055305343458
 20
50.6799041105518
 30
0.0000000000007304
  0
POINT
  5
A8D
330
A78
100
AcDbEntity
  8
Defpoints
 62
     0
440
 16777216
100
AcDbPoint
 10
126.9055305343458
 20
50.6799041105518
 30
0.0000000000007421
  0
POINT
  5
A8E
330
A78
100
AcDbEntity
  8
Defpoints
 62
     0
440
 16777216
100
AcDbPoint
 10
126.9055305343458
 20
53.21254712540276
 30
0.0
  0
ENDBLK
  5
A7A
330
A78
100
AcDbEntity
  8
0
100
AcDbBlockEnd
  0
BLOCK
  5
A93
330
A92
100
AcDbEntity
  8
0
100
AcDbBlockBegin
  2
*D34
 70
     1
 10
0.0
 20
0.0
 30
0.0
  3
*D34
  1

  0
LINE
  5
A9F
330
A92
100
AcDbEntity
  8
0
 62
     0
440
 16777216
370
    -2
100
AcDbLine
 10
122.6555305343458
 20
50.6799041105518
 30
0.0
 11
118.5596352287832
 21
50.6799041105518
 31
0.0
  0
LINE
  5
AA0
330
A92
100
AcDbEntity
  8
0
 62
     0
440
 16777216
370
    -2
100
AcDbLine
 10
122.6555305343458
 20
39.65273061055182
 30
0.0
 11
118.5596352287832
 21
39.65273061055182
 31
0.0
  0
LINE
  5
AA1
330
A92
100
AcDbEntity
  8
0
 62
     0
440
 16777216
370
    -2
100
AcDbLine
 10
118.8096352287832
 20
50.17990411055182
 30
0.0
 11
118.8096352287832
 21
45.60774982985604
 31
0.0
  0
LINE
  5
AA2
330
A92
100
AcDbEntity
  8
0
 62
     0
440
 16777216
370
    -2
100
AcDbLine
 10
118.8096352287832
 20
40.15273061055181
 30
0.0
 11
118.8096352287832
 21
44.72488489124757
 31
0.0
  0
SOLID
  5
AA3
330
A92
100
AcDbEntity
  8
0
 62
     0
440
 16777216
100
AcDbTrace
 10
118.7263018954499
 20
50.17990411055182
 30
0.0
 11
118.8929685621165
 21
50.17990411055182
 31
0.0
 12
118.8096352287832
 22
50.6799041105518
 32
0.0
 13
118.8096352287832
 23
50.6799041105518
 33
0.0
  0
SOLID
  5
AA4
330
A92
100
AcDbEntity
  8
0
 62
     0
440
 16777216
100
AcDbTrace
 10
118.7263018954499
 20
40.15273061055181
 30
0.0
 11
118.8929685621165
 21
40.15273061055181
 31
0.0
 12
118.8096352287832
 22
39.65273061055182
 32
0.0
 13
118.8096352287832
 23
39.65273061055182
 33
0.0
  0
MTEXT
  5
AA5
330
A92
100
AcDbEntity
  8
0
 62
     0
440
 16777216
100
AcDbMText
 10
118.8096352287832
 20
45.16631736055184
 30
0.0
 40
0.7
 41
0.0
 46
0.0
 71
     5
 72
     1
  1
\A1;11
 73
     1
 44
1.0
  0
POINT
  5
AA6
330
A92
100
AcDbEntity
  8
Defpoints
 62
     0
440
 16777216
100
AcDbPoint
 10
122.9055305343458
 20
50.6799041105518
 30
0.0000000000007067
  0
POINT
  5
AA7
330
A92
100
AcDbEntity
  8
Defpoints
 62
     0
440
 16777216
100
AcDbPoint
 10
122.9055305343458
 20
39.65273061055182
 30
0.0000000000003474
  0
POINT
  5
AA8
330
A92
100
AcDbEntity
  8
Defpoints
 62
     0
440
 16777216
100
AcDbPoint
 10
118.8096352287832
 20
39.65273061055182
 30
0.0
  0
ENDBLK
  5
A94
330
A92
100
AcDbEntity
  8
0
100
AcDbBlockEnd
  0
BLOCK
  5
B04
330
B03
100
AcDbEntity
  8
0
100
AcDbBlockBegin
  2
*D35
 70
     1
 10
0.0
 20
0.0
 30
0.0
  3
*D35
  1

  0
LINE
  5
B10
330
B03
100
AcDbEntity
  8
0
 62
     0
440
 16777216
370
    -2
100
AcDbLine
 10
88.29015371925303
 20
50.67990567668167
 30
0.0
 11
91.64196175834119
 21
50.67990567668167
 31
0.0
  0
LINE
  5
B11
330
B03
100
AcDbEntity
  8
0
 62
     0
440
 16777216
370
    -2
100
AcDbLine
 10
88.29015371925303
 20
10.17990567668168
 30
0.0
 11
91.64196175834119
 21
10.17990567668168
 31
0.0
  0
LINE
  5
B12
330
B03
100
AcDbEntity
  8
0
 62
     0
440
 16777216
370
    -2
100
AcDbLine
 10
91.3919617583412
 20
50.17990567668167
 30
0.0
 11
91.39196175834118
 21
31.22873923739109
 31
0.0
  0
LINE
  5
B13
330
B03
100
AcDbEntity
  8
0
 62
     0
440
 16777216
370
    -2
100
AcDbLine
 10
91.39196175834118
 20
10.67990567668168
 30
0.0
 11
91.39196175834118
 21
29.63107211597226
 31
0.0
  0
SOLID
  5
B14
330
B03
100
AcDbEntity
  8
0
 62
     0
440
 16777216
100
AcDbTrace
 10
91.30862842500787
 20
50.17990567668167
 30
0.0
 11
91.47529509167453
 21
50.17990567668167
 31
0.0
 12
91.3919617583412
 22
50.67990567668167
 32
0.0
 13
91.3919617583412
 23
50.67990567668167
 33
0.0
  0
SOLID
  5
B15
330
B03
100
AcDbEntity
  8
0
 62
     0
440
 16777216
100
AcDbTrace
 10
91.30862842500786
 20
10.67990567668168
 30
0.0
 11
91.47529509167453
 21
10.67990567668168
 31
0.0
 12
91.39196175834118
 22
10.17990567668168
 32
0.0
 13
91.39196175834118
 23
10.17990567668168
 33
0.0
  0
MTEXT
  5
B16
330
B03
100
AcDbEntity
  8
0
 62
     0
440
 16777216
100
AcDbMText
 10
91.39196175834118
 20
30.42990567668169
 30
0.0
 40
0.7
 41
0.0
 46
0.0
 71
     5
 72
     1
  1
\A1;40{\H1.000000x;\S1#2;}
 73
     1
 44
1.0
  0
POINT
  5
B17
330
B03
100
AcDbEntity
  8
Defpoints
 62
     0
440
 16777216
100
AcDbPoint
 10
88.04015371925302
 20
50.67990567668167
 30
-2.444578435205826
  0
POINT
  5
B18
330
B03
100
AcDbEntity
  8
Defpoints
 62
     0
440
 16777216
100
AcDbPoint
 10
88.040153719253
 20
10.17990567668168
 30
-2.444578435205826
  0
POINT
  5
B19
330
B03
100
AcDbEntity
  8
Defpoints
 62
     0
440
 16777216
100
AcDbPoint
 10
91.39196175834118
 20
10.17990567668168
 30
0.0
  0
ENDBLK
  5
B05
330
B03
100
AcDbEntity
  8
0
100
AcDbBlockEnd
  0
BLOCK
  5
B1E
330
B1D
100
AcDbEntity
  8
0
100
AcDbBlockBegin
  2
*D36
 70
     1
 10
0.0
 20
0.0
 30
0.0
  3
*D36
  1

  0
LINE
  5
B2A
330
B1D
100
AcDbEntity
  8
0
 62
     0
440
 16777216
370
    -2
100
AcDbLine
 10
84.290153719253
 20
10.17990567668168
 30
0.0
 11
81.89889221396127
 21
10.17990567668168
 31
0.0
  0
LINE
  5
B2B
330
B1D
100
AcDbEntity
  8
0
 62
     0
440
 16777216
370
    -2
100
AcDbLine
 10
84.41616593386406
 20
17.17990567668167
 30
0.0
 11
81.89889221396127
 21
17.17990567668167
 31
0.0
  0
LINE
  5
B2C
330
B1D
100
AcDbEntity
  8
0
 62
     0
440
 16777216
370
    -2
100
AcDbLine
 10
82.14889221396125
 20
10.67990567668168
 30
0.0
 11
82.14889221396125
 21
13.23990567668168
 31
0.0
  0
LINE
  5
B2D
330
B1D
100
AcDbEntity
  8
0
 62
     0
440
 16777216
370
    -2
100
AcDbLine
 10
82.14889221396125
 20
16.67990567668167
 30
0.0
 11
82.14889221396125
 21
14.11990567668168
 31
0.0
  0
SOLID
  5
B2E
330
B1D
100
AcDbEntity
  8
0
 62
     0
440
 16777216
100
AcDbTrace
 10
82.06555888062792
 20
10.67990567668168
 30
0.0
 11
82.23222554729458
 21
10.67990567668168
 31
0.0
 12
82.14889221396125
 22
10.17990567668168
 32
0.0
 13
82.14889221396125
 23
10.17990567668168
 33
0.0
  0
SOLID
  5
B2F
330
B1D
100
AcDbEntity
  8
0
 62
     0
440
 16777216
100
AcDbTrace
 10
82.06555888062792
 20
16.67990567668167
 30
0.0
 11
82.23222554729458
 21
16.67990567668167
 31
0.0
 12
82.14889221396125
 22
17.17990567668167
 32
0.0
 13
82.14889221396125
 23
17.17990567668167
 33
0.0
  0
MTEXT
  5
B30
330
B1D
100
AcDbEntity
  8
0
 62
     0
440
 16777216
100
AcDbMText
 10
82.14889221396125
 20
13.67990567668169
 30
0.0
 40
0.7
 41
0.0
 46
0.0
 71
     5
 72
     1
  1
\A1;7
 73
     1
 44
1.0
  0
POINT
  5
B31
330
B1D
100
AcDbEntity
  8
Defpoints
 62
     0
440
 16777216
100
AcDbPoint
 10
84.54015371925304
 20
10.17990567668168
 30
-2.444578435205853
  0
POINT
  5
B32
330
B1D
100
AcDbEntity
  8
Defpoints
 62
     0
440
 16777216
100
AcDbPoint
 10
84.66616593386406
 20
17.17990567668167
 30
-2.444578435205853
  0
POINT
  5
B33
330
B1D
100
AcDbEntity
  8
Defpoints
 62
     0
440
 16777216
100
AcDbPoint
 10
82.14889221396125
 20
17.17990567668167
 30
0.0
  0
ENDBLK
  5
B1F
330
B1D
100
AcDbEntity
  8
0
100
AcDbBlockEnd
  0
BLOCK
  5
B38
330
B37
100
AcDbEntity
  8
0
100
AcDbBlockBegin
  2
*D37
 70
     1
 10
0.0
 20
0.0
 30
0.0
  3
*D37
  1

  0
LINE
  5
B44
330
B37
100
AcDbEntity
  8
0
 62
     0
440
 16777216
370
    -2
100
AcDbLine
 10
84.54015371925304
 20
50.92990567668167
 30
0.0
 11
84.54015371925304
 21
53.5061398578707
 31
0.0
  0
LINE
  5
B45
330
B37
100
AcDbEntity
  8
0
 62
     0
440
 16777216
370
    -2
100
AcDbLine
 10
88.04015371925302
 20
50.92990567668167
 30
0.0
 11
88.04015371925302
 21
53.5061398578707
 31
0.0
  0
LINE
  5
B46
330
B37
100
AcDbEntity
  8
0
 62
     0
440
 16777216
370
    -2
100
AcDbLine
 10
85.04015371925303
 20
53.2561398578707
 30
0.0
 11
85.4713451699124
 21
53.2561398578707
 31
0.0
  0
LINE
  5
B47
330
B37
100
AcDbEntity
  8
0
 62
     0
440
 16777216
370
    -2
100
AcDbLine
 10
87.54015371925303
 20
53.2561398578707
 30
0.0
 11
87.10896226859366
 21
53.2561398578707
 31
0.0
  0
SOLID
  5
B48
330
B37
100
AcDbEntity
  8
0
 62
     0
440
 16777216
100
AcDbTrace
 10
85.04015371925303
 20
53.33947319120404
 30
0.0
 11
85.04015371925303
 21
53.17280652453736
 31
0.0
 12
84.54015371925304
 22
53.2561398578707
 32
0.0
 13
84.54015371925304
 23
53.2561398578707
 33
0.0
  0
SOLID
  5
B49
330
B37
100
AcDbEntity
  8
0
 62
     0
440
 16777216
100
AcDbTrace
 10
87.54015371925303
 20
53.33947319120404
 30
0.0
 11
87.54015371925303
 21
53.17280652453736
 31
0.0
 12
88.04015371925302
 22
53.2561398578707
 32
0.0
 13
88.04015371925302
 23
53.2561398578707
 33
0.0
  0
MTEXT
  5
B4A
330
B37
100
AcDbEntity
  8
0
 62
     0
440
 16777216
100
AcDbMText
 10
86.29015371925303
 20
53.2561398578707
 30
0.0
 40
0.7
 41
0.0
 46
0.0
 71
     5
 72
     1
  1
\A1;3{\H1.000000x;\S1#2;}
 73
     1
 44
1.0
  0
POINT
  5
B4B
330
B37
100
AcDbEntity
  8
Defpoints
 62
     0
440
 16777216
100
AcDbPoint
 10
84.54015371925304
 20
50.67990567668167
 30
-2.444578435205837
  0
POINT
  5
B4C
330
B37
100
AcDbEntity
  8
Defpoints
 62
     0
440
 16777216
100
AcDbPoint
 10
88.04015371925302
 20
50.67990567668167
 30
-2.444578435205837
  0
POINT
  5
B4D
330
B37
100
AcDbEntity
  8
Defpoints
 62
     0
440
 16777216
100
AcDbPoint
 10
88.04015371925302
 20
53.2561398578707
 30
0.0
  0
ENDBLK
  5
B39
330
B37
100
AcDbEntity
  8
0
100
AcDbBlockEnd
  0
BLOCK
  5
B52
330
B51
100
AcDbEntity
  8
0
100
AcDbBlockBegin
  2
*D38
 70
     1
 10
0.0
 20
0.0
 30
0.0
  3
*D38
  1

  0
LINE
  5
B5E
330
B51
100
AcDbEntity
  8
0
 62
     0
440
 16777216
370
    -2
100
AcDbLine
 10
84.290153719253
 20
50.67990567668167
 30
0.0
 11
81.2988841616795
 21
50.67990567668167
 31
0.0
  0
LINE
  5
B5F
330
B51
100
AcDbEntity
  8
0
 62
     0
440
 16777216
370
    -2
100
AcDbLine
 10
84.290153719253
 20
43.67990567668168
 30
0.0
 11
81.2988841616795
 21
43.67990567668168
 31
0.0
  0
LINE
  5
B60
330
B51
100
AcDbEntity
  8
0
 62
     0
440
 16777216
370
    -2
100
AcDbLine
 10
81.54888416167954
 20
50.17990567668167
 30
0.0
 11
81.54888416167954
 21
47.61990567668166
 31
0.0
  0
LINE
  5
B61
330
B51
100
AcDbEntity
  8
0
 62
     0
440
 16777216
370
    -2
100
AcDbLine
 10
81.54888416167954
 20
44.17990567668168
 30
0.0
 11
81.54888416167954
 21
46.73990567668168
 31
0.0
  0
SOLID
  5
B62
330
B51
100
AcDbEntity
  8
0
 62
     0
440
 16777216
100
AcDbTrace
 10
81.46555082834622
 20
50.17990567668167
 30
0.0
 11
81.63221749501285
 21
50.17990567668167
 31
0.0
 12
81.54888416167954
 22
50.67990567668167
 32
0.0
 13
81.54888416167954
 23
50.67990567668167
 33
0.0
  0
SOLID
  5
B63
330
B51
100
AcDbEntity
  8
0
 62
     0
440
 16777216
100
AcDbTrace
 10
81.46555082834622
 20
44.17990567668168
 30
0.0
 11
81.63221749501285
 21
44.17990567668168
 31
0.0
 12
81.54888416167954
 22
43.67990567668168
 32
0.0
 13
81.54888416167954
 23
43.67990567668168
 33
0.0
  0
MTEXT
  5
B64
330
B51
100
AcDbEntity
  8
0
 62
     0
440
 16777216
100
AcDbMText
 10
81.54888416167951
 20
47.17990567668169
 30
0.0
 40
0.7
 41
0.0
 46
0.0
 71
     5
 72
     1
  1
\A1;7
 73
     1
 44
1.0
  0
POINT
  5
B65
330
B51
100
AcDbEntity
  8
Defpoints
 62
     0
440
 16777216
100
AcDbPoint
 10
84.54015371925304
 20
50.67990567668167
 30
-2.444578435205856
  0
POINT
  5
B66
330
B51
100
AcDbEntity
  8
Defpoints
 62
     0
440
 16777216
100
AcDbPoint
 10
84.54015371925304
 20
43.67990567668168
 30
-2.444578435205856
  0
POINT
  5
B67
330
B51
100
AcDbEntity
  8
Defpoints
 62
     0
440
 16777216
100
AcDbPoint
 10
81.54888416167954
 20
43.67990567668168
 30
0.0
  0
ENDBLK
  5
B53
330
B51
100
AcDbEntity
  8
0
100
AcDbBlockEnd
  0
BLOCK
  5
B6C
330
B6B
100
AcDbEntity
  8
0
100
AcDbBlockBegin
  2
*D39
 70
     1
 10
0.0
 20
0.0
 30
0.0
  3
*D39
  1

  0
LINE
  5
B78
330
B6B
100
AcDbEntity
  8
0
 62
     0
440
 16777216
370
    -2
100
AcDbLine
 10
49.9217422811289
 20
50.67990417668167
 30
0.0
 11
53.65273125884162
 21
50.67990417668167
 31
0.0
  0
LINE
  5
B79
330
B6B
100
AcDbEntity
  8
0
 62
     0
440
 16777216
370
    -2
100
AcDbLine
 10
49.9217422811289
 20
10.17990567668168
 30
0.0
 11
53.65273125884161
 21
10.17990567668168
 31
0.0
  0
LINE
  5
B7A
330
B6B
100
AcDbEntity
  8
0
 62
     0
440
 16777216
370
    -2
100
AcDbLine
 10
53.40273125884163
 20
50.17990417668167
 30
0.0
 11
53.40273125884163
 21
31.22873848739109
 31
0.0
  0
LINE
  5
B7B
330
B6B
100
AcDbEntity
  8
0
 62
     0
440
 16777216
370
    -2
100
AcDbLine
 10
53.40273125884162
 20
10.67990567668168
 30
0.0
 11
53.40273125884163
 21
29.63107136597227
 31
0.0
  0
SOLID
  5
B7C
330
B6B
100
AcDbEntity
  8
0
 62
     0
440
 16777216
100
AcDbTrace
 10
53.3193979255083
 20
50.17990417668167
 30
0.0
 11
53.48606459217497
 21
50.17990417668167
 31
0.0
 12
53.40273125884163
 22
50.67990417668167
 32
0.0
 13
53.40273125884163
 23
50.67990417668167
 33
0.0
  0
SOLID
  5
B7D
330
B6B
100
AcDbEntity
  8
0
 62
     0
440
 16777216
100
AcDbTrace
 10
53.31939792550827
 20
10.67990567668168
 30
0.0
 11
53.48606459217496
 21
10.67990567668168
 31
0.0
 12
53.40273125884162
 22
10.17990567668168
 32
0.0
 13
53.40273125884162
 23
10.17990567668168
 33
0.0
  0
MTEXT
  5
B7E
330
B6B
100
AcDbEntity
  8
0
 62
     0
440
 16777216
100
AcDbMText
 10
53.40273125884162
 20
30.42990492668169
 30
0.0
 40
0.7
 41
0.0
 46
0.0
 71
     5
 72
     1
  1
\A1;40{\H1.000000x;\S1#2;}
 73
     1
 44
1.0
  0
POINT
  5
B7F
330
B6B
100
AcDbEntity
  8
Defpoints
 62
     0
440
 16777216
100
AcDbPoint
 10
49.6717422811289
 20
50.67990417668167
 30
-2.444578435205937
  0
POINT
  5
B80
330
B6B
100
AcDbEntity
  8
Defpoints
 62
     0
440
 16777216
100
AcDbPoint
 10
49.6717422811289
 20
10.17990567668168
 30
-2.444578435205937
  0
POINT
  5
B81
330
B6B
100
AcDbEntity
  8
Defpoints
 62
     0
440
 16777216
100
AcDbPoint
 10
53.40273125884162
 20
10.17990567668168
 30
0.0
  0
ENDBLK
  5
B6D
330
B6B
100
AcDbEntity
  8
0
100
AcDbBlockEnd
  0
BLOCK
  5
B86
330
B85
100
AcDbEntity
  8
0
100
AcDbBlockBegin
  2
*D40
 70
     1
 10
0.0
 20
0.0
 30
0.0
  3
*D40
  1

  0
LINE
  5
B92
330
B85
100
AcDbEntity
  8
0
 62
     0
440
 16777216
370
    -2
100
AcDbLine
 10
44.42174228112889
 20
10.17990567668168
 30
0.0
 11
42.14991529785343
 21
10.17990567668168
 31
0.0
  0
LINE
  5
B93
330
B85
100
AcDbEntity
  8
0
 62
     0
440
 16777216
370
    -2
100
AcDbLine
 10
44.42174228112889
 20
17.1603350660188
 30
0.0
 11
42.14991529785343
 21
17.1603350660188
 31
0.0
  0
LINE
  5
B94
330
B85
100
AcDbEntity
  8
0
 62
     0
440
 16777216
370
    -2
100
AcDbLine
 10
42.39991529785341
 20
10.67990567668168
 30
0.0
 11
42.39991529785341
 21
13.23012037135024
 31
0.0
  0
LINE
  5
B95
330
B85
100
AcDbEntity
  8
0
 62
     0
440
 16777216
370
    -2
100
AcDbLine
 10
42.39991529785342
 20
16.6603350660188
 30
0.0
 11
42.39991529785341
 21
14.11012037135024
 31
0.0
  0
SOLID
  5
B96
330
B85
100
AcDbEntity
  8
0
 62
     0
440
 16777216
100
AcDbTrace
 10
42.31658196452007
 20
10.67990567668168
 30
0.0
 11
42.48324863118675
 21
10.67990567668168
 31
0.0
 12
42.39991529785341
 22
10.17990567668168
 32
0.0
 13
42.39991529785341
 23
10.17990567668168
 33
0.0
  0
SOLID
  5
B97
330
B85
100
AcDbEntity
  8
0
 62
     0
440
 16777216
100
AcDbTrace
 10
42.31658196452007
 20
16.6603350660188
 30
0.0
 11
42.48324863118675
 21
16.6603350660188
 31
0.0
 12
42.39991529785342
 22
17.1603350660188
 32
0.0
 13
42.39991529785342
 23
17.1603350660188
 33
0.0
  0
MTEXT
  5
B98
330
B85
100
AcDbEntity
  8
0
 62
     0
440
 16777216
100
AcDbMText
 10
42.39991529785341
 20
13.67012037135025
 30
0.0
 40
0.7
 41
0.0
 46
0.0
 71
     5
 72
     1
  1
\A1;7
 73
     1
 44
1.0
  0
POINT
  5
B99
330
B85
100
AcDbEntity
  8
Defpoints
 62
     0
440
 16777216
100
AcDbPoint
 10
44.6717422811289
 20
10.17990567668168
 30
-2.44457843520597
  0
POINT
  5
B9A
330
B85
100
AcDbEntity
  8
Defpoints
 62
     0
440
 16777216
100
AcDbPoint
 10
44.6717422811289
 20
17.1603350660188
 30
-2.444578435206025
  0
POINT
  5
B9B
330
B85
100
AcDbEntity
  8
Defpoints
 62
     0
440
 16777216
100
AcDbPoint
 10
42.39991529785342
 20
17.1603350660188
 30
0.0
  0
ENDBLK
  5
B87
330
B85
100
AcDbEntity
  8
0
100
AcDbBlockEnd
  0
BLOCK
  5
BA0
330
B9F
100
AcDbEntity
  8
0
100
AcDbBlockBegin
  2
*D41
 70
     1
 10
0.0
 20
0.0
 30
0.0
  3
*D41
  1

  0
LINE
  5
BAC
330
B9F
100
AcDbEntity
  8
0
 62
     0
440
 16777216
370
    -2
100
AcDbLine
 10
44.42174228112889
 20
50.67990417668167
 30
0.0
 11
42.14991529785343
 21
50.67990417668167
 31
0.0
  0
LINE
  5
BAD
330
B9F
100
AcDbEntity
  8
0
 62
     0
440
 16777216
370
    -2
100
AcDbLine
 10
44.42174228112889
 20
43.6994747873445
 30
0.0
 11
42.14991529785343
 21
43.6994747873445
 31
0.0
  0
LINE
  5
BAE
330
B9F
100
AcDbEntity
  8
0
 62
     0
440
 16777216
370
    -2
100
AcDbLine
 10
42.39991529785343
 20
50.17990417668167
 30
0.0
 11
42.39991529785342
 21
47.62968948201308
 31
0.0
  0
LINE
  5
BAF
330
B9F
100
AcDbEntity
  8
0
 62
     0
440
 16777216
370
    -2
100
AcDbLine
 10
42.39991529785342
 20
44.1994747873445
 30
0.0
 11
42.39991529785342
 21
46.74968948201309
 31
0.0
  0
SOLID
  5
BB0
330
B9F
100
AcDbEntity
  8
0
 62
     0
440
 16777216
100
AcDbTrace
 10
42.31658196452008
 20
50.17990417668167
 30
0.0
 11
42.48324863118677
 21
50.17990417668167
 31
0.0
 12
42.39991529785343
 22
50.67990417668167
 32
0.0
 13
42.39991529785343
 23
50.67990417668167
 33
0.0
  0
SOLID
  5
BB1
330
B9F
100
AcDbEntity
  8
0
 62
     0
440
 16777216
100
AcDbTrace
 10
42.31658196452007
 20
44.1994747873445
 30
0.0
 11
42.48324863118675
 21
44.1994747873445
 31
0.0
 12
42.39991529785342
 22
43.6994747873445
 32
0.0
 13
42.39991529785342
 23
43.6994747873445
 33
0.0
  0
MTEXT
  5
BB2
330
B9F
100
AcDbEntity
  8
0
 62
     0
440
 16777216
100
AcDbMText
 10
42.39991529785341
 20
47.18968948201309
 30
0.0
 40
0.7
 41
0.0
 46
0.0
 71
     5
 72
     1
  1
\A1;7
 73
     1
 44
1.0
  0
POINT
  5
BB3
330
B9F
100
AcDbEntity
  8
Defpoints
 62
     0
440
 16777216
100
AcDbPoint
 10
44.6717422811289
 20
50.67990417668167
 30
-2.44457843520597
  0
POINT
  5
BB4
330
B9F
100
AcDbEntity
  8
Defpoints
 62
     0
440
 16777216
100
AcDbPoint
 10
44.67174228112889
 20
43.6994747873445
 30
-2.444578435206025
  0
POINT
  5
BB5
330
B9F
100
AcDbEntity
  8
Defpoints
 62
     0
440
 16777216
100
AcDbPoint
 10
42.39991529785342
 20
43.6994747873445
 30
0.0
  0
ENDBLK
  5
BA1
330
B9F
100
AcDbEntity
  8
0
100
AcDbBlockEnd
  0
BLOCK
  5
BBA
330
BB9
100
AcDbEntity
  8
0
100
AcDbBlockBegin
  2
*D42
 70
     1
 10
0.0
 20
0.0
 30
0.0
  3
*D42
  1

  0
LINE
  5
BC6
330
BB9
100
AcDbEntity
  8
0
 62
     0
440
 16777216
370
    -2
100
AcDbLine
 10
44.6717422811289
 20
50.92990417668167
 30
0.0
 11
44.6717422811289
 21
54.12314319379046
 31
0.0
  0
LINE
  5
BC7
330
BB9
100
AcDbEntity
  8
0
 62
     0
440
 16777216
370
    -2
100
AcDbLine
 10
49.6717422811289
 20
50.92990417668167
 30
0.0
 11
49.6717422811289
 21
54.12314319379046
 31
0.0
  0
LINE
  5
BC8
330
BB9
100
AcDbEntity
  8
0
 62
     0
440
 16777216
370
    -2
100
AcDbLine
 10
45.1717422811289
 20
53.87314319379044
 30
0.0
 11
46.84968225384375
 21
53.87314319379044
 31
0.0
  0
LINE
  5
BC9
330
BB9
100
AcDbEntity
  8
0
 62
     0
440
 16777216
370
    -2
100
AcDbLine
 10
49.1717422811289
 20
53.87314319379044
 30
0.0
 11
47.49380230841403
 21
53.87314319379044
 31
0.0
  0
SOLID
  5
BCA
330
BB9
100
AcDbEntity
  8
0
 62
     0
440
 16777216
100
AcDbTrace
 10
45.1717422811289
 20
53.95647652712378
 30
0.0
 11
45.1717422811289
 21
53.78980986045711
 31
0.0
 12
44.6717422811289
 22
53.87314319379044
 32
0.0
 13
44.6717422811289
 23
53.87314319379044
 33
0.0
  0
SOLID
  5
BCB
330
BB9
100
AcDbEntity
  8
0
 62
     0
440
 16777216
100
AcDbTrace
 10
49.1717422811289
 20
53.95647652712378
 30
0.0
 11
49.1717422811289
 21
53.78980986045711
 31
0.0
 12
49.6717422811289
 22
53.87314319379044
 32
0.0
 13
49.6717422811289
 23
53.87314319379044
 33
0.0
  0
MTEXT
  5
BCC
330
BB9
100
AcDbEntity
  8
0
 62
     0
440
 16777216
100
AcDbMText
 10
47.1717422811289
 20
53.87314319379044
 30
0.0
 40
0.7
 41
0.0
 46
0.0
 71
     5
 72
     1
  1
\A1;5
 73
     1
 44
1.0
  0
POINT
  5
BCD
330
BB9
100
AcDbEntity
  8
Defpoints
 62
     0
440
 16777216
100
AcDbPoint
 10
44.6717422811289
 20
50.67990417668167
 30
-2.444578435205949
  0
POINT
  5
BCE
330
BB9
100
AcDbEntity
  8
Defpoints
 62
     0
440
 16777216
100
AcDbPoint
 10
49.6717422811289
 20
50.67990417668167
 30
-2.444578435205949
  0
POINT
  5
BCF
330
BB9
100
AcDbEntity
  8
Defpoints
 62
     0
440
 16777216
100
AcDbPoint
 10
49.6717422811289
 20
53.87314319379044
 30
0.0
  0
ENDBLK
  5
BBB
330
BB9
100
AcDbEntity
  8
0
100
AcDbBlockEnd
  0
BLOCK
  5
BD4
330
BD3
100
AcDbEntity
  8
0
100
AcDbBlockBegin
  2
*D43
 70
     1
 10
0.0
 20
0.0
 30
0.0
  3
*D43
  1

  0
LINE
  5
BE0
330
BD3
100
AcDbEntity
  8
0
 62
     0
440
 16777216
370
    -2
100
AcDbLine
 10
9.773915667628953
 20
50.92990411398833
 30
0.0
 11
9.773915667628953
 21
53.39669560433502
 31
0.0
  0
LINE
  5
BE1
330
BD3
100
AcDbEntity
  8
0
 62
     0
440
 16777216
370
    -2
100
AcDbLine
 10
13.77391566762895
 20
50.92990411398833
 30
0.0
 11
13.77391566762895
 21
53.39669560433502
 31
0.0
  0
LINE
  5
BE2
330
BD3
100
AcDbEntity
  8
0
 62
     0
440
 16777216
370
    -2
100
AcDbLine
 10
10.27391566762895
 20
53.14669560433501
 30
0.0
 11
11.44182835521422
 21
53.14669560433501
 31
0.0
  0
LINE
  5
BE3
330
BD3
100
AcDbEntity
  8
0
 62
     0
440
 16777216
370
    -2
100
AcDbLine
 10
13.27391566762895
 20
53.14669560433501
 30
0.0
 11
12.10600298004368
 21
53.14669560433501
 31
0.0
  0
SOLID
  5
BE4
330
BD3
100
AcDbEntity
  8
0
 62
     0
440
 16777216
100
AcDbTrace
 10
10.27391566762895
 20
53.23002893766835
 30
0.0
 11
10.27391566762895
 21
53.06336227100167
 31
0.0
 12
9.773915667628953
 22
53.14669560433501
 32
0.0
 13
9.773915667628953
 23
53.14669560433501
 33
0.0
  0
SOLID
  5
BE5
330
BD3
100
AcDbEntity
  8
0
 62
     0
440
 16777216
100
AcDbTrace
 10
13.27391566762895
 20
53.23002893766835
 30
0.0
 11
13.27391566762895
 21
53.06336227100167
 31
0.0
 12
13.77391566762895
 22
53.14669560433501
 32
0.0
 13
13.77391566762895
 23
53.14669560433501
 33
0.0
  0
MTEXT
  5
BE6
330
BD3
100
AcDbEntity
  8
0
 62
     0
440
 16777216
100
AcDbMText
 10
11.77391566762895
 20
53.14669560433501
 30
0.0
 40
0.7
 41
0.0
 46
0.0
 71
     5
 72
     1
  1
\A1;4
 73
     1
 44
1.0
  0
POINT
  5
BE7
330
BD3
100
AcDbEntity
  8
Defpoints
 62
     0
440
 16777216
100
AcDbPoint
 10
9.773915667628953
 20
50.67990411398834
 30
0.0000000000000403
  0
POINT
  5
BE8
330
BD3
100
AcDbEntity
  8
Defpoints
 62
     0
440
 16777216
100
AcDbPoint
 10
13.77391566762895
 20
50.67990411398834
 30
0.0000000000000403
  0
POINT
  5
BE9
330
BD3
100
AcDbEntity
  8
Defpoints
 62
     0
440
 16777216
100
AcDbPoint
 10
13.77391566762895
 20
53.14669560433501
 30
0.0
  0
ENDBLK
  5
BD5
330
BD3
100
AcDbEntity
  8
0
100
AcDbBlockEnd
  0
BLOCK
  5
BEE
330
BED
100
AcDbEntity
  8
0
100
AcDbBlockBegin
  2
*D44
 70
     1
 10
0.0
 20
0.0
 30
0.0
  3
*D44
  1

  0
LINE
  5
BFA
330
BED
100
AcDbEntity
  8
0
 62
     0
440
 16777216
370
    -2
100
AcDbLine
 10
14.02391566762895
 20
10.17990563366454
 30
0.0
 11
16.01821809606017
 21
10.17990563366454
 31
0.0
  0
LINE
  5
BFB
330
BED
100
AcDbEntity
  8
0
 62
     0
440
 16777216
370
    -2
100
AcDbLine
 10
14.02391566762895
 20
19.57120963366454
 30
0.0
 11
16.01821809606017
 21
19.57120963366454
 31
0.0
  0
LINE
  5
BFC
330
BED
100
AcDbEntity
  8
0
 62
     0
440
 16777216
370
    -2
100
AcDbLine
 10
15.76821809606016
 20
10.67990563366454
 30
0.0
 11
15.76821809606016
 21
14.06454808386918
 31
0.0
  0
LINE
  5
BFD
330
BED
100
AcDbEntity
  8
0
 62
     0
440
 16777216
370
    -2
100
AcDbLine
 10
15.76821809606016
 20
19.07120963366454
 30
0.0
 11
15.76821809606016
 21
15.6865671834599
 31
0.0
  0
SOLID
  5
BFE
330
BED
100
AcDbEntity
  8
0
 62
     0
440
 16777216
100
AcDbTrace
 10
15.68488476272683
 20
10.67990563366454
 30
0.0
 11
15.8515514293935
 21
10.67990563366454
 31
0.0
 12
15.76821809606016
 22
10.17990563366454
 32
0.0
 13
15.76821809606016
 23
10.17990563366454
 33
0.0
  0
SOLID
  5
BFF
330
BED
100
AcDbEntity
  8
0
 62
     0
440
 16777216
100
AcDbTrace
 10
15.68488476272683
 20
19.07120963366454
 30
0.0
 11
15.8515514293935
 21
19.07120963366454
 31
0.0
 12
15.76821809606016
 22
19.57120963366454
 32
0.0
 13
15.76821809606016
 23
19.57120963366454
 33
0.0
  0
MTEXT
  5
C00
330
BED
100
AcDbEntity
  8
0
 62
     0
440
 16777216
100
AcDbMText
 10
15.76821809606016
 20
14.87555763366454
 30
0.0
 40
0.7
 41
0.0
 46
0.0
 71
     5
 72
     1
  1
\A1;9{\H1.000000x;\S3#8;}
 73
     1
 44
1.0
  0
POINT
  5
C01
330
BED
100
AcDbEntity
  8
Defpoints
 62
     0
440
 16777216
100
AcDbPoint
 10
13.77391566762895
 20
10.17990563366454
 30
0.0000000000000461
  0
POINT
  5
C02
330
BED
100
AcDbEntity
  8
Defpoints
 62
     0
440
 16777216
100
AcDbPoint
 10
13.77391566762895
 20
19.57120963366454
 30
0.0000000000000461
  0
POINT
  5
C03
330
BED
100
AcDbEntity
  8
Defpoints
 62
     0
440
 16777216
100
AcDbPoint
 10
15.76821809606016
 20
19.57120963366454
 30
0.0
  0
ENDBLK
  5
BEF
330
BED
100
AcDbEntity
  8
0
100
AcDbBlockEnd
  0
BLOCK
  5
C08
330
C07
100
AcDbEntity
  8
0
100
AcDbBlockBegin
  2
*D45
 70
     1
 10
0.0
 20
0.0
 30
0.0
  3
*D45
  1

  0
LINE
  5
C14
330
C07
100
AcDbEntity
  8
0
 62
     0
440
 16777216
370
    -2
100
AcDbLine
 10
14.02391566762895
 20
50.67990411398834
 30
0.0
 11
16.14646844361701
 21
50.67990411398832
 31
0.0
  0
LINE
  5
C15
330
C07
100
AcDbEntity
  8
0
 62
     0
440
 16777216
370
    -2
100
AcDbLine
 10
14.02391566762895
 20
41.28860011398833
 30
0.0
 11
16.14646844361701
 21
41.28860011398831
 31
0.0
  0
LINE
  5
C16
330
C07
100
AcDbEntity
  8
0
 62
     0
440
 16777216
370
    -2
100
AcDbLine
 10
15.89646844361701
 20
50.17990411398834
 30
0.0
 11
15.89646844361701
 21
46.79526166378368
 31
0.0
  0
LINE
  5
C17
330
C07
100
AcDbEntity
  8
0
 62
     0
440
 16777216
370
    -2
100
AcDbLine
 10
15.89646844361701
 20
41.78860011398833
 30
0.0
 11
15.89646844361701
 21
45.17324256419297
 31
0.0
  0
SOLID
  5
C18
330
C07
100
AcDbEntity
  8
0
 62
     0
440
 16777216
100
AcDbTrace
 10
15.81313511028367
 20
50.17990411398834
 30
0.0
 11
15.97980177695034
 21
50.17990411398834
 31
0.0
 12
15.89646844361701
 22
50.67990411398834
 32
0.0
 13
15.89646844361701
 23
50.67990411398834
 33
0.0
  0
SOLID
  5
C19
330
C07
100
AcDbEntity
  8
0
 62
     0
440
 16777216
100
AcDbTrace
 10
15.81313511028367
 20
41.78860011398833
 30
0.0
 11
15.97980177695034
 21
41.78860011398833
 31
0.0
 12
15.89646844361701
 22
41.28860011398833
 32
0.0
 13
15.89646844361701
 23
41.28860011398833
 33
0.0
  0
MTEXT
  5
C1A
330
C07
100
AcDbEntity
  8
0
 62
     0
440
 16777216
100
AcDbMText
 10
15.896468443617
 20
45.98425211398833
 30
0.0
 40
0.7
 41
0.0
 46
0.0
 71
     5
 72
     1
  1
\A1;9{\H1.000000x;\S3#8;}
 73
     1
 44
1.0
  0
POINT
  5
C1B
330
C07
100
AcDbEntity
  8
Defpoints
 62
     0
440
 16777216
100
AcDbPoint
 10
13.77391566762895
 20
50.67990411398834
 30
0.0000000000000465
  0
POINT
  5
C1C
330
C07
100
AcDbEntity
  8
Defpoints
 62
     0
440
 16777216
100
AcDbPoint
 10
13.77391566762895
 20
41.28860011398833
 30
0.0000000000000465
  0
POINT
  5
C1D
330
C07
100
AcDbEntity
  8
Defpoints
 62
     0
440
 16777216
100
AcDbPoint
 10
15.89646844361701
 20
41.28860011398833
 30
0.0
  0
ENDBLK
  5
C09
330
C07
100
AcDbEntity
  8
0
100
AcDbBlockEnd
  0
BLOCK
  5
C22
330
C21
100
AcDbEntity
  8
0
100
AcDbBlockBegin
  2
*D46
 70
     1
 10
0.0
 20
0.0
 30
0.0
  3
*D46
  1

  0
LINE
  5
C2E
330
C21
100
AcDbEntity
  8
0
 62
     0
440
 16777216
370
    -2
100
AcDbLine
 10
9.523915667628953
 20
50.67990411398834
 30
0.0
 11
3.912701444382698
 21
50.67990411398834
 31
0.0
  0
LINE
  5
C2F
330
C21
100
AcDbEntity
  8
0
 62
     0
440
 16777216
370
    -2
100
AcDbLine
 10
9.523915667628976
 20
10.17990563366454
 30
0.0
 11
3.91270144438269
 21
10.17990563366454
 31
0.0
  0
LINE
  5
C30
330
C21
100
AcDbEntity
  8
0
 62
     0
440
 16777216
370
    -2
100
AcDbLine
 10
4.162701444382698
 20
50.17990411398834
 30
0.0
 11
4.162701444382695
 21
31.22873843453585
 31
0.0
  0
LINE
  5
C31
330
C21
100
AcDbEntity
  8
0
 62
     0
440
 16777216
370
    -2
100
AcDbLine
 10
4.162701444382689
 20
10.67990563366454
 30
0.0
 11
4.162701444382693
 21
29.63107131311704
 31
0.0
  0
SOLID
  5
C32
330
C21
100
AcDbEntity
  8
0
 62
     0
440
 16777216
100
AcDbTrace
 10
4.079368111049365
 20
50.17990411398834
 30
0.0
 11
4.246034777716031
 21
50.17990411398834
 31
0.0
 12
4.162701444382698
 22
50.67990411398834
 32
0.0
 13
4.162701444382698
 23
50.67990411398834
 33
0.0
  0
SOLID
  5
C33
330
C21
100
AcDbEntity
  8
0
 62
     0
440
 16777216
100
AcDbTrace
 10
4.079368111049356
 20
10.67990563366454
 30
0.0
 11
4.246034777716023
 21
10.67990563366454
 31
0.0
 12
4.162701444382689
 22
10.17990563366454
 32
0.0
 13
4.162701444382689
 23
10.17990563366454
 33
0.0
  0
MTEXT
  5
C34
330
C21
100
AcDbEntity
  8
0
 62
     0
440
 16777216
100
AcDbMText
 10
4.162701444382689
 20
30.42990487382644
 30
0.0
 40
0.7
 41
0.0
 46
0.0
 71
     5
 72
     1
  1
\A1;40{\H1.000000x;\S1#2;}
 73
     1
 44
1.0
  0
POINT
  5
C35
330
C21
100
AcDbEntity
  8
Defpoints
 62
     0
440
 16777216
100
AcDbPoint
 10
9.773915667628953
 20
50.67990411398834
 30
0.0000000000000122
  0
POINT
  5
C36
330
C21
100
AcDbEntity
  8
Defpoints
 62
     0
440
 16777216
100
AcDbPoint
 10
9.773915667628976
 20
10.17990563366454
 30
0.0000000000000122
  0
POINT
  5
C37
330
C21
100
AcDbEntity
  8
Defpoints
 62
     0
440
 16777216
100
AcDbPoint
 10
4.162701444382689
 20
10.17990563366454
 30
0.0
  0
ENDBLK
  5
C23
330
C21
100
AcDbEntity
  8
0
100
AcDbBlockEnd
  0
BLOCK
  5
E6C
330
E6B
100
AcDbEntity
  8
0
100
AcDbBlockBegin
  2
*D47
 70
     1
 10
0.0
 20
0.0
 30
0.0
  3
*D47
  1

  0
LINE
  5
EC2
330
E6B
100
AcDbEntity
  8
0
 62
     0
440
 16777216
370
    -2
100
AcDbLine
 10
211.3787704600426
 20
16.92990532560349
 30
0.0
 11
213.1414407703562
 21
16.92990532560349
 31
0.0
  0
LINE
  5
EC3
330
E6B
100
AcDbEntity
  8
0
 62
     0
440
 16777216
370
    -2
100
AcDbLine
 10
211.3787704600426
 20
13.70164457560347
 30
0.0
 11
213.1414407703562
 21
13.70164457560347
 31
0.0
  0
LINE
  5
EC4
330
E6B
100
AcDbEntity
  8
0
 62
     0
440
 16777216
370
    -2
100
AcDbLine
 10
212.8914407703562
 20
16.42990532560349
 30
0.0
 11
212.8914407703562
 21
16.1134147868927
 31
0.0
  0
LINE
  5
EC5
330
E6B
100
AcDbEntity
  8
0
 62
     0
440
 16777216
370
    -2
100
AcDbLine
 10
212.8914407703562
 20
14.20164457560347
 30
0.0
 11
212.8914407703562
 21
14.51813511431426
 31
0.0
  0
SOLID
  5
EC6
330
E6B
100
AcDbEntity
  8
0
 62
     0
440
 16777216
100
AcDbTrace
 10
212.8081074370229
 20
16.42990532560349
 30
0.0
 11
212.9747741036896
 21
16.42990532560349
 31
0.0
 12
212.8914407703562
 22
16.92990532560349
 32
0.0
 13
212.8914407703562
 23
16.92990532560349
 33
0.0
  0
SOLID
  5
EC7
330
E6B
100
AcDbEntity
  8
0
 62
     0
440
 16777216
100
AcDbTrace
 10
212.8081074370229
 20
14.20164457560347
 30
0.0
 11
212.9747741036896
 21
14.20164457560347
 31
0.0
 12
212.8914407703562
 22
13.70164457560347
 32
0.0
 13
212.8914407703562
 23
13.70164457560347
 33
0.0
  0
MTEXT
  5
EC8
330
E6B
100
AcDbEntity
  8
0
 62
     0
440
 16777216
100
AcDbMText
 10
212.8914407703562
 20
15.31577495060352
 30
0.0
 40
0.7
 41
0.0
 46
0.0
 71
     5
 72
     1
  1
\A1;3{\H1.000000x;\S1#4;}
 73
     1
 44
1.0
  0
POINT
  5
EC9
330
E6B
100
AcDbEntity
  8
Defpoints
 62
     0
440
 16777216
100
AcDbPoint
 10
211.1287704600426
 20
16.92990532560349
 30
0.0
  0
POINT
  5
ECA
330
E6B
100
AcDbEntity
  8
Defpoints
 62
     0
440
 16777216
100
AcDbPoint
 10
211.1287704600426
 20
13.70164457560347
 30
0.0
  0
POINT
  5
ECB
330
E6B
100
AcDbEntity
  8
Defpoints
 62
     0
440
 16777216
100
AcDbPoint
 10
212.8914407703562
 20
13.70164457560347
 30
0.0
  0
ENDBLK
  5
E6D
330
E6B
100
AcDbEntity
  8
0
100
AcDbBlockEnd
  0
BLOCK
  5
E86
330
E85
100
AcDbEntity
  8
0
100
AcDbBlockBegin
  2
*D48
 70
     1
 10
0.0
 20
0.0
 30
0.0
  3
*D48
  1

  0
LINE
  5
E93
330
E85
100
AcDbEntity
  8
0
 62
     0
440
 16777216
370
    -2
100
AcDbLine
 10
207.9791000804929
 20
10.17990557560348
 30
0.0
 11
202.0596395136116
 21
10.17990557560348
 31
0.0
  0
LINE
  5
E94
330
E85
100
AcDbEntity
  8
0
 62
     0
440
 16777216
370
    -2
100
AcDbLine
 10
206.8787704600427
 20
50.67990407560349
 30
0.0
 11
202.0596395136116
 21
50.67990407560349
 31
0.0
  0
LINE
  5
E95
330
E85
100
AcDbEntity
  8
0
 62
     0
440
 16777216
370
    -2
100
AcDbLine
 10
202.3096395136117
 20
10.67990557560348
 30
0.0
 11
202.3096395136117
 21
29.63107126489407
 31
0.0
  0
LINE
  5
E96
330
E85
100
AcDbEntity
  8
0
 62
     0
440
 16777216
370
    -2
100
AcDbLine
 10
202.3096395136117
 20
50.1799040756035
 30
0.0
 11
202.3096395136117
 21
31.22873838631289
 31
0.0
  0
SOLID
  5
E97
330
E85
100
AcDbEntity
  8
0
 62
     0
440
 16777216
100
AcDbTrace
 10
202.2263061802783
 20
10.67990557560348
 30
0.0
 11
202.392972846945
 21
10.67990557560348
 31
0.0
 12
202.3096395136117
 22
10.17990557560348
 32
0.0
 13
202.3096395136117
 23
10.17990557560348
 33
0.0
  0
SOLID
  5
E98
330
E85
100
AcDbEntity
  8
0
 62
     0
440
 16777216
100
AcDbTrace
 10
202.2263061802783
 20
50.1799040756035
 30
0.0
 11
202.392972846945
 21
50.1799040756035
 31
0.0
 12
202.3096395136117
 22
50.67990407560349
 32
0.0
 13
202.3096395136117
 23
50.67990407560349
 33
0.0
  0
MTEXT
  5
E99
330
E85
100
AcDbEntity
  8
0
 62
     0
440
 16777216
100
AcDbMText
 10
202.3096395136117
 20
30.42990482560352
 30
0.0
 40
0.7
 41
0.0
 46
0.0
 71
     5
 72
     1
  1
\A1;40{\H1.000000x;\S1#2;}
 73
     1
 44
1.0
  0
POINT
  5
E9A
330
E85
100
AcDbEntity
  8
Defpoints
 62
     0
440
 16777216
100
AcDbPoint
 10
208.2291000804929
 20
10.17990557560348
 30
0.0
  0
POINT
  5
E9B
330
E85
100
AcDbEntity
  8
Defpoints
 62
     0
440
 16777216
100
AcDbPoint
 10
207.1287704600427
 20
50.67990407560349
 30
0.0000000000006056
  0
POINT
  5
E9C
330
E85
100
AcDbEntity
  8
Defpoints
 62
     0
440
 16777216
100
AcDbPoint
 10
202.3096395136117
 20
50.67990407560349
 30
0.0
  0
ENDBLK
  5
E87
330
E85
100
AcDbEntity
  8
0
100
AcDbBlockEnd
  0
BLOCK
  5
EA0
330
E9F
100
AcDbEntity
  8
0
100
AcDbBlockBegin
  2
*D49
 70
     1
 10
0.0
 20
0.0
 30
0.0
  3
*D49
  1

  0
LINE
  5
EAD
330
E9F
100
AcDbEntity
  8
0
 62
     0
440
 16777216
370
    -2
100
AcDbLine
 10
211.3787704600427
 20
50.67990407560349
 30
0.0
 11
214.6549794877346
 21
50.67990407560349
 31
0.0
  0
LINE
  5
EAE
330
E9F
100
AcDbEntity
  8
0
 62
     0
440
 16777216
370
    -2
100
AcDbLine
 10
211.3787704600427
 20
37.20116999833791
 30
0.0
 11
214.6549794877346
 21
37.20116999833791
 31
0.0
  0
LINE
  5
EAF
330
E9F
100
AcDbEntity
  8
0
 62
     0
440
 16777216
370
    -2
100
AcDbLine
 10
214.4049794877346
 20
50.1799040756035
 30
0.0
 11
214.4049794877346
 21
44.73960934256414
 31
0.0
  0
LINE
  5
EB0
330
E9F
100
AcDbEntity
  8
0
 62
     0
440
 16777216
370
    -2
100
AcDbLine
 10
214.4049794877346
 20
37.70116999833791
 30
0.0
 11
214.4049794877346
 21
43.14146473137724
 31
0.0
  0
SOLID
  5
EB1
330
E9F
100
AcDbEntity
  8
0
 62
     0
440
 16777216
100
AcDbTrace
 10
214.3216461544013
 20
50.1799040756035
 30
0.0
 11
214.4883128210679
 21
50.1799040756035
 31
0.0
 12
214.4049794877346
 22
50.67990407560349
 32
0.0
 13
214.4049794877346
 23
50.67990407560349
 33
0.0
  0
SOLID
  5
EB2
330
E9F
100
AcDbEntity
  8
0
 62
     0
440
 16777216
100
AcDbTrace
 10
214.3216461544013
 20
37.70116999833791
 30
0.0
 11
214.4883128210679
 21
37.70116999833791
 31
0.0
 12
214.4049794877346
 22
37.20116999833791
 32
0.0
 13
214.4049794877346
 23
37.20116999833791
 33
0.0
  0
MTEXT
  5
EB3
330
E9F
100
AcDbEntity
  8
0
 62
     0
440
 16777216
100
AcDbMText
 10
214.4049794877346
 20
43.94053703697074
 30
0.0
 40
0.7
 41
0.0
 46
0.0
 71
     5
 72
     1
  1
\A1;13{\H1.000000x;\S1#2;}
 73
     1
 44
1.0
  0
POINT
  5
EB4
330
E9F
100
AcDbEntity
  8
Defpoints
 62
     0
440
 16777216
100
AcDbPoint
 10
211.1287704600427
 20
50.67990407560349
 30
0.0000000000006173
  0
POINT
  5
EB5
330
E9F
100
AcDbEntity
  8
Defpoints
 62
     0
440
 16777216
100
AcDbPoint
 10
211.1287704600427
 20
37.20116999833791
 30
0.0
  0
POINT
  5
EB6
330
E9F
100
AcDbEntity
  8
Defpoints
 62
     0
440
 16777216
100
AcDbPoint
 10
214.4049794877346
 20
37.20116999833791
 30
0.0
  0
ENDBLK
  5
EA1
330
E9F
100
AcDbEntity
  8
0
100
AcDbBlockEnd
  0
BLOCK
  5
EEE
330
EED
100
AcDbEntity
  8
0
100
AcDbBlockBegin
  2
*D50
 70
     1
 10
0.0
 20
0.0
 30
0.0
  3
*D50
  1

  0
LINE
  5
EEF
330
EED
100
AcDbEntity
  8
0
 62
     0
440
 16777216
370
    -2
100
AcDbLine
 10
211.3787704600426
 20
16.92990532560349
 30
0.0
 11
213.1414407703562
 21
16.92990532560349
 31
0.0
  0
LINE
  5
EF0
330
EED
100
AcDbEntity
  8
0
 62
     0
440
 16777216
370
    -2
100
AcDbLine
 10
211.3787704600426
 20
13.70164457560347
 30
0.0
 11
213.1414407703562
 21
13.70164457560347
 31
0.0
  0
LINE
  5
EF1
330
EED
100
AcDbEntity
  8
0
 62
     0
440
 16777216
370
    -2
100
AcDbLine
 10
212.8914407703562
 20
16.42990532560349
 30
0.0
 11
212.8914407703562
 21
16.1134147868927
 31
0.0
  0
LINE
  5
EF2
330
EED
100
AcDbEntity
  8
0
 62
     0
440
 16777216
370
    -2
100
AcDbLine
 10
212.8914407703562
 20
14.20164457560347
 30
0.0
 11
212.8914407703562
 21
14.51813511431426
 31
0.0
  0
SOLID
  5
EF3
330
EED
100
AcDbEntity
  8
0
 62
     0
440
 16777216
100
AcDbTrace
 10
212.8081074370229
 20
16.42990532560349
 30
0.0
 11
212.9747741036896
 21
16.42990532560349
 31
0.0
 12
212.8914407703562
 22
16.92990532560349
 32
0.0
 13
212.8914407703562
 23
16.92990532560349
 33
0.0
  0
SOLID
  5
EF4
330
EED
100
AcDbEntity
  8
0
 62
     0
440
 16777216
100
AcDbTrace
 10
212.8081074370229
 20
14.20164457560347
 30
0.0
 11
212.9747741036896
 21
14.20164457560347
 31
0.0
 12
212.8914407703562
 22
13.70164457560347
 32
0.0
 13
212.8914407703562
 23
13.70164457560347
 33
0.0
  0
MTEXT
  5
EF5
330
EED
100
AcDbEntity
  8
0
 62
     0
440
 16777216
100
AcDbMText
 10
212.8914407703562
 20
15.31577495060352
 30
0.0
 40
0.7
 41
0.0
 46
0.0
 71
     5
 72
     1
  1
\A1;3{\H1.000000x;\S1#4;}
 73
     1
 44
1.0
  0
POINT
  5
EF6
330
EED
100
AcDbEntity
  8
Defpoints
 62
     0
440
 16777216
100
AcDbPoint
 10
211.1287704600426
 20
16.92990532560349
 30
0.0
  0
POINT
  5
EF7
330
EED
100
AcDbEntity
  8
Defpoints
 62
     0
440
 16777216
100
AcDbPoint
 10
211.1287704600426
 20
13.70164457560347
 30
0.0
  0
POINT
  5
EF8
330
EED
100
AcDbEntity
  8
Defpoints
 62
     0
440
 16777216
100
AcDbPoint
 10
212.8914407703562
 20
13.70164457560347
 30
0.0
  0
ENDBLK
  5
EF9
330
EED
100
AcDbEntity
  8
0
100
AcDbBlockEnd
  0
BLOCK
  5
EFB
330
EFA
100
AcDbEntity
  8
0
100
AcDbBlockBegin
  2
*D51
 70
     1
 10
0.0
 20
0.0
 30
0.0
  3
*D51
  1

  0
LINE
  5
EFC
330
EFA
100
AcDbEntity
  8
0
 62
     0
440
 16777216
370
    -2
100
AcDbLine
 10
207.9791000804929
 20
10.17990557560348
 30
0.0
 11
202.0596395136116
 21
10.17990557560348
 31
0.0
  0
LINE
  5
EFD
330
EFA
100
AcDbEntity
  8
0
 62
     0
440
 16777216
370
    -2
100
AcDbLine
 10
206.8787704600427
 20
50.67990407560349
 30
0.0
 11
202.0596395136116
 21
50.67990407560349
 31
0.0
  0
LINE
  5
EFE
330
EFA
100
AcDbEntity
  8
0
 62
     0
440
 16777216
370
    -2
100
AcDbLine
 10
202.3096395136117
 20
10.67990557560348
 30
0.0
 11
202.3096395136117
 21
29.63107126489407
 31
0.0
  0
LINE
  5
EFF
330
EFA
100
AcDbEntity
  8
0
 62
     0
440
 16777216
370
    -2
100
AcDbLine
 10
202.3096395136117
 20
50.1799040756035
 30
0.0
 11
202.3096395136117
 21
31.22873838631289
 31
0.0
  0
SOLID
  5
F00
330
EFA
100
AcDbEntity
  8
0
 62
     0
440
 16777216
100
AcDbTrace
 10
202.2263061802783
 20
10.67990557560348
 30
0.0
 11
202.392972846945
 21
10.67990557560348
 31
0.0
 12
202.3096395136117
 22
10.17990557560348
 32
0.0
 13
202.3096395136117
 23
10.17990557560348
 33
0.0
  0
SOLID
  5
F01
330
EFA
100
AcDbEntity
  8
0
 62
     0
440
 16777216
100
AcDbTrace
 10
202.2263061802783
 20
50.1799040756035
 30
0.0
 11
202.392972846945
 21
50.1799040756035
 31
0.0
 12
202.3096395136117
 22
50.67990407560349
 32
0.0
 13
202.3096395136117
 23
50.67990407560349
 33
0.0
  0
MTEXT
  5
F02
330
EFA
100
AcDbEntity
  8
0
 62
     0
440
 16777216
100
AcDbMText
 10
202.3096395136117
 20
30.42990482560352
 30
0.0
 40
0.7
 41
0.0
 46
0.0
 71
     5
 72
     1
  1
\A1;40{\H1.000000x;\S1#2;}
 73
     1
 44
1.0
  0
POINT
  5
F03
330
EFA
100
AcDbEntity
  8
Defpoints
 62
     0
440
 16777216
100
AcDbPoint
 10
208.2291000804929
 20
10.17990557560348
 30
0.0
  0
POINT
  5
F04
330
EFA
100
AcDbEntity
  8
Defpoints
 62
     0
440
 16777216
100
AcDbPoint
 10
207.1287704600427
 20
50.67990407560349
 30
0.0000000000006056
  0
POINT
  5
F05
330
EFA
100
AcDbEntity
  8
Defpoints
 62
     0
440
 16777216
100
AcDbPoint
 10
202.3096395136117
 20
50.67990407560349
 30
0.0
  0
ENDBLK
  5
F06
330
EFA
100
AcDbEntity
  8
0
100
AcDbBlockEnd
  0
BLOCK
  5
F08
330
F07
100
AcDbEntity
  8
0
100
AcDbBlockBegin
  2
*D52
 70
     1
 10
0.0
 20
0.0
 30
0.0
  3
*D52
  1

  0
LINE
  5
F09
330
F07
100
AcDbEntity
  8
0
 62
     0
440
 16777216
370
    -2
100
AcDbLine
 10
211.3787704600427
 20
50.67990407560349
 30
0.0
 11
214.6549794877346
 21
50.67990407560349
 31
0.0
  0
LINE
  5
F0A
330
F07
100
AcDbEntity
  8
0
 62
     0
440
 16777216
370
    -2
100
AcDbLine
 10
211.3787704600427
 20
37.20116999833791
 30
0.0
 11
214.6549794877346
 21
37.20116999833791
 31
0.0
  0
LINE
  5
F0B
330
F07
100
AcDbEntity
  8
0
 62
     0
440
 16777216
370
    -2
100
AcDbLine
 10
214.4049794877346
 20
50.1799040756035
 30
0.0
 11
214.4049794877346
 21
44.73960934256414
 31
0.0
  0
LINE
  5
F0C
330
F07
100
AcDbEntity
  8
0
 62
     0
440
 16777216
370
    -2
100
AcDbLine
 10
214.4049794877346
 20
37.70116999833791
 30
0.0
 11
214.4049794877346
 21
43.14146473137724
 31
0.0
  0
SOLID
  5
F0D
330
F07
100
AcDbEntity
  8
0
 62
     0
440
 16777216
100
AcDbTrace
 10
214.3216461544013
 20
50.1799040756035
 30
0.0
 11
214.4883128210679
 21
50.1799040756035
 31
0.0
 12
214.4049794877346
 22
50.67990407560349
 32
0.0
 13
214.4049794877346
 23
50.67990407560349
 33
0.0
  0
SOLID
  5
F0E
330
F07
100
AcDbEntity
  8
0
 62
     0
440
 16777216
100
AcDbTrace
 10
214.3216461544013
 20
37.70116999833791
 30
0.0
 11
214.4883128210679
 21
37.70116999833791
 31
0.0
 12
214.4049794877346
 22
37.20116999833791
 32
0.0
 13
214.4049794877346
 23
37.20116999833791
 33
0.0
  0
MTEXT
  5
F0F
330
F07
100
AcDbEntity
  8
0
 62
     0
440
 16777216
100
AcDbMText
 10
214.4049794877346
 20
43.94053703697074
 30
0.0
 40
0.7
 41
0.0
 46
0.0
 71
     5
 72
     1
  1
\A1;13{\H1.000000x;\S1#2;}
 73
     1
 44
1.0
  0
POINT
  5
F10
330
F07
100
AcDbEntity
  8
Defpoints
 62
     0
440
 16777216
100
AcDbPoint
 10
211.1287704600427
 20
50.67990407560349
 30
0.0000000000006173
  0
POINT
  5
F11
330
F07
100
AcDbEntity
  8
Defpoints
 62
     0
440
 16777216
100
AcDbPoint
 10
211.1287704600427
 20
37.20116999833791
 30
0.0
  0
POINT
  5
F12
330
F07
100
AcDbEntity
  8
Defpoints
 62
     0
440
 16777216
100
AcDbPoint
 10
214.4049794877346
 20
37.20116999833791
 30
0.0
  0
ENDBLK
  5
F13
330
F07
100
AcDbEntity
  8
0
100
AcDbBlockEnd
  0
BLOCK
  5
133B
330
133A
100
AcDbEntity
  8
0
100
AcDbBlockBegin
  2
*D54
 70
     1
 10
0.0
 20
0.0
 30
0.0
  3
*D54
  1

  0
LINE
  5
1347
330
133A
100
AcDbEntity
  8
0
 62
     0
440
 16777216
370
    -2
100
AcDbLine
 10
135.5254465596128
 20
27.72096986731622
 30
0.0
 11
137.2881168699263
 21
27.72096986731622
 31
0.0
  0
LINE
  5
1348
330
133A
100
AcDbEntity
  8
0
 62
     0
440
 16777216
370
    -2
100
AcDbLine
 10
135.5254465596128
 20
24.4927091173162
 30
0.0
 11
137.2881168699263
 21
24.4927091173162
 31
0.0
  0
LINE
  5
1349
330
133A
100
AcDbEntity
  8
0
 62
     0
440
 16777216
370
    -2
100
AcDbLine
 10
137.0381168699263
 20
27.22096986731621
 30
0.0
 11
137.0381168699263
 21
26.90447932860543
 31
0.0
  0
LINE
  5
134A
330
133A
100
AcDbEntity
  8
0
 62
     0
440
 16777216
370
    -2
100
AcDbLine
 10
137.0381168699263
 20
24.9927091173162
 30
0.0
 11
137.0381168699263
 21
25.30919965602699
 31
0.0
  0
SOLID
  5
134B
330
133A
100
AcDbEntity
  8
0
 62
     0
440
 16777216
100
AcDbTrace
 10
136.954783536593
 20
27.22096986731621
 30
0.0
 11
137.1214502032597
 21
27.22096986731621
 31
0.0
 12
137.0381168699263
 22
27.72096986731622
 32
0.0
 13
137.0381168699263
 23
27.72096986731622
 33
0.0
  0
SOLID
  5
134C
330
133A
100
AcDbEntity
  8
0
 62
     0
440
 16777216
100
AcDbTrace
 10
136.954783536593
 20
24.9927091173162
 30
0.0
 11
137.1214502032597
 21
24.9927091173162
 31
0.0
 12
137.0381168699263
 22
24.4927091173162
 32
0.0
 13
137.0381168699263
 23
24.4927091173162
 33
0.0
  0
MTEXT
  5
134D
330
133A
100
AcDbEntity
  8
0
 62
     0
440
 16777216
100
AcDbMText
 10
137.0381168699263
 20
26.10683949231623
 30
0.0
 40
0.7
 41
0.0
 46
0.0
 71
     5
 72
     1
  1
\A1;3{\H1.000000x;\S1#4;}
 73
     1
 44
1.0
  0
POINT
  5
134E
330
133A
100
AcDbEntity
  8
Defpoints
 62
     0
440
 16777216
100
AcDbPoint
 10
135.2754465596128
 20
27.72096986731622
 30
0.0
  0
POINT
  5
134F
330
133A
100
AcDbEntity
  8
Defpoints
 62
     0
440
 16777216
100
AcDbPoint
 10
135.2754465596128
 20
24.4927091173162
 30
0.0
  0
POINT
  5
1350
330
133A
100
AcDbEntity
  8
Defpoints
 62
     0
440
 16777216
100
AcDbPoint
 10
137.0381168699263
 20
24.4927091173162
 30
0.0
  0
ENDBLK
  5
133C
330
133A
100
AcDbEntity
  8
0
100
AcDbBlockEnd
  0
BLOCK
  5
1352
330
1351
100
AcDbEntity
  8
0
100
AcDbBlockBegin
  2
*D55
 70
     1
 10
0.0
 20
0.0
 30
0.0
  3
*D55
  1

  0
LINE
  5
136B
330
1351
100
AcDbEntity
  8
0
 62
     0
440
 16777216
370
    -2
100
AcDbLine
 10
132.1257761800631
 20
20.9709701173162
 30
0.0
 11
126.2063156131818
 21
20.9709701173162
 31
0.0
  0
LINE
  5
136C
330
1351
100
AcDbEntity
  8
0
 62
     0
440
 16777216
370
    -2
100
AcDbLine
 10
131.0254465596129
 20
61.47096861731622
 30
0.0
 11
126.2063156131819
 21
61.47096861731622
 31
0.0
  0
LINE
  5
136D
330
1351
100
AcDbEntity
  8
0
 62
     0
440
 16777216
370
    -2
100
AcDbLine
 10
126.4563156131818
 20
21.4709701173162
 30
0.0
 11
126.4563156131819
 21
40.42213580660679
 31
0.0
  0
LINE
  5
136E
330
1351
100
AcDbEntity
  8
0
 62
     0
440
 16777216
370
    -2
100
AcDbLine
 10
126.4563156131819
 20
60.97096861731621
 30
0.0
 11
126.4563156131819
 21
42.01980292802562
 31
0.0
  0
SOLID
  5
136F
330
1351
100
AcDbEntity
  8
0
 62
     0
440
 16777216
100
AcDbTrace
 10
126.3729822798485
 20
21.4709701173162
 30
0.0
 11
126.5396489465152
 21
21.4709701173162
 31
0.0
 12
126.4563156131818
 22
20.9709701173162
 32
0.0
 13
126.4563156131818
 23
20.9709701173162
 33
0.0
  0
SOLID
  5
1370
330
1351
100
AcDbEntity
  8
0
 62
     0
440
 16777216
100
AcDbTrace
 10
126.3729822798485
 20
60.97096861731621
 30
0.0
 11
126.5396489465152
 21
60.97096861731621
 31
0.0
 12
126.4563156131819
 22
61.47096861731622
 32
0.0
 13
126.4563156131819
 23
61.47096861731622
 33
0.0
  0
MTEXT
  5
1371
330
1351
100
AcDbEntity
  8
0
 62
     0
440
 16777216
100
AcDbMText
 10
126.4563156131818
 20
41.22096936731622
 30
0.0
 40
0.7
 41
0.0
 46
0.0
 71
     5
 72
     1
  1
\A1;40{\H1.000000x;\S1#2;}
 73
     1
 44
1.0
  0
POINT
  5
1372
330
1351
100
AcDbEntity
  8
Defpoints
 62
     0
440
 16777216
100
AcDbPoint
 10
132.3757761800631
 20
20.9709701173162
 30
0.0
  0
POINT
  5
1373
330
1351
100
AcDbEntity
  8
Defpoints
 62
     0
440
 16777216
100
AcDbPoint
 10
131.2754465596129
 20
61.47096861731622
 30
0.0000000000006056
  0
POINT
  5
1374
330
1351
100
AcDbEntity
  8
Defpoints
 62
     0
440
 16777216
100
AcDbPoint
 10
126.4563156131819
 20
61.47096861731622
 30
0.0
  0
ENDBLK
  5
1353
330
1351
100
AcDbEntity
  8
0
100
AcDbBlockEnd
  0
BLOCK
  5
135F
330
135E
100
AcDbEntity
  8
0
100
AcDbBlockBegin
  2
*D56
 70
     1
 10
0.0
 20
0.0
 30
0.0
  3
*D56
  1

  0
LINE
  5
1361
330
135E
100
AcDbEntity
  8
0
 62
     0
440
 16777216
370
    -2
100
AcDbLine
 10
135.5254465596128
 20
61.47096861731622
 30
0.0
 11
138.8016555873048
 21
61.47096861731622
 31
0.0
  0
LINE
  5
1362
330
135E
100
AcDbEntity
  8
0
 62
     0
440
 16777216
370
    -2
100
AcDbLine
 10
135.5254465596128
 20
47.99223454005064
 30
0.0
 11
138.8016555873048
 21
47.99223454005064
 31
0.0
  0
LINE
  5
1363
330
135E
100
AcDbEntity
  8
0
 62
     0
440
 16777216
370
    -2
100
AcDbLine
 10
138.5516555873048
 20
60.97096861731622
 30
0.0
 11
138.5516555873048
 21
55.53067388427688
 31
0.0
  0
LINE
  5
1364
330
135E
100
AcDbEntity
  8
0
 62
     0
440
 16777216
370
    -2
100
AcDbLine
 10
138.5516555873048
 20
48.49223454005064
 30
0.0
 11
138.5516555873048
 21
53.93252927308998
 31
0.0
  0
SOLID
  5
1365
330
135E
100
AcDbEntity
  8
0
 62
     0
440
 16777216
100
AcDbTrace
 10
138.4683222539714
 20
60.97096861731622
 30
0.0
 11
138.6349889206381
 21
60.97096861731622
 31
0.0
 12
138.5516555873048
 22
61.47096861731622
 32
0.0
 13
138.5516555873048
 23
61.47096861731622
 33
0.0
  0
SOLID
  5
1366
330
135E
100
AcDbEntity
  8
0
 62
     0
440
 16777216
100
AcDbTrace
 10
138.4683222539714
 20
48.49223454005064
 30
0.0
 11
138.6349889206381
 21
48.49223454005064
 31
0.0
 12
138.5516555873048
 22
47.99223454005064
 32
0.0
 13
138.5516555873048
 23
47.99223454005064
 33
0.0
  0
MTEXT
  5
1367
330
135E
100
AcDbEntity
  8
0
 62
     0
440
 16777216
100
AcDbMText
 10
138.5516555873048
 20
54.73160157868345
 30
0.0
 40
0.7
 41
0.0
 46
0.0
 71
     5
 72
     1
  1
\A1;13{\H1.000000x;\S1#2;}
 73
     1
 44
1.0
  0
POINT
  5
1368
330
135E
100
AcDbEntity
  8
Defpoints
 62
     0
440
 16777216
100
AcDbPoint
 10
135.2754465596128
 20
61.47096861731622
 30
0.0000000000006173
  0
POINT
  5
1369
330
135E
100
AcDbEntity
  8
Defpoints
 62
     0
440
 16777216
100
AcDbPoint
 10
135.2754465596128
 20
47.99223454005064
 30
0.0
  0
POINT
  5
136A
330
135E
100
AcDbEntity
  8
Defpoints
 62
     0
440
 16777216
100
AcDbPoint
 10
138.5516555873048
 20
47.99223454005064
 30
0.0
  0
ENDBLK
  5
1360
330
135E
100
AcDbEntity
  8
0
100
AcDbBlockEnd
  0
BLOCK
  5
1378
330
1377
100
AcDbEntity
  8
0
100
AcDbBlockBegin
  2
*D57
 70
     1
 10
0.0
 20
0.0
 30
0.0
  3
*D57
  1

  0
LINE
  5
1379
330
1377
100
AcDbEntity
  8
0
 62
     0
440
 16777216
370
    -2
100
AcDbLine
 10
135.5254465596128
 20
27.72096986731622
 30
0.0
 11
137.2881168699263
 21
27.72096986731622
 31
0.0
  0
LINE
  5
137A
330
1377
100
AcDbEntity
  8
0
 62
     0
440
 16777216
370
    -2
100
AcDbLine
 10
135.5254465596128
 20
24.4927091173162
 30
0.0
 11
137.2881168699263
 21
24.4927091173162
 31
0.0
  0
LINE
  5
137B
330
1377
100
AcDbEntity
  8
0
 62
     0
440
 16777216
370
    -2
100
AcDbLine
 10
137.0381168699263
 20
27.22096986731621
 30
0.0
 11
137.0381168699263
 21
26.90447932860543
 31
0.0
  0
LINE
  5
137C
330
1377
100
AcDbEntity
  8
0
 62
     0
440
 16777216
370
    -2
100
AcDbLine
 10
137.0381168699263
 20
24.9927091173162
 30
0.0
 11
137.0381168699263
 21
25.30919965602699
 31
0.0
  0
SOLID
  5
137D
330
1377
100
AcDbEntity
  8
0
 62
     0
440
 16777216
100
AcDbTrace
 10
136.954783536593
 20
27.22096986731621
 30
0.0
 11
137.1214502032597
 21
27.22096986731621
 31
0.0
 12
137.0381168699263
 22
27.72096986731622
 32
0.0
 13
137.0381168699263
 23
27.72096986731622
 33
0.0
  0
SOLID
  5
137E
330
1377
100
AcDbEntity
  8
0
 62
     0
440
 16777216
100
AcDbTrace
 10
136.954783536593
 20
24.9927091173162
 30
0.0
 11
137.1214502032597
 21
24.9927091173162
 31
0.0
 12
137.0381168699263
 22
24.4927091173162
 32
0.0
 13
137.0381168699263
 23
24.4927091173162
 33
0.0
  0
MTEXT
  5
137F
330
1377
100
AcDbEntity
  8
0
 62
     0
440
 16777216
100
AcDbMText
 10
137.0381168699263
 20
26.10683949231623
 30
0.0
 40
0.7
 41
0.0
 46
0.0
 71
     5
 72
     1
  1
\A1;3{\H1.000000x;\S1#4;}
 73
     1
 44
1.0
  0
POINT
  5
1380
330
1377
100
AcDbEntity
  8
Defpoints
 62
     0
440
 16777216
100
AcDbPoint
 10
135.2754465596128
 20
27.72096986731622
 30
0.0
  0
POINT
  5
1381
330
1377
100
AcDbEntity
  8
Defpoints
 62
     0
440
 16777216
100
AcDbPoint
 10
135.2754465596128
 20
24.4927091173162
 30
0.0
  0
POINT
  5
1382
330
1377
100
AcDbEntity
  8
Defpoints
 62
     0
440
 16777216
100
AcDbPoint
 10
137.0381168699263
 20
24.4927091173162
 30
0.0
  0
ENDBLK
  5
1383
330
1377
100
AcDbEntity
  8
0
100
AcDbBlockEnd
  0
BLOCK
  5
1385
330
1384
100
AcDbEntity
  8
0
100
AcDbBlockBegin
  2
*D58
 70
     1
 10
0.0
 20
0.0
 30
0.0
  3
*D58
  1

  0
LINE
  5
1386
330
1384
100
AcDbEntity
  8
0
 62
     0
440
 16777216
370
    -2
100
AcDbLine
 10
132.1257761800631
 20
20.9709701173162
 30
0.0
 11
126.2063156131818
 21
20.9709701173162
 31
0.0
  0
LINE
  5
1387
330
1384
100
AcDbEntity
  8
0
 62
     0
440
 16777216
370
    -2
100
AcDbLine
 10
131.0254465596129
 20
61.47096861731622
 30
0.0
 11
126.2063156131819
 21
61.47096861731622
 31
0.0
  0
LINE
  5
1388
330
1384
100
AcDbEntity
  8
0
 62
     0
440
 16777216
370
    -2
100
AcDbLine
 10
126.4563156131818
 20
21.4709701173162
 30
0.0
 11
126.4563156131819
 21
40.42213580660679
 31
0.0
  0
LINE
  5
1389
330
1384
100
AcDbEntity
  8
0
 62
     0
440
 16777216
370
    -2
100
AcDbLine
 10
126.4563156131819
 20
60.97096861731621
 30
0.0
 11
126.4563156131819
 21
42.01980292802562
 31
0.0
  0
SOLID
  5
138A
330
1384
100
AcDbEntity
  8
0
 62
     0
440
 16777216
100
AcDbTrace
 10
126.3729822798485
 20
21.4709701173162
 30
0.0
 11
126.5396489465152
 21
21.4709701173162
 31
0.0
 12
126.4563156131818
 22
20.9709701173162
 32
0.0
 13
126.4563156131818
 23
20.9709701173162
 33
0.0
  0
SOLID
  5
138B
330
1384
100
AcDbEntity
  8
0
 62
     0
440
 16777216
100
AcDbTrace
 10
126.3729822798485
 20
60.97096861731621
 30
0.0
 11
126.5396489465152
 21
60.97096861731621
 31
0.0
 12
126.4563156131819
 22
61.47096861731622
 32
0.0
 13
126.4563156131819
 23
61.47096861731622
 33
0.0
  0
MTEXT
  5
138C
330
1384
100
AcDbEntity
  8
0
 62
     0
440
 16777216
100
AcDbMText
 10
126.4563156131818
 20
41.22096936731622
 30
0.0
 40
0.7
 41
0.0
 46
0.0
 71
     5
 72
     1
  1
\A1;40{\H1.000000x;\S1#2;}
 73
     1
 44
1.0
  0
POINT
  5
138D
330
1384
100
AcDbEntity
  8
Defpoints
 62
     0
440
 16777216
100
AcDbPoint
 10
132.3757761800631
 20
20.9709701173162
 30
0.0
  0
POINT
  5
138E
330
1384
100
AcDbEntity
  8
Defpoints
 62
     0
440
 16777216
100
AcDbPoint
 10
131.2754465596129
 20
61.47096861731622
 30
0.0000000000006056
  0
POINT
  5
138F
330
1384
100
AcDbEntity
  8
Defpoints
 62
     0
440
 16777216
100
AcDbPoint
 10
126.4563156131819
 20
61.47096861731622
 30
0.0
  0
ENDBLK
  5
1390
330
1384
100
AcDbEntity
  8
0
100
AcDbBlockEnd
  0
BLOCK
  5
1392
330
1391
100
AcDbEntity
  8
0
100
AcDbBlockBegin
  2
*D59
 70
     1
 10
0.0
 20
0.0
 30
0.0
  3
*D59
  1

  0
LINE
  5
1393
330
1391
100
AcDbEntity
  8
0
 62
     0
440
 16777216
370
    -2
100
AcDbLine
 10
135.5254465596128
 20
61.47096861731622
 30
0.0
 11
138.8016555873048
 21
61.47096861731622
 31
0.0
  0
LINE
  5
1394
330
1391
100
AcDbEntity
  8
0
 62
     0
440
 16777216
370
    -2
100
AcDbLine
 10
135.5254465596128
 20
47.99223454005064
 30
0.0
 11
138.8016555873048
 21
47.99223454005064
 31
0.0
  0
LINE
  5
1395
330
1391
100
AcDbEntity
  8
0
 62
     0
440
 16777216
370
    -2
100
AcDbLine
 10
138.5516555873048
 20
60.97096861731622
 30
0.0
 11
138.5516555873048
 21
55.53067388427688
 31
0.0
  0
LINE
  5
1396
330
1391
100
AcDbEntity
  8
0
 62
     0
440
 16777216
370
    -2
100
AcDbLine
 10
138.5516555873048
 20
48.49223454005064
 30
0.0
 11
138.5516555873048
 21
53.93252927308998
 31
0.0
  0
SOLID
  5
1397
330
1391
100
AcDbEntity
  8
0
 62
     0
440
 16777216
100
AcDbTrace
 10
138.4683222539714
 20
60.97096861731622
 30
0.0
 11
138.6349889206381
 21
60.97096861731622
 31
0.0
 12
138.5516555873048
 22
61.47096861731622
 32
0.0
 13
138.5516555873048
 23
61.47096861731622
 33
0.0
  0
SOLID
  5
1398
330
1391
100
AcDbEntity
  8
0
 62
     0
440
 16777216
100
AcDbTrace
 10
138.4683222539714
 20
48.49223454005064
 30
0.0
 11
138.6349889206381
 21
48.49223454005064
 31
0.0
 12
138.5516555873048
 22
47.99223454005064
 32
0.0
 13
138.5516555873048
 23
47.99223454005064
 33
0.0
  0
MTEXT
  5
1399
330
1391
100
AcDbEntity
  8
0
 62
     0
440
 16777216
100
AcDbMText
 10
138.5516555873048
 20
54.73160157868345
 30
0.0
 40
0.7
 41
0.0
 46
0.0
 71
     5
 72
     1
  1
\A1;13{\H1.000000x;\S1#2;}
 73
     1
 44
1.0
  0
POINT
  5
139A
330
1391
100
AcDbEntity
  8
Defpoints
 62
     0
440
 16777216
100
AcDbPoint
 10
135.2754465596128
 20
61.47096861731622
 30
0.0000000000006173
  0
POINT
  5
139B
330
1391
100
AcDbEntity
  8
Defpoints
 62
     0
440
 16777216
100
AcDbPoint
 10
135.2754465596128
 20
47.99223454005064
 30
0.0
  0
POINT
  5
139C
330
1391
100
AcDbEntity
  8
Defpoints
 62
     0
440
 16777216
100
AcDbPoint
 10
138.5516555873048
 20
47.99223454005064
 30
0.0
  0
ENDBLK
  5
139D
330
1391
100
AcDbEntity
  8
0
100
AcDbBlockEnd
  0
BLOCK
  5
170B
330
170A
100
AcDbEntity
  8
0
100
AcDbBlockBegin
  2
*D61
 70
     1
 10
0.0
 20
0.0
 30
0.0
  3
*D61
  1

  0
LINE
  5
1717
330
170A
100
AcDbEntity
  8
0
 62
     0
440
 16777216
370
    -2
100
AcDbLine
 10
156.918730408109
 20
27.55101352481573
 30
0.0
 11
158.6814007184226
 21
27.55101352481573
 31
0.0
  0
LINE
  5
1718
330
170A
100
AcDbEntity
  8
0
 62
     0
440
 16777216
370
    -2
100
AcDbLine
 10
156.918730408109
 20
24.32275277481572
 30
0.0
 11
158.6814007184226
 21
24.32275277481572
 31
0.0
  0
LINE
  5
1719
330
170A
100
AcDbEntity
  8
0
 62
     0
440
 16777216
370
    -2
100
AcDbLine
 10
158.4314007184226
 20
27.05101352481574
 30
0.0
 11
158.4314007184226
 21
26.73452298610495
 31
0.0
  0
LINE
  5
171A
330
170A
100
AcDbEntity
  8
0
 62
     0
440
 16777216
370
    -2
100
AcDbLine
 10
158.4314007184226
 20
24.82275277481571
 30
0.0
 11
158.4314007184226
 21
25.1392433135265
 31
0.0
  0
SOLID
  5
171B
330
170A
100
AcDbEntity
  8
0
 62
     0
440
 16777216
100
AcDbTrace
 10
158.3480673850893
 20
27.05101352481574
 30
0.0
 11
158.514734051756
 21
27.05101352481574
 31
0.0
 12
158.4314007184226
 22
27.55101352481573
 32
0.0
 13
158.4314007184226
 23
27.55101352481573
 33
0.0
  0
SOLID
  5
171C
330
170A
100
AcDbEntity
  8
0
 62
     0
440
 16777216
100
AcDbTrace
 10
158.3480673850893
 20
24.82275277481571
 30
0.0
 11
158.514734051756
 21
24.82275277481571
 31
0.0
 12
158.4314007184226
 22
24.32275277481572
 32
0.0
 13
158.4314007184226
 23
24.32275277481572
 33
0.0
  0
MTEXT
  5
171D
330
170A
100
AcDbEntity
  8
0
 62
     0
440
 16777216
100
AcDbMText
 10
158.4314007184226
 20
25.93688314981575
 30
0.0
 40
0.7
 41
0.0
 46
0.0
 71
     5
 72
     1
  1
\A1;3{\H1.000000x;\S1#4;}
 73
     1
 44
1.0
  0
POINT
  5
171E
330
170A
100
AcDbEntity
  8
Defpoints
 62
     0
440
 16777216
100
AcDbPoint
 10
156.668730408109
 20
27.55101352481573
 30
0.0
  0
POINT
  5
171F
330
170A
100
AcDbEntity
  8
Defpoints
 62
     0
440
 16777216
100
AcDbPoint
 10
156.668730408109
 20
24.32275277481572
 30
0.0
  0
POINT
  5
1720
330
170A
100
AcDbEntity
  8
Defpoints
 62
     0
440
 16777216
100
AcDbPoint
 10
158.4314007184226
 20
24.32275277481572
 30
0.0
  0
ENDBLK
  5
170C
330
170A
100
AcDbEntity
  8
0
100
AcDbBlockEnd
  0
BLOCK
  5
1722
330
1721
100
AcDbEntity
  8
0
100
AcDbBlockBegin
  2
*D62
 70
     1
 10
0.0
 20
0.0
 30
0.0
  3
*D62
  1

  0
LINE
  5
1724
330
1721
100
AcDbEntity
  8
0
 62
     0
440
 16777216
370
    -2
100
AcDbLine
 10
153.5190600285593
 20
20.80101377481572
 30
0.0
 11
147.5995994616781
 21
20.80101377481572
 31
0.0
  0
LINE
  5
1725
330
1721
100
AcDbEntity
  8
0
 62
     0
440
 16777216
370
    -2
100
AcDbLine
 10
152.4187304081091
 20
61.30101227481573
 30
0.0
 11
147.5995994616781
 21
61.30101227481573
 31
0.0
  0
LINE
  5
1726
330
1721
100
AcDbEntity
  8
0
 62
     0
440
 16777216
370
    -2
100
AcDbLine
 10
147.8495994616781
 20
21.30101377481572
 30
0.0
 11
147.8495994616781
 21
40.25217946410631
 31
0.0
  0
LINE
  5
1727
330
1721
100
AcDbEntity
  8
0
 62
     0
440
 16777216
370
    -2
100
AcDbLine
 10
147.8495994616781
 20
60.80101227481573
 30
0.0
 11
147.8495994616781
 21
41.84984658552513
 31
0.0
  0
SOLID
  5
1728
330
1721
100
AcDbEntity
  8
0
 62
     0
440
 16777216
100
AcDbTrace
 10
147.7662661283448
 20
21.30101377481572
 30
0.0
 11
147.9329327950114
 21
21.30101377481572
 31
0.0
 12
147.8495994616781
 22
20.80101377481572
 32
0.0
 13
147.8495994616781
 23
20.80101377481572
 33
0.0
  0
SOLID
  5
1729
330
1721
100
AcDbEntity
  8
0
 62
     0
440
 16777216
100
AcDbTrace
 10
147.7662661283448
 20
60.80101227481573
 30
0.0
 11
147.9329327950114
 21
60.80101227481573
 31
0.0
 12
147.8495994616781
 22
61.30101227481573
 32
0.0
 13
147.8495994616781
 23
61.30101227481573
 33
0.0
  0
MTEXT
  5
172A
330
1721
100
AcDbEntity
  8
0
 62
     0
440
 16777216
100
AcDbMText
 10
147.8495994616781
 20
41.05101302481575
 30
0.0
 40
0.7
 41
0.0
 46
0.0
 71
     5
 72
     1
  1
\A1;40{\H1.000000x;\S1#2;}
 73
     1
 44
1.0
  0
POINT
  5
172B
330
1721
100
AcDbEntity
  8
Defpoints
 62
     0
440
 16777216
100
AcDbPoint
 10
153.7690600285593
 20
20.80101377481572
 30
0.0
  0
POINT
  5
172C
330
1721
100
AcDbEntity
  8
Defpoints
 62
     0
440
 16777216
100
AcDbPoint
 10
152.6687304081091
 20
61.30101227481573
 30
0.0000000000006056
  0
POINT
  5
172D
330
1721
100
AcDbEntity
  8
Defpoints
 62
     0
440
 16777216
100
AcDbPoint
 10
147.8495994616781
 20
61.30101227481573
 30
0.0
  0
ENDBLK
  5
1723
330
1721
100
AcDbEntity
  8
0
100
AcDbBlockEnd
  0
BLOCK
  5
172F
330
172E
100
AcDbEntity
  8
0
100
AcDbBlockBegin
  2
*D63
 70
     1
 10
0.0
 20
0.0
 30
0.0
  3
*D63
  1

  0
LINE
  5
1731
330
172E
100
AcDbEntity
  8
0
 62
     0
440
 16777216
370
    -2
100
AcDbLine
 10
156.9187304081091
 20
61.30101227481574
 30
0.0
 11
160.194939435801
 21
61.30101227481574
 31
0.0
  0
LINE
  5
1732
330
172E
100
AcDbEntity
  8
0
 62
     0
440
 16777216
370
    -2
100
AcDbLine
 10
156.9187304081091
 20
47.82227819755015
 30
0.0
 11
160.194939435801
 21
47.82227819755015
 31
0.0
  0
LINE
  5
1733
330
172E
100
AcDbEntity
  8
0
 62
     0
440
 16777216
370
    -2
100
AcDbLine
 10
159.944939435801
 20
60.80101227481573
 30
0.0
 11
159.944939435801
 21
55.3607175417764
 31
0.0
  0
LINE
  5
1734
330
172E
100
AcDbEntity
  8
0
 62
     0
440
 16777216
370
    -2
100
AcDbLine
 10
159.944939435801
 20
48.32227819755015
 30
0.0
 11
159.944939435801
 21
53.7625729305895
 31
0.0
  0
SOLID
  5
1735
330
172E
100
AcDbEntity
  8
0
 62
     0
440
 16777216
100
AcDbTrace
 10
159.8616061024677
 20
60.80101227481573
 30
0.0
 11
160.0282727691344
 21
60.80101227481573
 31
0.0
 12
159.944939435801
 22
61.30101227481574
 32
0.0
 13
159.944939435801
 23
61.30101227481574
 33
0.0
  0
SOLID
  5
1736
330
172E
100
AcDbEntity
  8
0
 62
     0
440
 16777216
100
AcDbTrace
 10
159.8616061024677
 20
48.32227819755015
 30
0.0
 11
160.0282727691344
 21
48.32227819755015
 31
0.0
 12
159.944939435801
 22
47.82227819755015
 32
0.0
 13
159.944939435801
 23
47.82227819755015
 33
0.0
  0
MTEXT
  5
1737
330
172E
100
AcDbEntity
  8
0
 62
     0
440
 16777216
100
AcDbMText
 10
159.944939435801
 20
54.56164523618298
 30
0.0
 40
0.7
 41
0.0
 46
0.0
 71
     5
 72
     1
  1
\A1;13{\H1.000000x;\S1#2;}
 73
     1
 44
1.0
  0
POINT
  5
1738
330
172E
100
AcDbEntity
  8
Defpoints
 62
     0
440
 16777216
100
AcDbPoint
 10
156.6687304081091
 20
61.30101227481574
 30
0.0000000000006173
  0
POINT
  5
1739
330
172E
100
AcDbEntity
  8
Defpoints
 62
     0
440
 16777216
100
AcDbPoint
 10
156.6687304081091
 20
47.82227819755015
 30
0.0
  0
POINT
  5
173A
330
172E
100
AcDbEntity
  8
Defpoints
 62
     0
440
 16777216
100
AcDbPoint
 10
159.944939435801
 20
47.82227819755015
 30
0.0
  0
ENDBLK
  5
1730
330
172E
100
AcDbEntity
  8
0
100
AcDbBlockEnd
  0
BLOCK
  5
173E
330
173D
100
AcDbEntity
  8
0
100
AcDbBlockBegin
  2
*D64
 70
     1
 10
0.0
 20
0.0
 30
0.0
  3
*D64
  1

  0
LINE
  5
173F
330
173D
100
AcDbEntity
  8
0
 62
     0
440
 16777216
370
    -2
100
AcDbLine
 10
156.918730408109
 20
27.55101352481573
 30
0.0
 11
158.6814007184226
 21
27.55101352481573
 31
0.0
  0
LINE
  5
1740
330
173D
100
AcDbEntity
  8
0
 62
     0
440
 16777216
370
    -2
100
AcDbLine
 10
156.918730408109
 20
24.32275277481572
 30
0.0
 11
158.6814007184226
 21
24.32275277481572
 31
0.0
  0
LINE
  5
1741
330
173D
100
AcDbEntity
  8
0
 62
     0
440
 16777216
370
    -2
100
AcDbLine
 10
158.4314007184226
 20
27.05101352481574
 30
0.0
 11
158.4314007184226
 21
26.73452298610495
 31
0.0
  0
LINE
  5
1742
330
173D
100
AcDbEntity
  8
0
 62
     0
440
 16777216
370
    -2
100
AcDbLine
 10
158.4314007184226
 20
24.82275277481571
 30
0.0
 11
158.4314007184226
 21
25.1392433135265
 31
0.0
  0
SOLID
  5
1743
330
173D
100
AcDbEntity
  8
0
 62
     0
440
 16777216
100
AcDbTrace
 10
158.3480673850893
 20
27.05101352481574
 30
0.0
 11
158.514734051756
 21
27.05101352481574
 31
0.0
 12
158.4314007184226
 22
27.55101352481573
 32
0.0
 13
158.4314007184226
 23
27.55101352481573
 33
0.0
  0
SOLID
  5
1744
330
173D
100
AcDbEntity
  8
0
 62
     0
440
 16777216
100
AcDbTrace
 10
158.3480673850893
 20
24.82275277481571
 30
0.0
 11
158.514734051756
 21
24.82275277481571
 31
0.0
 12
158.4314007184226
 22
24.32275277481572
 32
0.0
 13
158.4314007184226
 23
24.32275277481572
 33
0.0
  0
MTEXT
  5
1745
330
173D
100
AcDbEntity
  8
0
 62
     0
440
 16777216
100
AcDbMText
 10
158.4314007184226
 20
25.93688314981575
 30
0.0
 40
0.7
 41
0.0
 46
0.0
 71
     5
 72
     1
  1
\A1;3{\H1.000000x;\S1#4;}
 73
     1
 44
1.0
  0
POINT
  5
1746
330
173D
100
AcDbEntity
  8
Defpoints
 62
     0
440
 16777216
100
AcDbPoint
 10
156.668730408109
 20
27.55101352481573
 30
0.0
  0
POINT
  5
1747
330
173D
100
AcDbEntity
  8
Defpoints
 62
     0
440
 16777216
100
AcDbPoint
 10
156.668730408109
 20
24.32275277481572
 30
0.0
  0
POINT
  5
1748
330
173D
100
AcDbEntity
  8
Defpoints
 62
     0
440
 16777216
100
AcDbPoint
 10
158.4314007184226
 20
24.32275277481572
 30
0.0
  0
ENDBLK
  5
1749
330
173D
100
AcDbEntity
  8
0
100
AcDbBlockEnd
  0
BLOCK
  5
174B
330
174A
100
AcDbEntity
  8
0
100
AcDbBlockBegin
  2
*D65
 70
     1
 10
0.0
 20
0.0
 30
0.0
  3
*D65
  1

  0
LINE
  5
174C
330
174A
100
AcDbEntity
  8
0
 62
     0
440
 16777216
370
    -2
100
AcDbLine
 10
153.5190600285593
 20
20.80101377481572
 30
0.0
 11
147.5995994616781
 21
20.80101377481572
 31
0.0
  0
LINE
  5
174D
330
174A
100
AcDbEntity
  8
0
 62
     0
440
 16777216
370
    -2
100
AcDbLine
 10
152.4187304081091
 20
61.30101227481573
 30
0.0
 11
147.5995994616781
 21
61.30101227481573
 31
0.0
  0
LINE
  5
174E
330
174A
100
AcDbEntity
  8
0
 62
     0
440
 16777216
370
    -2
100
AcDbLine
 10
147.8495994616781
 20
21.30101377481572
 30
0.0
 11
147.8495994616781
 21
40.25217946410631
 31
0.0
  0
LINE
  5
174F
330
174A
100
AcDbEntity
  8
0
 62
     0
440
 16777216
370
    -2
100
AcDbLine
 10
147.8495994616781
 20
60.80101227481573
 30
0.0
 11
147.8495994616781
 21
41.84984658552513
 31
0.0
  0
SOLID
  5
1750
330
174A
100
AcDbEntity
  8
0
 62
     0
440
 16777216
100
AcDbTrace
 10
147.7662661283448
 20
21.30101377481572
 30
0.0
 11
147.9329327950114
 21
21.30101377481572
 31
0.0
 12
147.8495994616781
 22
20.80101377481572
 32
0.0
 13
147.8495994616781
 23
20.80101377481572
 33
0.0
  0
SOLID
  5
1751
330
174A
100
AcDbEntity
  8
0
 62
     0
440
 16777216
100
AcDbTrace
 10
147.7662661283448
 20
60.80101227481573
 30
0.0
 11
147.9329327950114
 21
60.80101227481573
 31
0.0
 12
147.8495994616781
 22
61.30101227481573
 32
0.0
 13
147.8495994616781
 23
61.30101227481573
 33
0.0
  0
MTEXT
  5
1752
330
174A
100
AcDbEntity
  8
0
 62
     0
440
 16777216
100
AcDbMText
 10
147.8495994616781
 20
41.05101302481575
 30
0.0
 40
0.7
 41
0.0
 46
0.0
 71
     5
 72
     1
  1
\A1;40{\H1.000000x;\S1#2;}
 73
     1
 44
1.0
  0
POINT
  5
1753
330
174A
100
AcDbEntity
  8
Defpoints
 62
     0
440
 16777216
100
AcDbPoint
 10
153.7690600285593
 20
20.80101377481572
 30
0.0
  0
POINT
  5
1754
330
174A
100
AcDbEntity
  8
Defpoints
 62
     0
440
 16777216
100
AcDbPoint
 10
152.6687304081091
 20
61.30101227481573
 30
0.0000000000006056
  0
POINT
  5
1755
330
174A
100
AcDbEntity
  8
Defpoints
 62
     0
440
 16777216
100
AcDbPoint
 10
147.8495994616781
 20
61.30101227481573
 30
0.0
  0
ENDBLK
  5
1756
330
174A
100
AcDbEntity
  8
0
100
AcDbBlockEnd
  0
BLOCK
  5
1758
330
1757
100
AcDbEntity
  8
0
100
AcDbBlockBegin
  2
*D66
 70
     1
 10
0.0
 20
0.0
 30
0.0
  3
*D66
  1

  0
LINE
  5
1759
330
1757
100
AcDbEntity
  8
0
 62
     0
440
 16777216
370
    -2
100
AcDbLine
 10
156.9187304081091
 20
61.30101227481574
 30
0.0
 11
160.194939435801
 21
61.30101227481574
 31
0.0
  0
LINE
  5
175A
330
1757
100
AcDbEntity
  8
0
 62
     0
440
 16777216
370
    -2
100
AcDbLine
 10
156.9187304081091
 20
47.82227819755015
 30
0.0
 11
160.194939435801
 21
47.82227819755015
 31
0.0
  0
LINE
  5
175B
330
1757
100
AcDbEntity
  8
0
 62
     0
440
 16777216
370
    -2
100
AcDbLine
 10
159.944939435801
 20
60.80101227481573
 30
0.0
 11
159.944939435801
 21
55.3607175417764
 31
0.0
  0
LINE
  5
175C
330
1757
100
AcDbEntity
  8
0
 62
     0
440
 16777216
370
    -2
100
AcDbLine
 10
159.944939435801
 20
48.32227819755015
 30
0.0
 11
159.944939435801
 21
53.7625729305895
 31
0.0
  0
SOLID
  5
175D
330
1757
100
AcDbEntity
  8
0
 62
     0
440
 16777216
100
AcDbTrace
 10
159.8616061024677
 20
60.80101227481573
 30
0.0
 11
160.0282727691344
 21
60.80101227481573
 31
0.0
 12
159.944939435801
 22
61.30101227481574
 32
0.0
 13
159.944939435801
 23
61.30101227481574
 33
0.0
  0
SOLID
  5
175E
330
1757
100
AcDbEntity
  8
0
 62
     0
440
 16777216
100
AcDbTrace
 10
159.8616061024677
 20
48.32227819755015
 30
0.0
 11
160.0282727691344
 21
48.32227819755015
 31
0.0
 12
159.944939435801
 22
47.82227819755015
 32
0.0
 13
159.944939435801
 23
47.82227819755015
 33
0.0
  0
MTEXT
  5
175F
330
1757
100
AcDbEntity
  8
0
 62
     0
440
 16777216
100
AcDbMText
 10
159.944939435801
 20
54.56164523618298
 30
0.0
 40
0.7
 41
0.0
 46
0.0
 71
     5
 72
     1
  1
\A1;13{\H1.000000x;\S1#2;}
 73
     1
 44
1.0
  0
POINT
  5
1760
330
1757
100
AcDbEntity
  8
Defpoints
 62
     0
440
 16777216
100
AcDbPoint
 10
156.6687304081091
 20
61.30101227481574
 30
0.0000000000006173
  0
POINT
  5
1761
330
1757
100
AcDbEntity
  8
Defpoints
 62
     0
440
 16777216
100
AcDbPoint
 10
156.6687304081091
 20
47.82227819755015
 30
0.0
  0
POINT
  5
1762
330
1757
100
AcDbEntity
  8
Defpoints
 62
     0
440
 16777216
100
AcDbPoint
 10
159.944939435801
 20
47.82227819755015
 30
0.0
  0
ENDBLK
  5
1763
330
1757
100
AcDbEntity
  8
0
100
AcDbBlockEnd
  0
BLOCK
  5
1A1F
330
1A1E
100
AcDbEntity
  8
0
100
AcDbBlockBegin
  2
*D68
 70
     1
 10
0.0
 20
0.0
 30
0.0
  3
*D68
  1

  0
LINE
  5
1A2B
330
1A1E
100
AcDbEntity
  8
0
 62
     0
440
 16777216
370
    -2
100
AcDbLine
 10
145.9776958673846
 20
19.0252232657359
 30
0.0
 11
147.7403661776982
 21
19.0252232657359
 31
0.0
  0
LINE
  5
1A2C
330
1A1E
100
AcDbEntity
  8
0
 62
     0
440
 16777216
370
    -2
100
AcDbLine
 10
145.9776958673846
 20
15.79696251573589
 30
0.0
 11
147.7403661776982
 21
15.79696251573589
 31
0.0
  0
LINE
  5
1A2D
330
1A1E
100
AcDbEntity
  8
0
 62
     0
440
 16777216
370
    -2
100
AcDbLine
 10
147.4903661776981
 20
18.52522326573591
 30
0.0
 11
147.4903661776981
 21
18.20873272702512
 31
0.0
  0
LINE
  5
1A2E
330
1A1E
100
AcDbEntity
  8
0
 62
     0
440
 16777216
370
    -2
100
AcDbLine
 10
147.4903661776981
 20
16.29696251573589
 30
0.0
 11
147.4903661776981
 21
16.61345305444667
 31
0.0
  0
SOLID
  5
1A2F
330
1A1E
100
AcDbEntity
  8
0
 62
     0
440
 16777216
100
AcDbTrace
 10
147.4070328443648
 20
18.52522326573591
 30
0.0
 11
147.5736995110315
 21
18.52522326573591
 31
0.0
 12
147.4903661776981
 22
19.0252232657359
 32
0.0
 13
147.4903661776981
 23
19.0252232657359
 33
0.0
  0
SOLID
  5
1A30
330
1A1E
100
AcDbEntity
  8
0
 62
     0
440
 16777216
100
AcDbTrace
 10
147.4070328443648
 20
16.29696251573589
 30
0.0
 11
147.5736995110315
 21
16.29696251573589
 31
0.0
 12
147.4903661776981
 22
15.79696251573589
 32
0.0
 13
147.4903661776981
 23
15.79696251573589
 33
0.0
  0
MTEXT
  5
1A31
330
1A1E
100
AcDbEntity
  8
0
 62
     0
440
 16777216
100
AcDbMText
 10
147.4903661776981
 20
17.41109289073592
 30
0.0
 40
0.7
 41
0.0
 46
0.0
 71
     5
 72
     1
  1
\A1;3{\H1.000000x;\S1#4;}
 73
     1
 44
1.0
  0
POINT
  5
1A32
330
1A1E
100
AcDbEntity
  8
Defpoints
 62
     0
440
 16777216
100
AcDbPoint
 10
145.7276958673846
 20
19.0252232657359
 30
0.0
  0
POINT
  5
1A33
330
1A1E
100
AcDbEntity
  8
Defpoints
 62
     0
440
 16777216
100
AcDbPoint
 10
145.7276958673846
 20
15.79696251573589
 30
0.0
  0
POINT
  5
1A34
330
1A1E
100
AcDbEntity
  8
Defpoints
 62
     0
440
 16777216
100
AcDbPoint
 10
147.4903661776981
 20
15.79696251573589
 30
0.0
  0
ENDBLK
  5
1A20
330
1A1E
100
AcDbEntity
  8
0
100
AcDbBlockEnd
  0
BLOCK
  5
1A36
330
1A35
100
AcDbEntity
  8
0
100
AcDbBlockBegin
  2
*D69
 70
     1
 10
0.0
 20
0.0
 30
0.0
  3
*D69
  1

  0
LINE
  5
1A4F
330
1A35
100
AcDbEntity
  8
0
 62
     0
440
 16777216
370
    -2
100
AcDbLine
 10
142.5780254878349
 20
12.27522351573589
 30
0.0
 11
136.6585649209537
 21
12.27522351573589
 31
0.0
  0
LINE
  5
1A50
330
1A35
100
AcDbEntity
  8
0
 62
     0
440
 16777216
370
    -2
100
AcDbLine
 10
141.4776958673847
 20
52.7752220157359
 30
0.0
 11
136.6585649209537
 21
52.7752220157359
 31
0.0
  0
LINE
  5
1A51
330
1A35
100
AcDbEntity
  8
0
 62
     0
440
 16777216
370
    -2
100
AcDbLine
 10
136.9085649209537
 20
12.77522351573589
 30
0.0
 11
136.9085649209537
 21
31.72638920502648
 31
0.0
  0
LINE
  5
1A52
330
1A35
100
AcDbEntity
  8
0
 62
     0
440
 16777216
370
    -2
100
AcDbLine
 10
136.9085649209537
 20
52.27522201573591
 30
0.0
 11
136.9085649209537
 21
33.32405632644531
 31
0.0
  0
SOLID
  5
1A53
330
1A35
100
AcDbEntity
  8
0
 62
     0
440
 16777216
100
AcDbTrace
 10
136.8252315876203
 20
12.77522351573589
 30
0.0
 11
136.991898254287
 21
12.77522351573589
 31
0.0
 12
136.9085649209537
 22
12.27522351573589
 32
0.0
 13
136.9085649209537
 23
12.27522351573589
 33
0.0
  0
SOLID
  5
1A54
330
1A35
100
AcDbEntity
  8
0
 62
     0
440
 16777216
100
AcDbTrace
 10
136.8252315876203
 20
52.27522201573591
 30
0.0
 11
136.991898254287
 21
52.27522201573591
 31
0.0
 12
136.9085649209537
 22
52.7752220157359
 32
0.0
 13
136.9085649209537
 23
52.7752220157359
 33
0.0
  0
MTEXT
  5
1A55
330
1A35
100
AcDbEntity
  8
0
 62
     0
440
 16777216
100
AcDbMText
 10
136.9085649209537
 20
32.52522276573592
 30
0.0
 40
0.7
 41
0.0
 46
0.0
 71
     5
 72
     1
  1
\A1;40{\H1.000000x;\S1#2;}
 73
     1
 44
1.0
  0
POINT
  5
1A56
330
1A35
100
AcDbEntity
  8
Defpoints
 62
     0
440
 16777216
100
AcDbPoint
 10
142.8280254878349
 20
12.27522351573589
 30
0.0
  0
POINT
  5
1A57
330
1A35
100
AcDbEntity
  8
Defpoints
 62
     0
440
 16777216
100
AcDbPoint
 10
141.7276958673847
 20
52.7752220157359
 30
0.0000000000006056
  0
POINT
  5
1A58
330
1A35
100
AcDbEntity
  8
Defpoints
 62
     0
440
 16777216
100
AcDbPoint
 10
136.9085649209537
 20
52.7752220157359
 30
0.0
  0
ENDBLK
  5
1A37
330
1A35
100
AcDbEntity
  8
0
100
AcDbBlockEnd
  0
BLOCK
  5
1A43
330
1A42
100
AcDbEntity
  8
0
100
AcDbBlockBegin
  2
*D70
 70
     1
 10
0.0
 20
0.0
 30
0.0
  3
*D70
  1

  0
LINE
  5
1A45
330
1A42
100
AcDbEntity
  8
0
 62
     0
440
 16777216
370
    -2
100
AcDbLine
 10
145.9776958673847
 20
52.77522201573591
 30
0.0
 11
149.2539048950766
 21
52.77522201573591
 31
0.0
  0
LINE
  5
1A46
330
1A42
100
AcDbEntity
  8
0
 62
     0
440
 16777216
370
    -2
100
AcDbLine
 10
145.9776958673847
 20
39.29648793847033
 30
0.0
 11
149.2539048950766
 21
39.29648793847033
 31
0.0
  0
LINE
  5
1A47
330
1A42
100
AcDbEntity
  8
0
 62
     0
440
 16777216
370
    -2
100
AcDbLine
 10
149.0039048950766
 20
52.27522201573592
 30
0.0
 11
149.0039048950766
 21
46.83492728269657
 31
0.0
  0
LINE
  5
1A48
330
1A42
100
AcDbEntity
  8
0
 62
     0
440
 16777216
370
    -2
100
AcDbLine
 10
149.0039048950766
 20
39.79648793847033
 30
0.0
 11
149.0039048950766
 21
45.23678267150967
 31
0.0
  0
SOLID
  5
1A49
330
1A42
100
AcDbEntity
  8
0
 62
     0
440
 16777216
100
AcDbTrace
 10
148.9205715617432
 20
52.27522201573592
 30
0.0
 11
149.0872382284099
 21
52.27522201573592
 31
0.0
 12
149.0039048950766
 22
52.77522201573591
 32
0.0
 13
149.0039048950766
 23
52.77522201573591
 33
0.0
  0
SOLID
  5
1A4A
330
1A42
100
AcDbEntity
  8
0
 62
     0
440
 16777216
100
AcDbTrace
 10
148.9205715617432
 20
39.79648793847033
 30
0.0
 11
149.0872382284099
 21
39.79648793847033
 31
0.0
 12
149.0039048950766
 22
39.29648793847033
 32
0.0
 13
149.0039048950766
 23
39.29648793847033
 33
0.0
  0
MTEXT
  5
1A4B
330
1A42
100
AcDbEntity
  8
0
 62
     0
440
 16777216
100
AcDbMText
 10
149.0039048950766
 20
46.03585497710315
 30
0.0
 40
0.7
 41
0.0
 46
0.0
 71
     5
 72
     1
  1
\A1;13{\H1.000000x;\S1#2;}
 73
     1
 44
1.0
  0
POINT
  5
1A4C
330
1A42
100
AcDbEntity
  8
Defpoints
 62
     0
440
 16777216
100
AcDbPoint
 10
145.7276958673847
 20
52.77522201573591
 30
0.0000000000006173
  0
POINT
  5
1A4D
330
1A42
100
AcDbEntity
  8
Defpoints
 62
     0
440
 16777216
100
AcDbPoint
 10
145.7276958673847
 20
39.29648793847033
 30
0.0
  0
POINT
  5
1A4E
330
1A42
100
AcDbEntity
  8
Defpoints
 62
     0
440
 16777216
100
AcDbPoint
 10
149.0039048950766
 20
39.29648793847033
 30
0.0
  0
ENDBLK
  5
1A44
330
1A42
100
AcDbEntity
  8
0
100
AcDbBlockEnd
  0
ENDSEC
  0
SECTION
  2
ENTITIES
  0
LINE
  5
18CB
330
1F
100
AcDbEntity
  8
0
100
AcDbLine
 10
99.3358079225867
 20
12.02522351573591
 30
0.0
 11
99.3358079225867
 21
10.697769087199
 31
0.0
  0
LINE
  5
18CC
330
1F
100
AcDbEntity
  8
0
100
AcDbLine
 10
100.3358079225867
 20
12.02522351573592
 30
0.0
 11
100.3358079225867
 21
10.697769087199
 31
0.0
  0
LINE
  5
18CD
330
1F
100
AcDbEntity
  8
0
100
AcDbLine
 10
98.83580792258669
 20
10.94776908719899
 30
0.0
 11
98.3358079225867
 21
10.94776908719899
 31
0.0
  0
LINE
  5
18CE
330
1F
100
AcDbEntity
  8
0
100
AcDbLine
 10
100.8358079225867
 20
10.94776908719899
 30
0.0
 11
101.3358079225867
 21
10.94776908719899
 31
0.0
  0
SOLID
  5
18CF
330
1F
100
AcDbEntity
  8
0
100
AcDbTrace
 10
98.83580792258669
 20
11.03110242053233
 30
0.0
 11
98.83580792258669
 21
10.86443575386566
 31
0.0
 12
99.3358079225867
 22
10.94776908719899
 32
0.0
 13
99.3358079225867
 23
10.94776908719899
 33
0.0
  0
SOLID
  5
18D0
330
1F
100
AcDbEntity
  8
0
100
AcDbTrace
 10
100.8358079225867
 20
11.03110242053233
 30
0.0
 11
100.8358079225867
 21
10.86443575386566
 31
0.0
 12
100.3358079225867
 22
10.94776908719899
 32
0.0
 13
100.3358079225867
 23
10.94776908719899
 33
0.0
  0
MTEXT
  5
18D1
330
1F
100
AcDbEntity
  8
0
100
AcDbMText
 10
99.83580792258671
 20
10.94776908719899
 30
0.0
 40
0.7
 41
0.0
 46
0.0
 71
     5
 72
     1
  1
\A1;1
 73
     1
 44
1.0
  0
LINE
  5
18D2
330
1F
100
AcDbEntity
  8
0
100
AcDbLine
 10
101.8358079225867
 20
52.77522201573591
 30
0.0
 11
104.559414570901
 21
52.77522201573591
 31
0.0
  0
LINE
  5
18D3
330
1F
100
AcDbEntity
  8
0
100
AcDbLine
 10
100.5858079225867
 20
12.27522351573592
 30
0.0
 11
104.559414570901
 21
12.27522351573592
 31
0.0
  0
LINE
  5
18D4
330
1F
100
AcDbEntity
  8
0
100
AcDbLine
 10
104.3094145709011
 20
52.27522201573592
 30
0.0
 11
104.3094145709011
 21
33.32405632644533
 31
0.0
  0
LINE
  5
18D5
330
1F
100
AcDbEntity
  8
0
100
AcDbLine
 10
104.3094145709011
 20
12.77522351573592
 30
0.0
 11
104.3094145709011
 21
31.72638920502649
 31
0.0
  0
SOLID
  5
18D6
330
1F
100
AcDbEntity
  8
0
100
AcDbTrace
 10
104.2260812375678
 20
52.27522201573592
 30
0.0
 11
104.3927479042344
 21
52.27522201573592
 31
0.0
 12
104.3094145709011
 22
52.77522201573591
 32
0.0
 13
104.3094145709011
 23
52.77522201573591
 33
0.0
  0
SOLID
  5
18D7
330
1F
100
AcDbEntity
  8
0
100
AcDbTrace
 10
104.2260812375678
 20
12.77522351573592
 30
0.0
 11
104.3927479042344
 21
12.77522351573592
 31
0.0
 12
104.3094145709011
 22
12.27522351573592
 32
0.0
 13
104.3094145709011
 23
12.27522351573592
 33
0.0
  0
MTEXT
  5
18D8
330
1F
100
AcDbEntity
  8
0
100
AcDbMText
 10
104.3094145709011
 20
32.52522276573593
 30
0.0
 40
0.7
 41
0.0
 46
0.0
 71
     5
 72
     1
  1
\A1;40{\H1.000000x;\S1#2;}
 73
     1
 44
1.0
  0
LINE
  5
18D9
330
1F
100
AcDbEntity
  8
0
100
AcDbLine
 10
98.0858079225867
 20
53.02522201573591
 30
0.0
 11
98.0858079225867
 21
55.02703527530163
 31
0.0
  0
LINE
  5
18DA
330
1F
100
AcDbEntity
  8
0
100
AcDbLine
 10
101.5858079225867
 20
53.02522201573591
 30
0.0
 11
101.5858079225867
 21
55.02703527530163
 31
0.0
  0
LINE
  5
18DB
330
1F
100
AcDbEntity
  8
0
100
AcDbLine
 10
98.58580792258671
 20
54.77703527530162
 30
0.0
 11
99.01699937324611
 21
54.77703527530162
 31
0.0
  0
LINE
  5
18DC
330
1F
100
AcDbEntity
  8
0
100
AcDbLine
 10
101.0858079225867
 20
54.77703527530162
 30
0.0
 11
100.6546164719273
 21
54.77703527530162
 31
0.0
  0
SOLID
  5
18DD
330
1F
100
AcDbEntity
  8
0
100
AcDbTrace
 10
98.58580792258671
 20
54.86036860863496
 30
0.0
 11
98.58580792258671
 21
54.69370194196828
 31
0.0
 12
98.0858079225867
 22
54.77703527530162
 32
0.0
 13
98.0858079225867
 23
54.77703527530162
 33
0.0
  0
SOLID
  5
18DE
330
1F
100
AcDbEntity
  8
0
100
AcDbTrace
 10
101.0858079225867
 20
54.86036860863496
 30
0.0
 11
101.0858079225867
 21
54.69370194196828
 31
0.0
 12
101.5858079225867
 22
54.77703527530162
 32
0.0
 13
101.5858079225867
 23
54.77703527530162
 33
0.0
  0
MTEXT
  5
18DF
330
1F
100
AcDbEntity
  8
0
100
AcDbMText
 10
99.83580792258671
 20
54.77703527530162
 30
0.0
 40
0.7
 41
0.0
 46
0.0
 71
     5
 72
     1
  1
\A1;3{\H1.000000x;\S1#2;}
 73
     1
 44
1.0
  0
LINE
  5
18E0
330
1F
100
AcDbEntity
  8
0
100
AcDbLine
 10
97.83580792258669
 20
52.77522201573591
 30
0.0
 11
95.11682163346561
 21
52.77522201573591
 31
0.0
  0
LINE
  5
18E1
330
1F
100
AcDbEntity
  8
0
100
AcDbLine
 10
97.83580792258669
 20
43.6773962657359
 30
0.0
 11
95.11682163346561
 21
43.6773962657359
 31
0.0
  0
LINE
  5
18E2
330
1F
100
AcDbEntity
  8
0
100
AcDbLine
 10
95.3668216334656
 20
52.27522201573592
 30
0.0
 11
95.3668216334656
 21
49.03111132354627
 31
0.0
  0
LINE
  5
18E3
330
1F
100
AcDbEntity
  8
0
100
AcDbLine
 10
95.3668216334656
 20
44.17739626573591
 30
0.0
 11
95.3668216334656
 21
47.42150695792553
 31
0.0
  0
SOLID
  5
18E4
330
1F
100
AcDbEntity
  8
0
100
AcDbTrace
 10
95.28348830013218
 20
52.27522201573592
 30
0.0
 11
95.45015496679889
 21
52.27522201573592
 31
0.0
 12
95.3668216334656
 22
52.77522201573591
 32
0.0
 13
95.3668216334656
 23
52.77522201573591
 33
0.0
  0
SOLID
  5
18E5
330
1F
100
AcDbEntity
  8
0
100
AcDbTrace
 10
95.28348830013218
 20
44.17739626573591
 30
0.0
 11
95.45015496679889
 21
44.17739626573591
 31
0.0
 12
95.3668216334656
 22
43.6773962657359
 32
0.0
 13
95.3668216334656
 23
43.6773962657359
 33
0.0
  0
MTEXT
  5
18E6
330
1F
100
AcDbEntity
  8
0
100
AcDbMText
 10
95.3668216334656
 20
48.22630914073594
 30
0.0
 40
0.7
 41
0.0
 46
0.0
 71
     5
 72
     1
  1
\A1;9{\H1.000000x;\S1#8;}
 73
     1
 44
1.0
  0
LINE
  5
1903
330
1F
100
AcDbEntity
  8
0
100
AcDbLine
 10
100.3358079225867
 20
12.27522351573592
 30
0.0000000000004846
 11
99.3358079225867
 21
12.27522351573591
 31
0.0000000000004817
  0
ARC
  5
1987
330
1F
100
AcDbEntity
  8
0
100
AcDbCircle
 10
99.83580792258671
 20
45.48319317148196
 30
0.0
 40
2.514637640854443
100
AcDbArc
 50
225.8990009655384
 51
314.1009990344617
  0
LINE
  5
1988
330
1F
100
AcDbEntity
  8
0
100
AcDbLine
 10
98.78281876633668
 20
14.47631039073592
 30
0.00000000000048
 11
100.8887970788366
 21
14.47631039073592
 31
0.0000000000004862
  0
LINE
  5
1989
330
1F
100
AcDbEntity
  8
0
100
AcDbLine
 10
98.78281876633678
 20
16.38391901573594
 30
0.00000000000048
 11
100.8887970788366
 21
16.38391901573594
 31
0.0000000000004862
  0
LINE
  5
198A
330
1F
100
AcDbEntity
  8
0
100
AcDbLine
 10
98.8928731100867
 20
16.97087551573592
 30
0.0000000000004804
 11
100.7787427350866
 21
16.97087551573592
 31
0.0000000000004859
  0
LINE
  5
198B
330
1F
100
AcDbEntity
  8
0
100
AcDbLine
 10
98.68450355258667
 20
39.77697956187753
 30
0.0000000000004798
 11
100.9871122925867
 21
39.77697956187753
 31
0.0000000000004865
  0
LINE
  5
198C
330
1F
100
AcDbEntity
  8
0
100
AcDbLine
 10
98.68450355258667
 20
39.88703390562756
 30
0.0000000000004798
 11
100.9871122925867
 21
39.88703390562756
 31
0.0000000000004865
  0
LINE
  5
198D
330
1F
100
AcDbEntity
  8
0
100
AcDbLine
 10
100.9871122925867
 20
40.29056649937754
 30
0.0000000000004865
 11
98.68450355258667
 21
40.29056649937754
 31
0.0000000000004798
  0
LINE
  5
198E
330
1F
100
AcDbEntity
  8
0
100
AcDbLine
 10
98.68450355258667
 20
40.40062084312753
 30
0.0000000000004798
 11
100.9871122925867
 21
40.40062084312753
 31
0.0000000000004865
  0
LINE
  5
198F
330
1F
100
AcDbEntity
  8
0
100
AcDbLine
 10
98.57444920883668
 20
42.96855553062752
 30
0.0000000000004794
 11
101.0971666363366
 21
42.96855553062751
 31
0.0000000000004868
  0
ARC
  5
1990
330
1F
100
AcDbEntity
  8
0
100
AcDbCircle
 10
117.698571893933
 20
35.16249800296076
 30
0.0
 40
19.63206611910169
100
AcDbArc
 50
166.6198700463255
 51
168.6750244069622
  0
ARC
  5
1991
330
1F
100
AcDbEntity
  8
0
100
AcDbCircle
 10
106.9030253182733
 20
37.37872939747821
 30
0.0
 40
8.611672530843762
100
AcDbArc
 50
169.0284439419612
 51
173.7073940070341
  0
ARC
  5
1992
330
1F
100
AcDbEntity
  8
0
100
AcDbCircle
 10
114.3337766402841
 20
36.56568085099058
 30
0.0
 40
16.08677064834462
100
AcDbArc
 50
173.7298510808923
 51
176.2391687936388
  0
ARC
  5
1993
330
1F
100
AcDbEntity
  8
0
100
AcDbCircle
 10
152.0209460883923
 20
33.9028527648921
 30
0.0
 40
53.86776004402091
100
AcDbArc
 50
176.0422615329733
 51
179.0390443439213
  0
ARC
  5
1994
330
1F
100
AcDbEntity
  8
0
100
AcDbCircle
 10
135.9132872717569
 20
34.2585740785199
 30
0.0
 40
37.75649772522078
100
AcDbArc
 50
179.1688351813423
 51
182.371096450124
  0
ARC
  5
1995
330
1F
100
AcDbEntity
  8
0
100
AcDbCircle
 10
158.5829079855455
 20
35.1571400497094
 30
0.0
 40
60.44389776443448
100
AcDbArc
 50
182.3331015864675
 51
183.6675587699876
  0
ARC
  5
1996
330
1F
100
AcDbEntity
  8
0
100
AcDbCircle
 10
422.5505037518879
 20
53.10280265253267
 30
0.0
 40
325.0204340650973
100
AcDbArc
 50
183.8480070162467
 51
184.3446184140077
  0
ARC
  5
1997
330
1F
100
AcDbEntity
  8
0
100
AcDbCircle
 10
505.1609792964848
 20
54.98030446419271
 30
0.0
 40
407.5593559476343
100
AcDbArc
 50
183.7280010351487
 51
184.5199474869456
  0
ARC
  5
1998
330
1F
100
AcDbEntity
  8
0
100
AcDbCircle
 10
48.306815006117
 20
19.03298834241902
 30
0.0
 40
50.70711917253327
100
AcDbArc
 50
2.738594672702104
 51
4.330787853390178
  0
ARC
  5
1999
330
1F
100
AcDbEntity
  8
0
100
AcDbCircle
 10
75.36923817146538
 20
20.23314146245318
 30
0.0
 40
23.61844908109382
100
AcDbArc
 50
357.8459957453631
 51
2.967213875177835
  0
ARC
  5
199A
330
1F
100
AcDbEntity
  8
0
100
AcDbCircle
 10
92.5076751922286
 20
19.6103248943098
 30
0.0
 40
6.468749618671409
100
AcDbArc
 50
351.4274577705465
 51
357.6530640205962
  0
ARC
  5
199B
330
1F
100
AcDbEntity
  8
0
100
AcDbCircle
 10
88.25712138229931
 20
20.25431132504248
 30
0.0
 40
10.76780998931879
100
AcDbArc
 50
347.662296235193
 51
351.4104416599274
  0
ARC
  5
199C
330
1F
100
AcDbEntity
  8
0
100
AcDbCircle
 10
79.65559622577029
 20
21.98861474164177
 30
0.0
 40
19.54178686861137
100
AcDbArc
 50
346.0100474433692
 51
348.0835238609838
  0
ARC
  5
199D
330
1F
100
AcDbEntity
  8
0
100
AcDbCircle
 10
81.9730439512404
 20
35.1624980029607
 30
0.0
 40
19.63206611910167
100
AcDbArc
 50
11.32497559303777
 51
13.38012995367448
  0
ARC
  5
199E
330
1F
100
AcDbEntity
  8
0
100
AcDbCircle
 10
92.76859052688099
 20
37.37872939747499
 30
0.0
 40
8.611672530863016
100
AcDbArc
 50
6.292605992973306
 51
10.97155605803586
  0
ARC
  5
199F
330
1F
100
AcDbEntity
  8
0
100
AcDbCircle
 10
85.3378392047704
 20
36.56568085098015
 30
0.0
 40
16.08677064846396
100
AcDbArc
 50
3.760831206370376
 51
6.270148919098257
  0
ARC
  5
19A0
330
1F
100
AcDbEntity
  8
0
100
AcDbCircle
 10
47.6506697566782
 20
33.90285276488822
 30
0.0
 40
53.86776004412379
100
AcDbArc
 50
0.960955656080902
 51
3.95773846702317
  0
ARC
  5
19A1
330
1F
100
AcDbEntity
  8
0
100
AcDbCircle
 10
63.75832857341641
 20
34.25857407851989
 30
0.0
 40
37.75649772522092
100
AcDbArc
 50
357.6289035498758
 51
0.8311648186575016
  0
ARC
  5
19A2
330
1F
100
AcDbEntity
  8
0
100
AcDbCircle
 10
41.08870785962641
 20
35.15714004970949
 30
0.0
 40
60.44389776443599
100
AcDbArc
 50
356.3324412300122
 51
357.6668984135322
  0
ARC
  5
19A3
330
1F
100
AcDbEntity
  8
0
100
AcDbCircle
 10
-222.8788879067232
 20
53.10280265253323
 30
0.0
 40
325.0204340651059
100
AcDbArc
 50
355.655381585992
 51
356.1519929837532
  0
ARC
  5
19A4
330
1F
100
AcDbEntity
  8
0
100
AcDbCircle
 10
-305.4893634536839
 20
54.98030446435762
 30
0.0
 40
407.5593559500123
100
AcDbArc
 50
355.4800525130574
 51
356.2719989648499
  0
ARC
  5
19A5
330
1F
100
AcDbEntity
  8
0
100
AcDbCircle
 10
151.364800839056
 20
19.03298834241906
 30
0.0
 40
50.70711917253285
100
AcDbArc
 50
175.6692121466096
 51
177.2614053272976
  0
ARC
  5
19A6
330
1F
100
AcDbEntity
  8
0
100
AcDbCircle
 10
124.3023776737149
 20
20.23314146245249
 30
0.0
 40
23.6184490811009
100
AcDbArc
 50
177.0327861248216
 51
182.1540042546344
  0
ARC
  5
19A7
330
1F
100
AcDbEntity
  8
0
100
AcDbCircle
 10
107.1639406529063
 20
19.61032489430559
 30
0.0
 40
6.468749618632815
100
AcDbArc
 50
182.3469359793808
 51
188.5725422294673
  0
ARC
  5
19A8
330
1F
100
AcDbEntity
  8
0
100
AcDbCircle
 10
111.4144944628477
 20
20.25431132503718
 30
0.0
 40
10.76780998929189
100
AcDbArc
 50
188.5895583400653
 51
192.3377037648093
  0
ARC
  5
19A9
330
1F
100
AcDbEntity
  8
0
100
AcDbCircle
 10
120.0160196193401
 20
21.98861474162889
 30
0.0
 40
19.54178686854726
100
AcDbArc
 50
191.9164761390171
 51
193.9899525566385
  0
LINE
  5
19AA
330
1F
100
AcDbEntity
  8
0
100
AcDbLine
 10
98.0858079225867
 20
52.77522201573591
 30
0.000000000000478
 11
98.0858079225867
 21
43.16485471793369
 31
0.000000000000478
  0
LINE
  5
19AB
330
1F
100
AcDbEntity
  8
0
100
AcDbLine
 10
101.5858079225867
 20
52.77522201573591
 30
0.0000000000004882
 11
101.5858079225867
 21
43.16485471793369
 31
0.0000000000004882
  0
LINE
  5
19AC
330
1F
100
AcDbEntity
  8
0
100
AcDbLine
 10
98.0858079225867
 20
52.77522201573591
 30
0.000000000000478
 11
101.5858079225867
 21
52.77522201573591
 31
0.0000000000004882
  0
ARC
  5
19AD
330
1F
100
AcDbEntity
  8
0
100
AcDbCircle
 10
100.1401556725867
 20
47.57234768851221
 30
0.0
 40
4.862750144067552
100
AcDbArc
 50
245.0096105236296
 51
251.2173135110948
  0
ARC
  5
19AE
330
1F
100
AcDbEntity
  8
0
100
AcDbCircle
 10
98.35100912253588
 20
42.80922064338866
 30
0.0
 40
0.2744322839199517
100
AcDbArc
 50
27.63953125600002
 51
35.49262712141902
  0
ARC
  5
19AF
330
1F
100
AcDbEntity
  8
0
100
AcDbCircle
 10
98.48441504809329
 20
42.88106810659607
 30
0.0
 40
0.1229321863575375
100
AcDbArc
 50
3.631040481129882
 51
26.81897268298316
  0
ARC
  5
19B0
330
1F
100
AcDbEntity
  8
0
100
AcDbCircle
 10
98.44378264078267
 20
42.87569711092999
 30
0.0
 40
0.1638468817338284
100
AcDbArc
 50
351.2783378799517
 51
4.60564643727739
  0
ARC
  5
19B1
330
1F
100
AcDbEntity
  8
0
100
AcDbCircle
 10
98.52028895798079
 20
42.86386045027594
 30
0.0
 40
0.0864304454565693
100
AcDbArc
 50
318.7848539073483
 51
351.3438264045996
  0
ARC
  5
19B2
330
1F
100
AcDbEntity
  8
0
100
AcDbCircle
 10
98.46921950254142
 20
42.90661814867031
 30
0.0
 40
0.1530267255458636
100
AcDbArc
 50
309.9011287541728
 51
319.3408660322133
  0
ARC
  5
19B3
330
1F
100
AcDbEntity
  8
0
100
AcDbCircle
 10
98.22916770843358
 20
43.20582858965423
 30
0.0
 40
0.5366078836285358
100
AcDbArc
 50
303.5140576213042
 51
309.0707596149963
  0
ARC
  5
19B4
330
1F
100
AcDbEntity
  8
0
100
AcDbCircle
 10
101.9069499025993
 20
37.61439083461135
 30
0.0
 40
6.155947395159843
100
AcDbArc
 50
123.3194128861657
 51
124.2660840701129
  0
ARC
  5
19B5
330
1F
100
AcDbEntity
  8
0
100
AcDbCircle
 10
98.7400190821625
 20
42.27188723063305
 30
0.0
 40
0.5237702904591171
100
AcDbArc
 50
124.8229415864594
 51
132.8630902163753
  0
ARC
  5
19B6
330
1F
100
AcDbEntity
  8
0
100
AcDbCircle
 10
98.59731126585899
 20
42.43141388829538
 30
0.0
 40
0.3097881622720714
100
AcDbArc
 50
133.5873176866513
 51
156.3460205804443
  0
ARC
  5
19B7
330
1F
100
AcDbEntity
  8
0
100
AcDbCircle
 10
98.73696183092484
 20
42.37384865048805
 30
0.0
 40
0.4608137005198929
100
AcDbArc
 50
156.7564083828908
 51
198.6970566647771
  0
ARC
  5
19B8
330
1F
100
AcDbEntity
  8
0
100
AcDbCircle
 10
98.64716322354992
 20
42.34548930546504
 30
0.0
 40
0.3666681086020156
100
AcDbArc
 50
198.9976253722121
 51
226.1008378091422
  0
ARC
  5
19B9
330
1F
100
AcDbEntity
  8
0
100
AcDbCircle
 10
98.86760622461331
 20
42.56064907693395
 30
0.0
 40
0.6746262210254928
100
AcDbArc
 50
225.2810030749107
 51
229.5249047548415
  0
ARC
  5
19BA
330
1F
100
AcDbEntity
  8
0
100
AcDbCircle
 10
100.1115473371745
 20
44.0553921516691
 30
0.0
 40
2.619233593967746
100
AcDbArc
 50
230.0501863428568
 51
232.2772668378899
  0
ARC
  5
19BB
330
1F
100
AcDbEntity
  8
0
100
AcDbCircle
 10
98.08772671143458
 20
41.44989324042126
 30
0.0
 40
0.6799549396477259
100
AcDbArc
 50
47.43970492288869
 51
51.71669382235993
  0
ARC
  5
19BC
330
1F
100
AcDbEntity
  8
0
100
AcDbCircle
 10
98.39991045904401
 20
41.77633898371293
 30
0.0
 40
0.228538863612794
100
AcDbArc
 50
5.986412742503416
 51
49.73356928155937
  0
ARC
  5
19BD
330
1F
100
AcDbEntity
  8
0
100
AcDbCircle
 10
98.36688908432419
 20
41.76556811309416
 30
0.0
 40
0.2626040867405548
100
AcDbArc
 50
328.9566972932399
 51
7.572424269153583
  0
ARC
  5
19BE
330
1F
100
AcDbEntity
  8
0
100
AcDbCircle
 10
98.34810975102531
 20
41.78559171097956
 30
0.0
 40
0.2891162452658398
100
AcDbArc
 50
312.6228423662114
 51
327.4758557477178
  0
ARC
  5
19BF
330
1F
100
AcDbEntity
  8
0
100
AcDbCircle
 10
98.11308316021518
 20
42.03163929296462
 30
0.0
 40
0.629349317766275
100
AcDbArc
 50
306.3279151530438
 51
313.198501980605
  0
ARC
  5
19C0
330
1F
100
AcDbEntity
  8
0
100
AcDbCircle
 10
104.1580218783099
 20
33.7592574377412
 30
0.0
 40
9.616315463025076
100
AcDbArc
 50
126.1458101850869
 51
126.74058826611
  0
ARC
  5
19C1
330
1F
100
AcDbEntity
  8
0
100
AcDbCircle
 10
98.70786070812918
 20
41.05960369802112
 30
0.0
 40
0.5059198688890838
100
AcDbArc
 50
126.6859806803211
 51
155.0940910362738
  0
ARC
  5
19C2
330
1F
100
AcDbEntity
  8
0
100
AcDbCircle
 10
98.8216491035714
 20
41.00060904272094
 30
0.0
 40
0.6339950231135562
100
AcDbArc
 50
154.5890323861633
 51
206.3122339803153
  0
ARC
  5
19C3
330
1F
100
AcDbEntity
  8
0
100
AcDbCircle
 10
98.70952868290792
 20
40.94815849831792
 30
0.0
 40
0.5102488838066824
100
AcDbArc
 50
206.6134586886092
 51
240.0012733347299
  0
ARC
  5
19C4
330
1F
100
AcDbEntity
  8
0
100
AcDbCircle
 10
98.87297625567308
 20
41.2024172445986
 30
0.0
 40
0.8122950121479998
100
AcDbArc
 50
238.9835954710436
 51
242.4922816101409
  0
ARC
  5
19C5
330
1F
100
AcDbEntity
  8
0
100
AcDbCircle
 10
99.08465783835268
 20
41.61882109902351
 30
0.0
 40
1.279400980074854
100
AcDbArc
 50
242.697074609863
 51
247.2257803619381
  0
ARC
  5
19C6
330
1F
100
AcDbEntity
  8
0
100
AcDbCircle
 10
99.52938913491642
 20
42.62183815094992
 30
0.0
 40
2.376475957336525
100
AcDbArc
 50
246.7004199442865
 51
249.1746607367819
  0
ARC
  5
19C7
330
1F
100
AcDbEntity
  8
0
100
AcDbCircle
 10
98.6652440424304
 20
40.08880020250256
 30
0.0
 40
0.202683416406248
100
AcDbArc
 50
275.4526219878127
 51
84.54737801218646
  0
LINE
  5
19C8
330
1F
100
AcDbEntity
  8
0
100
AcDbLine
 10
98.68450355258667
 20
40.40062084312753
 30
0.0000000000004798
 11
98.68450355258667
 21
40.29056649937754
 31
0.0000000000004798
  0
LINE
  5
19C9
330
1F
100
AcDbEntity
  8
0
100
AcDbLine
 10
98.68450355258667
 20
39.88703390562756
 30
0.0000000000004798
 11
98.68450355258667
 21
39.77697956187756
 31
0.0000000000004798
  0
ARC
  5
19CA
330
1F
100
AcDbEntity
  8
0
100
AcDbCircle
 10
98.80487701048771
 20
39.54710242970367
 30
0.0
 40
0.2594865415846194
100
AcDbArc
 50
117.6384697298617
 51
142.3615302701396
  0
ARC
  5
19CB
330
1F
100
AcDbEntity
  8
0
100
AcDbCircle
 10
101.320606722634
 20
42.80922064339055
 30
0.0
 40
0.2744322839160774
100
AcDbArc
 50
144.5073728784896
 51
152.3604687440223
  0
ARC
  5
19CC
330
1F
100
AcDbEntity
  8
0
100
AcDbCircle
 10
101.1872007970793
 20
42.88106810659619
 30
0.0
 40
0.1229321863568553
100
AcDbArc
 50
153.1810273169109
 51
176.3689595188995
  0
ARC
  5
19CD
330
1F
100
AcDbEntity
  8
0
100
AcDbCircle
 10
101.2278332043905
 20
42.87569711092999
 30
0.0
 40
0.1638468817337157
100
AcDbArc
 50
175.3943535627167
 51
188.7216621200517
  0
ARC
  5
19CE
330
1F
100
AcDbEntity
  8
0
100
AcDbCircle
 10
101.151326887193
 20
42.86386045027628
 30
0.0
 40
0.0864304454570702
100
AcDbArc
 50
188.6561735955785
 51
221.2151460926603
  0
ARC
  5
19CF
330
1F
100
AcDbEntity
  8
0
100
AcDbCircle
 10
101.2023963426339
 20
42.90661814867206
 30
0.0
 40
0.1530267255484255
100
AcDbArc
 50
220.6591339678255
 51
230.0988712457009
  0
ARC
  5
19D0
330
1F
100
AcDbEntity
  8
0
100
AcDbCircle
 10
101.4424481367335
 20
43.20582858964551
 30
0.0
 40
0.5366078836178191
100
AcDbArc
 50
230.9292403849376
 51
236.4859423787397
  0
ARC
  5
19D1
330
1F
100
AcDbEntity
  8
0
100
AcDbCircle
 10
97.76466594223951
 20
37.61439083411055
 30
0.0
 40
6.155947395762058
100
AcDbArc
 50
55.7339159299392
 51
56.6805871137943
  0
ARC
  5
19D2
330
1F
100
AcDbEntity
  8
0
100
AcDbCircle
 10
100.9315967630109
 20
42.27188723063306
 30
0.0
 40
0.5237702904590892
100
AcDbArc
 50
47.13690978362564
 51
55.17705841354164
  0
ARC
  5
19D3
330
1F
100
AcDbEntity
  8
0
100
AcDbCircle
 10
101.0743045793138
 20
42.43141388829505
 30
0.0
 40
0.3097881622727547
100
AcDbArc
 50
23.65397941957035
 51
46.41268231330947
  0
ARC
  5
19D4
330
1F
100
AcDbEntity
  8
0
100
AcDbCircle
 10
100.9346540142483
 20
42.37384865048798
 30
0.0
 40
0.4608137005201878
100
AcDbArc
 50
341.3029433352463
 51
23.24359161710493
  0
ARC
  5
19D5
330
1F
100
AcDbEntity
  8
0
100
AcDbCircle
 10
101.0244526216233
 20
42.34548930546527
 30
0.0
 40
0.3666681086023
100
AcDbArc
 50
313.8991621908577
 51
341.0023746277679
  0
ARC
  5
19D6
330
1F
100
AcDbEntity
  8
0
100
AcDbCircle
 10
100.8040096205697
 20
42.56064907692389
 30
0.0
 40
0.6746262210115894
100
AcDbArc
 50
310.47509524509
 51
314.7189969251099
  0
ARC
  5
19D7
330
1F
100
AcDbEntity
  8
0
100
AcDbCircle
 10
99.56006850805138
 20
44.05539215160351
 30
0.0
 40
2.619233593883676
100
AcDbArc
 50
307.7227331620771
 51
309.9498136571824
  0
ARC
  5
19D8
330
1F
100
AcDbEntity
  8
0
100
AcDbCircle
 10
101.5838891337388
 20
41.4498932404212
 30
0.0
 40
0.6799549396478001
100
AcDbArc
 50
128.2833061776411
 51
132.5602950771113
  0
ARC
  5
19D9
330
1F
100
AcDbEntity
  8
0
100
AcDbCircle
 10
101.2717053861293
 20
41.77633898371299
 30
0.0
 40
0.2285388636127193
100
AcDbArc
 50
130.2664307184383
 51
174.0135872575039
  0
ARC
  5
19DA
330
1F
100
AcDbEntity
  8
0
100
AcDbCircle
 10
101.3047267608492
 20
41.76556811309416
 30
0.0
 40
0.2626040867406111
100
AcDbArc
 50
172.4275757308481
 51
211.0433027067537
  0
ARC
  5
19DB
330
1F
100
AcDbEntity
  8
0
100
AcDbCircle
 10
101.3235060941477
 20
41.78559171097928
 30
0.0
 40
0.2891162452654234
100
AcDbArc
 50
212.5241442522673
 51
227.3771576337972
  0
ARC
  5
19DC
330
1F
100
AcDbEntity
  8
0
100
AcDbCircle
 10
101.5585326849568
 20
42.03163929296295
 30
0.0
 40
0.6293493177641083
100
AcDbArc
 50
226.8014980193794
 51
233.6720848469655
  0
ARC
  5
19DD
330
1F
100
AcDbEntity
  8
0
100
AcDbCircle
 10
95.51359396686368
 20
33.75925743774152
 30
0.0
 40
9.616315463024672
100
AcDbArc
 50
53.25941173388892
 51
53.85418981491309
  0
ARC
  5
19DE
330
1F
100
AcDbEntity
  8
0
100
AcDbCircle
 10
100.9637551370439
 20
41.05960369802095
 30
0.0
 40
0.5059198688893845
100
AcDbArc
 50
24.90590896373063
 51
53.31401931966471
  0
ARC
  5
19DF
330
1F
100
AcDbEntity
  8
0
100
AcDbCircle
 10
100.8499667416015
 20
41.00060904272091
 30
0.0
 40
0.6339950231139248
100
AcDbArc
 50
333.6877660197035
 51
25.41096761382321
  0
ARC
  5
19E0
330
1F
100
AcDbEntity
  8
0
100
AcDbCircle
 10
100.9620871622659
 20
40.94815849831751
 30
0.0
 40
0.5102488838060879
100
AcDbArc
 50
299.9987266652503
 51
333.3865413114094
  0
ARC
  5
19E1
330
1F
100
AcDbEntity
  8
0
100
AcDbCircle
 10
100.7986395894966
 20
41.20241724460448
 30
0.0
 40
0.8122950121549045
100
AcDbArc
 50
297.5077183898949
 51
301.0164045289631
  0
ARC
  5
19E2
330
1F
100
AcDbEntity
  8
0
100
AcDbCircle
 10
100.5869580068199
 20
41.61882109902554
 30
0.0
 40
1.279400980077012
100
AcDbArc
 50
292.7742196380584
 51
297.302925390126
  0
ARC
  5
19E3
330
1F
100
AcDbEntity
  8
0
100
AcDbCircle
 10
100.1422267102524
 20
42.62183815096063
 30
0.0
 40
2.37647595734814
100
AcDbArc
 50
290.8253392632285
 51
293.2995800557118
  0
ARC
  5
19E4
330
1F
100
AcDbEntity
  8
0
100
AcDbCircle
 10
99.53146017258669
 20
47.57234768851221
 30
0.0
 40
4.862750144067552
100
AcDbArc
 50
288.7826864889044
 51
294.9903894763704
  0
ARC
  5
19E5
330
1F
100
AcDbEntity
  8
0
100
AcDbCircle
 10
101.0063718027429
 20
40.08880020250252
 30
0.0
 40
0.202683416406248
100
AcDbArc
 50
95.45262198781271
 51
264.5473780121873
  0
ARC
  5
19E6
330
1F
100
AcDbEntity
  8
0
100
AcDbCircle
 10
100.8667388346856
 20
39.54710242970367
 30
0.0
 40
0.2594865415846194
100
AcDbArc
 50
37.63846972986032
 51
62.3615302701383
  0
LINE
  5
19E7
330
1F
100
AcDbEntity
  8
0
100
AcDbLine
 10
100.9871122925867
 20
40.40062084312753
 30
0.0000000000004865
 11
100.9871122925867
 21
40.29056649937754
 31
0.0000000000004865
  0
LINE
  5
19E8
330
1F
100
AcDbEntity
  8
0
100
AcDbLine
 10
100.9871122925867
 20
39.88703390562754
 30
0.0000000000004865
 11
100.9871122925867
 21
39.77697956187753
 31
0.0000000000004865
  0
ARC
  5
19E9
330
1F
100
AcDbEntity
  8
0
100
AcDbCircle
 10
94.5632310951402
 20
11.92567624086149
 30
0.0
 40
4.785360265565266
100
AcDbArc
 50
4.188908506347244
 51
28.14336590935275
  0
ARC
  5
19EA
330
1F
100
AcDbEntity
  8
0
100
AcDbCircle
 10
99.14151440522559
 20
15.43011470323592
 30
0.0
 40
1.019021701388889
100
AcDbArc
 50
110.6096929375314
 51
249.3903070624677
  0
ARC
  5
19EB
330
1F
100
AcDbEntity
  8
0
100
AcDbCircle
 10
99.0253459312672
 20
16.64224101703801
 30
0.0
 40
0.3543299057177726
100
AcDbArc
 50
111.9544018584172
 51
226.8062875892709
  0
LINE
  5
19EC
330
1F
100
AcDbEntity
  8
0
100
AcDbLine
 10
98.61773725071168
 20
17.26435376573592
 30
0.0000000000004796
 11
98.8928731100867
 21
16.97087551573592
 31
0.0000000000004804
  0
LINE
  5
19ED
330
1F
100
AcDbEntity
  8
0
100
AcDbLine
 10
98.78281876633668
 20
14.18283214073592
 30
0.00000000000048
 11
98.78281876633668
 21
14.47631039073592
 31
0.00000000000048
  0
ARC
  5
19EE
330
1F
100
AcDbEntity
  8
0
100
AcDbCircle
 10
105.1083847500323
 20
11.92567624086178
 30
0.0
 40
4.785360265564452
100
AcDbArc
 50
151.8566340906459
 51
175.8110914936554
  0
ARC
  5
19EF
330
1F
100
AcDbEntity
  8
0
100
AcDbCircle
 10
100.6462699139061
 20
16.64224101703801
 30
0.0
 40
0.3543299057177726
100
AcDbArc
 50
313.1937124107289
 51
68.04559814158189
  0
LINE
  5
19F0
330
1F
100
AcDbEntity
  8
0
100
AcDbLine
 10
101.0538785944617
 20
17.26435376573592
 30
0.0000000000004867
 11
100.7787427350866
 21
16.97087551573592
 31
0.0000000000004859
  0
ARC
  5
19F1
330
1F
100
AcDbEntity
  8
0
100
AcDbCircle
 10
100.5301014399478
 20
15.43011470323592
 30
0.0
 40
1.019021701388889
100
AcDbArc
 50
290.6096929375323
 51
69.3903070624677
  0
LINE
  5
19F2
330
1F
100
AcDbEntity
  8
0
100
AcDbLine
 10
100.8887970788367
 20
14.18283214073592
 30
0.0000000000004862
 11
100.8887970788367
 21
14.47631039073592
 31
0.0000000000004862
  0
ENDSEC
  0
SECTION
  2
OBJECTS
  0
DICTIONARY
  5
C
330
0
100
AcDbDictionary
281
     1
  3
ACAD_ASSOCPERSSUBENTMANAGER
350
1BC
  3
ACAD_BACKGROUND
350
1B8
  3
ACAD_COLOR
350
73
  3
ACAD_GROUP
350
D
  3
ACAD_LAYOUT
350
1A
  3
ACAD_MATERIAL
350
72
  3
ACAD_MLEADERSTYLE
350
D7
  3
ACAD_MLINESTYLE
350
17
  3
ACAD_PERSUBENTMGR
350
1BD
  3
ACAD_PLOTSETTINGS
350
19
  3
ACAD_PLOTSTYLENAME
350
E
  3
ACAD_SCALELIST
350
B6
  3
ACAD_TABLESTYLE
350
86
  3
ACAD_VISUALSTYLE
350
99
  3
ACDB_RECOMPOSE_DATA
350
1A5D
  3
AcDbVariableDictionary
350
66
  3
AEC_PROPERTY_SET_DEFS
350
530
  0
DICTIONARY
  5
505
330
2
100
AcDbDictionary
280
     1
281
     1
  3
ACAD_LAYERSTATES
360
506
  0
DICTIONARY
  5
E6
330
10
100
AcDbDictionary
280
     1
281
     1
  0
DICTIONARY
  5
15D
330
1F
100
AcDbDictionary
280
     1
281
     1
  3
ACAD_SORTENTS
360
362
  0
ACDBASSOCPERSSUBENTMANAGER
  5
1BC
102
{ACAD_REACTORS
330
C
102
}
330
C
100
AcDbAssocPersSubentManager
 90
        1
 90
        3
 90
        0
 90
        2
 90
        4
 90
        0
 90
        0
 90
        0
290
     0
  0
DICTIONARY
  5
1B8
102
{ACAD_REACTORS
330
C
102
}
330
C
100
AcDbDictionary
281
     1
  0
DICTIONARY
  5
73
102
{ACAD_REACTORS
330
C
102
}
330
C
100
AcDbDictionary
281
     1
  0
DICTIONARY
  5
D
102
{ACAD_REACTORS
330
C
102
}
330
C
100
AcDbDictionary
281
     1
  0
DICTIONARY
  5
1A
102
{ACAD_REACTORS
330
C
102
}
330
C
100
AcDbDictionary
281
     1
  3
Layout1
350
59
  3
Layout2
350
5E
  3
Model
350
22
  0
DICTIONARY
  5
72
102
{ACAD_REACTORS
330
C
102
}
330
C
100
AcDbDictionary
281
     1
  3
ByBlock
350
97
  3
ByLayer
350
96
  3
Global
350
98
  0
DICTIONARY
  5
D7
102
{ACAD_REACTORS
330
C
102
}
330
C
100
AcDbDictionary
281
     1
  3
Annotative
350
E5
  3
Standard
350
D8
  0
DICTIONARY
  5
17
102
{ACAD_REACTORS
330
C
102
}
330
C
100
AcDbDictionary
281
     1
  3
Standard
350
18
  0
ACDBPERSSUBENTMANAGER
  5
1BD
102
{ACAD_REACTORS
330
C
102
}
330
C
100
AcDbPersSubentManager
 90
        2
 90
        0
 90
        2
 90
        4
 90
        0
 90
        0
  0
DICTIONARY
  5
19
102
{ACAD_REACTORS
330
C
102
}
330
C
100
AcDbDictionary
281
     1
  0
ACDBDICTIONARYWDFLT
  5
E
102
{ACAD_REACTORS
330
C
102
}
330
C
100
AcDbDictionary
281
     1
  3
Normal
350
F
100
AcDbDictionaryWithDefault
340
F
  0
DICTIONARY
  5
B6
102
{ACAD_REACTORS
330
C
102
}
330
C
100
AcDbDictionary
281
     1
  3
A0
350
B7
  3
A1
350
124
  3
A2
350
125
  3
A3
350
126
  3
A4
350
127
  3
A5
350
128
  3
A6
350
129
  3
A7
350
12A
  3
A8
350
12B
  3
A9
350
12C
  3
B0
350
12D
  3
B1
350
12E
  3
B2
350
12F
  3
B3
350
130
  3
B4
350
131
  3
B5
350
132
  3
B6
350
133
  3
B7
350
134
  3
B8
350
135
  3
B9
350
136
  3
C0
350
137
  3
C1
350
138
  3
C2
350
139
  3
C3
350
13A
  3
C4
350
13B
  3
C5
350
13C
  3
C6
350
13D
  3
C7
350
13E
  3
C8
350
13F
  3
C9
350
140
  3
D0
350
141
  3
D1
350
142
  3
D2
350
143
  0
DICTIONARY
  5
86
102
{ACAD_REACTORS
330
C
102
}
330
C
100
AcDbDictionary
281
     1
  3
Standard
350
87
  0
DICTIONARY
  5
99
102
{ACAD_REACTORS
330
C
102
}
330
C
100
AcDbDictionary
281
     1
  3
2dWireframe
350
9F
  3
3D Hidden
350
A1
  3
3dWireframe
350
A0
  3
Basic
350
9E
  3
Brighten
350
A5
  3
ColorChange
350
A9
  3
Conceptual
350
A2
  3
Dim
350
A4
  3
EdgeColorOff
350
175
  3
Facepattern
350
A8
  3
Flat
350
9A
  3
FlatWithEdges
350
9B
  3
Gouraud
350
9C
  3
GouraudWithEdges
350
9D
  3
Hidden
350
17F
  3
JitterOff
350
173
  3
Linepattern
350
A7
  3
OverhangOff
350
174
  3
Realistic
350
A3
  3
Shaded
350
184
  3
Shaded with edges
350
183
  3
Shades of Gray
350
180
  3
Sketchy
350
181
  3
Thicken
350
A6
  3
Wireframe
350
17E
  3
X-Ray
350
182
  0
XRECORD
  5
1A5D
102
{ACAD_REACTORS
330
C
102
}
330
C
100
AcDbXrecord
280
     1
 90
        1
330
87
  0
DICTIONARY
  5
66
102
{ACAD_REACTORS
330
C
102
}
330
C
100
AcDbDictionary
281
     1
  3
CANNOSCALE
350
F0
  3
CMLEADERSTYLE
350
EF
  3
CTABLESTYLE
350
89
  3
DIMASSOC
350
67
  3
HIDETEXT
350
6B
  3
LAYEREVAL
350
14D
  3
LAYERNOTIFY
350
14E
  0
DICTIONARY
  5
530
102
{ACAD_REACTORS
330
C
102
}
330
C
100
AcDbDictionary
281
     1
  0
DICTIONARY
  5
506
102
{ACAD_REACTORS
330
505
102
}
330
505
100
AcDbDictionary
281
     1
  0
SORTENTSTABLE
  5
362
102
{ACAD_REACTORS
330
15D
102
}
330
15D
100
AcDbSortentsTable
330
1F
  0
LAYOUT
  5
59
102
{ACAD_REACTORS
330
1A
102
}
330
1A
100
AcDbPlotSettings
  1

  2
None
  4

  6

 40
0.0
 41
0.0
 42
0.0
 43
0.0
 44
0.0
 45
0.0
 46
0.0
 47
0.0
 48
0.0
 49
0.0
140
0.0
141
0.0
142
1.0
143
1.0
 70
   688
 72
     0
 73
     0
 74
     5
  7

 75
    16
147
1.0
 76
     0
 77
     2
 78
   300
148
0.0
149
0.0
100
AcDbLayout
  1
Layout1
 70
     1
 71
     1
 10
0.0
 20
0.0
 11
12.0
 21
9.0
 12
0.0
 22
0.0
 32
0.0
 14
0.0
 24
0.0
 34
0.0
 15
0.0
 25
0.0
 35
0.0
146
0.0
 13
0.0
 23
0.0
 33
0.0
 16
1.0
 26
0.0
 36
0.0
 17
0.0
 27
1.0
 37
0.0
 76
     0
330
58
  0
LAYOUT
  5
5E
102
{ACAD_REACTORS
330
1A
102
}
330
1A
100
AcDbPlotSettings
  1

  2
None
  4

  6

 40
0.0
 41
0.0
 42
0.0
 43
0.0
 44
0.0
 45
0.0
 46
0.0
 47
0.0
 48
0.0
 49
0.0
140
0.0
141
0.0
142
1.0
143
1.0
 70
   688
 72
     0
 73
     0
 74
     5
  7

 75
    16
147
1.0
 76
     0
 77
     2
 78
   300
148
0.0
149
0.0
100
AcDbLayout
  1
Layout2
 70
     1
 71
     2
 10
0.0
 20
0.0
 11
12.0
 21
9.0
 12
0.0
 22
0.0
 32
0.0
 14
0.0
 24
0.0
 34
0.0
 15
0.0
 25
0.0
 35
0.0
146
0.0
 13
0.0
 23
0.0
 33
0.0
 16
1.0
 26
0.0
 36
0.0
 17
0.0
 27
1.0
 37
0.0
 76
     0
330
5D
  0
LAYOUT
  5
22
102
{ACAD_XDICTIONARY
360
EE2
102
}
102
{ACAD_REACTORS
330
1A
102
}
330
1A
100
AcDbPlotSettings
  1

  2
none_device
  4
ANSI_A_(8.50_x_11.00_Inches)
  6

 40
6.349999904632567
 41
19.04999923706055
 42
6.350006103515625
 43
19.04998779296875
 44
215.8999938964844
 45
279.3999938964844
 46
0.0
 47
0.0
 48
0.0
 49
0.0
140
0.0
141
0.0
142
1.0
143
2.584895464708373
 70
 11952
 72
     0
 73
     1
 74
     0
  7

 75
     0
147
0.3868628397755418
 76
     0
 77
     2
 78
   300
148
0.0
149
0.0
100
AcDbLayout
  1
Model
 70
     1
 71
     0
 10
0.0
 20
0.0
 11
12.0
 21
9.0
 12
0.0
 22
0.0
 32
0.0
 14
0.0
 24
0.0
 34
0.0
 15
0.0
 25
0.0
 35
0.0
146
0.0
 13
0.0
 23
0.0
 33
0.0
 16
1.0
 26
0.0
 36
0.0
 17
0.0
 27
1.0
 37
0.0
 76
     0
330
1F
331
94
  0
MATERIAL
  5
97
102
{ACAD_REACTORS
330
72
102
}
330
72
100
AcDbMaterial
  1
ByBlock
 94
       63
  0
MATERIAL
  5
96
102
{ACAD_REACTORS
330
72
102
}
330
72
100
AcDbMaterial
  1
ByLayer
 94
       63
  0
MATERIAL
  5
98
102
{ACAD_XDICTIONARY
360
110
102
}
102
{ACAD_REACTORS
330
72
102
}
330
72
100
AcDbMaterial
  1
Global
 43
0.0208000000566244
 43
0.0
 43
0.0
 43
0.0
 43
0.0
 43
0.0208000000566244
 43
0.0
 43
0.0
 43
0.0
 43
0.0
 43
1.0
 43
0.0
 43
0.0
 43
0.0
 43
0.0
 43
1.0
 49
0.0208000000566244
 49
0.0
 49
0.0
 49
0.0
 49
0.0
 49
0.0208000000566244
 49
0.0
 49
0.0
 49
0.0
 49
0.0
 49
1.0
 49
0.0
 49
0.0
 49
0.0
 49
0.0
 49
1.0
142
0.0208000000566244
142
0.0
142
0.0
142
0.0
142
0.0
142
0.0208000000566244
142
0.0
142
0.0
142
0.0
142
0.0
142
1.0
142
0.0
142
0.0
142
0.0
142
0.0
142
1.0
144
0.0208000000566244
144
0.0
144
0.0
144
0.0
144
0.0
144
0.0208000000566244
144
0.0
144
0.0
144
0.0
144
0.0
144
1.0
144
0.0
144
0.0
144
0.0
144
0.0
144
1.0
 94
       63
1001
ACAD
1070
    -1
1070
     3
1070
     0
1000

1071
        0
1070
     0
  0
MLEADERSTYLE
  5
E5
102
{ACAD_REACTORS
330
D7
102
}
330
D7
100
AcDbMLeaderStyle
179
     2
170
     2
171
     1
172
     0
 90
        2
 40
0.0
 41
0.0
173
     1
 91
-1056964608
340
14
 92
       -2
290
     1
 42
0.09
291
     1
 43
0.36
  3
Standard
 44
0.18
300

342
11
174
     1
178
     1
175
     1
176
     0
 93
-1056964608
 45
0.18
292
     0
297
     0
 46
0.18
 94
-1056964608
 47
1.0
 49
1.0
140
1.0
293
     1
141
0.0
294
     1
177
     0
142
1.0
295
     0
296
     1
143
0.125
271
     0
272
     9
273
     9
  0
MLEADERSTYLE
  5
D8
102
{ACAD_REACTORS
330
D7
102
}
330
D7
100
AcDbMLeaderStyle
179
     2
170
     2
171
     1
172
     0
 90
        2
 40
0.0
 41
0.0
173
     1
 91
-1056964608
340
14
 92
       -2
290
     1
 42
0.09
291
     1
 43
0.36
  3
Standard
 44
0.18
300

342
11
174
     1
178
     1
175
     1
176
     0
 93
-1056964608
 45
0.18
292
     0
297
     0
 46
0.18
 94
-1056964608
 47
1.0
 49
1.0
140
1.0
293
     1
141
0.0
294
     1
177
     0
142
1.0
295
     0
296
     0
143
0.125
271
     0
272
     9
273
     9
  0
MLINESTYLE
  5
18
102
{ACAD_REACTORS
330
17
102
}
330
17
100
AcDbMlineStyle
  2
STANDARD
 70
     0
  3

 62
   256
 51
90.0
 52
90.0
 71
     2
 49
0.5
 62
   256
  6
BYLAYER
 49
-0.5
 62
   256
  6
BYLAYER
  0
ACDBPLACEHOLDER
  5
F
102
{ACAD_REACTORS
330
E
102
}
330
E
  0
SCALE
  5
B7
102
{ACAD_REACTORS
330
B6
102
}
330
B6
100
AcDbScale
 70
     0
300
1:1
140
1.0
141
1.0
290
     1
  0
SCALE
  5
124
102
{ACAD_REACTORS
330
B6
102
}
330
B6
100
AcDbScale
 70
     0
300
1:2
140
1.0
141
2.0
290
     0
  0
SCALE
  5
125
102
{ACAD_REACTORS
330
B6
102
}
330
B6
100
AcDbScale
 70
     0
300
1:4
140
1.0
141
4.0
290
     0
  0
SCALE
  5
126
102
{ACAD_REACTORS
330
B6
102
}
330
B6
100
AcDbScale
 70
     0
300
1:5
140
1.0
141
5.0
290
     0
  0
SCALE
  5
127
102
{ACAD_REACTORS
330
B6
102
}
330
B6
100
AcDbScale
 70
     0
300
1:8
140
1.0
141
8.0
290
     0
  0
SCALE
  5
128
102
{ACAD_REACTORS
330
B6
102
}
330
B6
100
AcDbScale
 70
     0
300
1:10
140
1.0
141
10.0
290
     0
  0
SCALE
  5
129
102
{ACAD_REACTORS
330
B6
102
}
330
B6
100
AcDbScale
 70
     0
300
1:16
140
1.0
141
16.0
290
     0
  0
SCALE
  5
12A
102
{ACAD_REACTORS
330
B6
102
}
330
B6
100
AcDbScale
 70
     0
300
1:20
140
1.0
141
20.0
290
     0
  0
SCALE
  5
12B
102
{ACAD_REACTORS
330
B6
102
}
330
B6
100
AcDbScale
 70
     0
300
1:30
140
1.0
141
30.0
290
     0
  0
SCALE
  5
12C
102
{ACAD_REACTORS
330
B6
102
}
330
B6
100
AcDbScale
 70
     0
300
1:40
140
1.0
141
40.0
290
     0
  0
SCALE
  5
12D
102
{ACAD_REACTORS
330
B6
102
}
330
B6
100
AcDbScale
 70
     0
300
1:50
140
1.0
141
50.0
290
     0
  0
SCALE
  5
12E
102
{ACAD_REACTORS
330
B6
102
}
330
B6
100
AcDbScale
 70
     0
300
1:100
140
1.0
141
100.0
290
     0
  0
SCALE
  5
12F
102
{ACAD_REACTORS
330
B6
102
}
330
B6
100
AcDbScale
 70
     0
300
2:1
140
2.0
141
1.0
290
     0
  0
SCALE
  5
130
102
{ACAD_REACTORS
330
B6
102
}
330
B6
100
AcDbScale
 70
     0
300
4:1
140
4.0
141
1.0
290
     0
  0
SCALE
  5
131
102
{ACAD_REACTORS
330
B6
102
}
330
B6
100
AcDbScale
 70
     0
300
8:1
140
8.0
141
1.0
290
     0
  0
SCALE
  5
132
102
{ACAD_REACTORS
330
B6
102
}
330
B6
100
AcDbScale
 70
     0
300
10:1
140
10.0
141
1.0
290
     0
  0
SCALE
  5
133
102
{ACAD_REACTORS
330
B6
102
}
330
B6
100
AcDbScale
 70
     0
300
100:1
140
100.0
141
1.0
290
     0
  0
SCALE
  5
134
102
{ACAD_REACTORS
330
B6
102
}
330
B6
100
AcDbScale
 70
     0
300
1/128" = 1'-0"
140
0.0078125
141
12.0
290
     0
  0
SCALE
  5
135
102
{ACAD_REACTORS
330
B6
102
}
330
B6
100
AcDbScale
 70
     0
300
1/64" = 1'-0"
140
0.015625
141
12.0
290
     0
  0
SCALE
  5
136
102
{ACAD_REACTORS
330
B6
102
}
330
B6
100
AcDbScale
 70
     0
300
1/32" = 1'-0"
140
0.03125
141
12.0
290
     0
  0
SCALE
  5
137
102
{ACAD_REACTORS
330
B6
102
}
330
B6
100
AcDbScale
 70
     0
300
1/16" = 1'-0"
140
0.0625
141
12.0
290
     0
  0
SCALE
  5
138
102
{ACAD_REACTORS
330
B6
102
}
330
B6
100
AcDbScale
 70
     0
300
3/32" = 1'-0"
140
0.09375
141
12.0
290
     0
  0
SCALE
  5
139
102
{ACAD_REACTORS
330
B6
102
}
330
B6
100
AcDbScale
 70
     0
300
1/8" = 1'-0"
140
0.125
141
12.0
290
     0
  0
SCALE
  5
13A
102
{ACAD_REACTORS
330
B6
102
}
330
B6
100
AcDbScale
 70
     0
300
3/16" = 1'-0"
140
0.1875
141
12.0
290
     0
  0
SCALE
  5
13B
102
{ACAD_REACTORS
330
B6
102
}
330
B6
100
AcDbScale
 70
     0
300
1/4" = 1'-0"
140
0.25
141
12.0
290
     0
  0
SCALE
  5
13C
102
{ACAD_REACTORS
330
B6
102
}
330
B6
100
AcDbScale
 70
     0
300
3/8" = 1'-0"
140
0.375
141
12.0
290
     0
  0
SCALE
  5
13D
102
{ACAD_REACTORS
330
B6
102
}
330
B6
100
AcDbScale
 70
     0
300
1/2" = 1'-0"
140
0.5
141
12.0
290
     0
  0
SCALE
  5
13E
102
{ACAD_REACTORS
330
B6
102
}
330
B6
100
AcDbScale
 70
     0
300
3/4" = 1'-0"
140
0.75
141
12.0
290
     0
  0
SCALE
  5
13F
102
{ACAD_REACTORS
330
B6
102
}
330
B6
100
AcDbScale
 70
     0
300
1" = 1'-0"
140
1.0
141
12.0
290
     0
  0
SCALE
  5
140
102
{ACAD_REACTORS
330
B6
102
}
330
B6
100
AcDbScale
 70
     0
300
1-1/2" = 1'-0"
140
1.5
141
12.0
290
     0
  0
SCALE
  5
141
102
{ACAD_REACTORS
330
B6
102
}
330
B6
100
AcDbScale
 70
     0
300
3" = 1'-0"
140
3.0
141
12.0
290
     0
  0
SCALE
  5
142
102
{ACAD_REACTORS
330
B6
102
}
330
B6
100
AcDbScale
 70
     0
300
6" = 1'-0"
140
6.0
141
12.0
290
     0
  0
SCALE
  5
143
102
{ACAD_REACTORS
330
B6
102
}
330
B6
100
AcDbScale
 70
     0
300
1'-0" = 1'-0"
140
12.0
141
12.0
290
     0
  0
TABLESTYLE
  5
87
102
{ACAD_XDICTIONARY
360
104
102
}
102
{ACAD_REACTORS
330
86
102
}
330
86
100
AcDbTableStyle
280
     0
  3
Standard
 70
     0
 71
     0
 40
0.06
 41
0.06
280
     0
281
     0
  7
Standard
140
0.18
170
     2
 62
     0
 63
     7
283
     0
 90
      512
 91
        0
  1

274
    -2
284
     1
 64
     0
275
    -2
285
     1
 65
     0
276
    -2
286
     1
 66
     0
277
    -2
287
     1
 67
     0
278
    -2
288
     1
 68
     0
279
    -2
289
     1
 69
     0
  7
Standard
140
0.25
170
     5
 62
     0
 63
     7
283
     0
 90
      512
 91
        0
  1

274
    -2
284
     1
 64
     0
275
    -2
285
     1
 65
     0
276
    -2
286
     1
 66
     0
277
    -2
287
     1
 67
     0
278
    -2
288
     1
 68
     0
279
    -2
289
     1
 69
     0
  7
Standard
140
0.18
170
     5
 62
     0
 63
     7
283
     0
 90
      512
 91
        0
  1

274
    -2
284
     1
 64
     0
275
    -2
285
     1
 65
     0
276
    -2
286
     1
 66
     0
277
    -2
287
     1
 67
     0
278
    -2
288
     1
 68
     0
279
    -2
289
     1
 69
     0
  0
VISUALSTYLE
  5
9F
102
{ACAD_REACTORS
330
99
102
}
330
99
100
AcDbVisualStyle
  2
2dWireframe
 70
     4
177
     2
291
     0
 71
     0
176
     1
 72
     2
176
     1
 73
     1
176
     1
 90
        0
176
     1
 40
0.6
176
     1
 41
30.0
176
     1
 63
     7
421
 16777215
176
     1
 74
     1
176
     1
 91
        4
176
     1
 64
     7
176
     1
 65
   257
176
     1
 75
     1
176
     1
175
     1
176
     1
 42
1.0
176
     1
 92
        0
176
     1
 66
   257
176
     1
 43
1.0
176
     1
 76
     1
176
     1
 77
     6
176
     1
 78
     2
176
     1
 67
     7
176
     1
 79
     5
176
     1
170
     0
176
     1
171
     0
176
     1
290
     0
176
     1
 93
        1
176
     1
 44
0.0
176
     1
173
     0
176
     1
  0
VISUALSTYLE
  5
A1
102
{ACAD_REACTORS
330
99
102
}
330
99
100
AcDbVisualStyle
  2
3D Hidden
 70
     6
177
     2
291
     0
 71
     1
176
     1
 72
     2
176
     1
 73
     2
176
     1
 90
        0
176
     1
 40
0.6
176
     1
 41
30.0
176
     1
 63
     7
421
 16777215
176
     1
 74
     2
176
     1
 91
        2
176
     1
 64
     7
176
     1
 65
   257
176
     1
 75
     2
176
     1
175
     1
176
     1
 42
40.0
176
     1
 92
        0
176
     1
 66
   257
176
     1
 43
1.0
176
     1
 76
     1
176
     1
 77
     6
176
     1
 78
     2
176
     1
 67
     7
176
     1
 79
     3
176
     1
170
     0
176
     1
171
     0
176
     1
290
     0
176
     1
 93
        1
176
     1
 44
0.0
176
     1
173
     0
176
     1
  0
VISUALSTYLE
  5
A0
102
{ACAD_REACTORS
330
99
102
}
330
99
100
AcDbVisualStyle
  2
3dWireframe
 70
     5
177
     2
291
     0
 71
     0
176
     1
 72
     2
176
     1
 73
     1
176
     1
 90
        0
176
     1
 40
0.6
176
     1
 41
30.0
176
     1
 63
     7
421
 16777215
176
     1
 74
     1
176
     1
 91
        4
176
     1
 64
     7
176
     1
 65
   257
176
     1
 75
     1
176
     1
175
     1
176
     1
 42
1.0
176
     1
 92
        0
176
     1
 66
   257
176
     1
 43
1.0
176
     1
 76
     1
176
     1
 77
     6
176
     1
 78
     2
176
     1
 67
     7
176
     1
 79
     5
176
     1
170
     0
176
     1
171
     0
176
     1
290
     0
176
     1
 93
        1
176
     1
 44
0.0
176
     1
173
     0
176
     1
  0
VISUALSTYLE
  5
9E
102
{ACAD_REACTORS
330
99
102
}
330
99
100
AcDbVisualStyle
  2
Basic
 70
     7
177
     2
291
     1
 71
     1
176
     1
 72
     0
176
     1
 73
     1
176
     1
 90
        0
176
     1
 40
0.6
176
     1
 41
30.0
176
     1
 63
     7
421
 16777215
176
     1
 74
     0
176
     1
 91
        4
176
     1
 64
     7
176
     1
 65
   257
176
     1
 75
     1
176
     1
175
     1
176
     1
 42
1.0
176
     1
 92
        8
176
     1
 66
     7
176
     1
 43
1.0
176
     1
 76
     1
176
     1
 77
     6
176
     1
 78
     2
176
     1
 67
     7
176
     1
 79
     5
176
     1
170
     0
176
     1
171
     0
176
     1
290
     0
176
     1
 93
        1
176
     1
 44
0.0
176
     1
173
     0
176
     1
  0
VISUALSTYLE
  5
A5
102
{ACAD_REACTORS
330
99
102
}
330
99
100
AcDbVisualStyle
  2
Brighten
 70
    12
177
     2
291
     1
 71
     2
176
     1
 72
     2
176
     1
 73
     1
176
     1
 90
        0
176
     1
 40
0.6
176
     1
 41
30.0
176
     1
 63
     7
421
 16777215
176
     1
 74
     1
176
     1
 91
        4
176
     1
 64
     7
176
     1
 65
   257
176
     1
 75
     1
176
     1
175
     1
176
     1
 42
1.0
176
     1
 92
        8
176
     1
 66
     7
176
     1
 43
1.0
176
     1
 76
     1
176
     1
 77
     6
176
     1
 78
     2
176
     1
 67
     7
176
     1
 79
     5
176
     1
170
     0
176
     1
171
     0
176
     1
290
     0
176
     1
 93
        1
176
     1
 44
50.0
176
     1
173
     0
176
     1
  0
VISUALSTYLE
  5
A9
102
{ACAD_REACTORS
330
99
102
}
330
99
100
AcDbVisualStyle
  2
ColorChange
 70
    16
177
     2
291
     1
 71
     2
176
     1
 72
     2
176
     1
 73
     3
176
     1
 90
        0
176
     1
 40
0.6
176
     1
 41
30.0
176
     1
 63
     8
421
  8421504
176
     1
 74
     1
176
     1
 91
        4
176
     1
 64
     7
176
     1
 65
   257
176
     1
 75
     1
176
     1
175
     1
176
     1
 42
1.0
176
     1
 92
        8
176
     1
 66
     8
424
  8421504
176
     1
 43
1.0
176
     1
 76
     1
176
     1
 77
     6
176
     1
 78
     2
176
     1
 67
     7
176
     1
 79
     5
176
     1
170
     0
176
     1
171
     0
176
     1
290
     0
176
     1
 93
        1
176
     1
 44
0.0
176
     1
173
     0
176
     1
  0
VISUALSTYLE
  5
A2
102
{ACAD_REACTORS
330
99
102
}
330
99
100
AcDbVisualStyle
  2
Conceptual
 70
     9
177
     2
291
     0
 71
     3
176
     1
 72
     2
176
     1
 73
     1
176
     1
 90
        0
176
     1
 40
0.6
176
     1
 41
30.0
176
     1
 63
     7
421
 16777215
176
     1
 74
     2
176
     1
 91
        2
176
     1
 64
     7
176
     1
 65
   257
176
     1
 75
     1
176
     1
175
     1
176
     1
 42
40.0
176
     1
 92
        8
176
     1
 66
     7
176
     1
 43
1.0
176
     1
 76
     1
176
     1
 77
     6
176
     1
 78
     2
176
     1
 67
     7
176
     1
 79
     3
176
     1
170
     0
176
     1
171
     0
176
     1
290
     0
176
     1
 93
        1
176
     1
 44
0.0
176
     1
173
     0
176
     1
  0
VISUALSTYLE
  5
A4
102
{ACAD_REACTORS
330
99
102
}
330
99
100
AcDbVisualStyle
  2
Dim
 70
    11
177
     2
291
     1
 71
     2
176
     1
 72
     2
176
     1
 73
     1
176
     1
 90
        0
176
     1
 40
0.6
176
     1
 41
30.0
176
     1
 63
     7
421
 16777215
176
     1
 74
     1
176
     1
 91
        4
176
     1
 64
     7
176
     1
 65
   257
176
     1
 75
     1
176
     1
175
     1
176
     1
 42
1.0
176
     1
 92
        8
176
     1
 66
     7
176
     1
 43
1.0
176
     1
 76
     1
176
     1
 77
     6
176
     1
 78
     2
176
     1
 67
     7
176
     1
 79
     5
176
     1
170
     0
176
     1
171
     0
176
     1
290
     0
176
     1
 93
        1
176
     1
 44
-50.0
176
     1
173
     0
176
     1
  0
VISUALSTYLE
  5
175
102
{ACAD_REACTORS
330
99
102
}
330
99
100
AcDbVisualStyle
  2
EdgeColorOff
 70
    22
177
     2
291
     1
 71
     2
176
     0
 72
     2
176
     0
 73
     0
176
     0
 90
        0
176
     0
 40
0.6
176
     0
 41
30.0
176
     0
 63
     7
421
 16777215
176
     0
 74
     1
176
     0
 91
        4
176
     0
 64
     7
176
     0
 65
   257
176
     0
 75
     1
176
     0
175
     1
176
     0
 42
1.0
176
     0
 92
        8
176
     2
 66
     7
176
     0
 43
1.0
176
     0
 76
     1
176
     0
 77
     6
176
     0
 78
     2
176
     0
 67
     7
176
     0
 79
     5
176
     0
170
     0
176
     0
171
     0
176
     0
290
     0
176
     0
 93
        1
176
     0
 44
0.0
176
     0
173
     0
176
     0
  0
VISUALSTYLE
  5
A8
102
{ACAD_REACTORS
330
99
102
}
330
99
100
AcDbVisualStyle
  2
Facepattern
 70
    15
177
     2
291
     1
 71
     2
176
     1
 72
     2
176
     1
 73
     1
176
     1
 90
        0
176
     1
 40
0.6
176
     1
 41
30.0
176
     1
 63
     7
421
 16777215
176
     1
 74
     1
176
     1
 91
        4
176
     1
 64
     7
176
     1
 65
   257
176
     1
 75
     1
176
     1
175
     1
176
     1
 42
1.0
176
     1
 92
        8
176
     1
 66
     7
176
     1
 43
1.0
176
     1
 76
     1
176
     1
 77
     6
176
     1
 78
     2
176
     1
 67
     7
176
     1
 79
     5
176
     1
170
     0
176
     1
171
     0
176
     1
290
     0
176
     1
 93
        1
176
     1
 44
0.0
176
     1
173
     0
176
     1
  0
VISUALSTYLE
  5
9A
102
{ACAD_REACTORS
330
99
102
}
330
99
100
AcDbVisualStyle
  2
Flat
 70
     0
177
     2
291
     1
 71
     2
176
     1
 72
     1
176
     1
 73
     1
176
     1
 90
        2
176
     1
 40
0.6
176
     1
 41
30.0
176
     1
 63
     7
421
 16777215
176
     1
 74
     0
176
     1
 91
        4
176
     1
 64
     7
176
     1
 65
   257
176
     1
 75
     1
176
     1
175
     1
176
     1
 42
1.0
176
     1
 92
        8
176
     1
 66
     7
176
     1
 43
1.0
176
     1
 76
     1
176
     1
 77
     6
176
     1
 78
     2
176
     1
 67
     7
176
     1
 79
     5
176
     1
170
     0
176
     1
171
     0
176
     1
290
     0
176
     1
 93
        1
176
     1
 44
0.0
176
     1
173
     0
176
     1
  0
VISUALSTYLE
  5
9B
102
{ACAD_REACTORS
330
99
102
}
330
99
100
AcDbVisualStyle
  2
FlatWithEdges
 70
     1
177
     2
291
     1
 71
     2
176
     1
 72
     1
176
     1
 73
     1
176
     1
 90
        2
176
     1
 40
0.6
176
     1
 41
30.0
176
     1
 63
     7
421
 16777215
176
     1
 74
     1
176
     1
 91
        4
176
     1
 64
     7
176
     1
 65
   257
176
     1
 75
     1
176
     1
175
     1
176
     1
 42
1.0
176
     1
 92
        0
176
     1
 66
   257
176
     1
 43
1.0
176
     1
 76
     1
176
     1
 77
     6
176
     1
 78
     2
176
     1
 67
     7
176
     1
 79
     5
176
     1
170
     0
176
     1
171
     0
176
     1
290
     0
176
     1
 93
        1
176
     1
 44
0.0
176
     1
173
     0
176
     1
  0
VISUALSTYLE
  5
9C
102
{ACAD_REACTORS
330
99
102
}
330
99
100
AcDbVisualStyle
  2
Gouraud
 70
     2
177
     2
291
     1
 71
     2
176
     1
 72
     2
176
     1
 73
     1
176
     1
 90
        2
176
     1
 40
0.6
176
     1
 41
30.0
176
     1
 63
     7
421
 16777215
176
     1
 74
     0
176
     1
 91
        4
176
     1
 64
     7
176
     1
 65
   257
176
     1
 75
     1
176
     1
175
     1
176
     1
 42
1.0
176
     1
 92
        0
176
     1
 66
     7
176
     1
 43
1.0
176
     1
 76
     1
176
     1
 77
     6
176
     1
 78
     2
176
     1
 67
     7
176
     1
 79
     5
176
     1
170
     0
176
     1
171
     0
176
     1
290
     0
176
     1
 93
        1
176
     1
 44
0.0
176
     1
173
     0
176
     1
  0
VISUALSTYLE
  5
9D
102
{ACAD_REACTORS
330
99
102
}
330
99
100
AcDbVisualStyle
  2
GouraudWithEdges
 70
     3
177
     2
291
     1
 71
     2
176
     1
 72
     2
176
     1
 73
     1
176
     1
 90
        2
176
     1
 40
0.6
176
     1
 41
30.0
176
     1
 63
     7
421
 16777215
176
     1
 74
     1
176
     1
 91
        4
176
     1
 64
     7
176
     1
 65
   257
176
     1
 75
     1
176
     1
175
     1
176
     1
 42
1.0
176
     1
 92
        0
176
     1
 66
   257
176
     1
 43
1.0
176
     1
 76
     1
176
     1
 77
     6
176
     1
 78
     2
176
     1
 67
     7
176
     1
 79
     5
176
     1
170
     0
176
     1
171
     0
176
     1
290
     0
176
     1
 93
        1
176
     1
 44
0.0
176
     1
173
     0
176
     1
  0
VISUALSTYLE
  5
17F
102
{ACAD_REACTORS
330
99
102
}
330
99
100
AcDbVisualStyle
  2
Hidden
 70
     6
177
     2
291
     0
 71
     1
176
     1
 72
     2
176
     1
 73
     2
176
     1
 90
        0
176
     1
 40
0.6
176
     1
 41
30.0
176
     1
 63
     7
421
 16777215
176
     1
 74
     2
176
     1
 91
        2
176
     1
 64
     7
176
     1
 65
   257
176
     1
 75
     2
176
     1
175
     1
176
     1
 42
40.0
176
     1
 92
        0
176
     1
 66
   257
176
     1
 43
1.0
176
     1
 76
     1
176
     1
 77
     6
176
     1
 78
     2
176
     1
 67
     7
176
     1
 79
     3
176
     1
170
     0
176
     1
171
     0
176
     1
290
     0
176
     1
 93
        1
176
     1
 44
0.0
176
     1
173
     0
176
     1
  0
VISUALSTYLE
  5
173
102
{ACAD_REACTORS
330
99
102
}
330
99
100
AcDbVisualStyle
  2
JitterOff
 70
    20
177
     2
291
     1
 71
     2
176
     0
 72
     2
176
     0
 73
     0
176
     0
 90
        0
176
     0
 40
0.6
176
     0
 41
30.0
176
     0
 63
     7
421
 16777215
176
     0
 74
     1
176
     0
 91
        4
176
     0
 64
     7
176
     0
 65
   257
176
     0
 75
     1
176
     0
175
     1
176
     0
 42
1.0
176
     0
 92
       10
176
     2
 66
     7
176
     0
 43
1.0
176
     0
 76
     1
176
     0
 77
     6
176
     0
 78
     2
176
     0
 67
     7
176
     0
 79
     5
176
     0
170
     0
176
     0
171
     0
176
     0
290
     0
176
     0
 93
        1
176
     0
 44
0.0
176
     0
173
     0
176
     0
  0
VISUALSTYLE
  5
A7
102
{ACAD_REACTORS
330
99
102
}
330
99
100
AcDbVisualStyle
  2
Linepattern
 70
    14
177
     2
291
     1
 71
     2
176
     1
 72
     2
176
     1
 73
     1
176
     1
 90
        0
176
     1
 40
0.6
176
     1
 41
30.0
176
     1
 63
     7
421
 16777215
176
     1
 74
     1
176
     1
 91
        4
176
     1
 64
     7
176
     1
 65
   257
176
     1
 75
     7
176
     1
175
     7
176
     1
 42
1.0
176
     1
 92
        8
176
     1
 66
     7
176
     1
 43
1.0
176
     1
 76
     1
176
     1
 77
     6
176
     1
 78
     2
176
     1
 67
     7
176
     1
 79
     5
176
     1
170
     0
176
     1
171
     0
176
     1
290
     0
176
     1
 93
        1
176
     1
 44
0.0
176
     1
173
     0
176
     1
  0
VISUALSTYLE
  5
174
102
{ACAD_REACTORS
330
99
102
}
330
99
100
AcDbVisualStyle
  2
OverhangOff
 70
    21
177
     2
291
     1
 71
     2
176
     0
 72
     2
176
     0
 73
     0
176
     0
 90
        0
176
     0
 40
0.6
176
     0
 41
30.0
176
     0
 63
     7
421
 16777215
176
     0
 74
     1
176
     0
 91
        4
176
     0
 64
     7
176
     0
 65
   257
176
     0
 75
     1
176
     0
175
     1
176
     0
 42
1.0
176
     0
 92
        9
176
     2
 66
     7
176
     0
 43
1.0
176
     0
 76
     1
176
     0
 77
     6
176
     0
 78
     2
176
     0
 67
     7
176
     0
 79
     5
176
     0
170
     0
176
     0
171
     0
176
     0
290
     0
176
     0
 93
        1
176
     0
 44
0.0
176
     0
173
     0
176
     0
  0
VISUALSTYLE
  5
A3
102
{ACAD_REACTORS
330
99
102
}
330
99
100
AcDbVisualStyle
  2
Realistic
 70
     8
177
     2
291
     0
 71
     2
176
     1
 72
     2
176
     1
 73
     1
176
     1
 90
        0
176
     1
 40
0.6
176
     1
 41
30.0
176
     1
 63
     7
421
 16777215
176
     1
 74
     1
176
     1
 91
        0
176
     1
 64
     7
176
     1
 65
   257
176
     1
 75
     1
176
     1
175
     1
176
     1
 42
1.0
176
     1
 92
        8
176
     1
 66
     8
424
  7895160
176
     1
 43
1.0
176
     1
 76
     1
176
     1
 77
     6
176
     1
 78
     2
176
     1
 67
     7
176
     1
 79
     5
176
     1
170
     0
176
     1
171
     0
176
     1
290
     0
176
     1
 93
       13
176
     1
 44
0.0
176
     1
173
     0
176
     1
  0
VISUALSTYLE
  5
184
102
{ACAD_REACTORS
330
99
102
}
330
99
100
AcDbVisualStyle
  2
Shaded
 70
    27
177
     2
291
     0
 71
     2
176
     1
 72
     2
176
     1
 73
     1
176
     1
 90
        2
176
     1
 40
0.6
176
     1
 41
30.0
176
     1
 63
     7
421
 16777215
176
     1
 74
     0
176
     1
 91
        4
176
     1
 64
     7
176
     1
 65
   257
176
     1
 75
     1
176
     1
175
     1
176
     1
 42
1.0
176
     1
 92
        8
176
     1
 66
   257
176
     1
 43
1.0
176
     1
 76
     1
176
     1
 77
     6
176
     1
 78
     2
176
     1
 67
     8
425
  7895160
176
     1
 79
     3
176
     1
170
     0
176
     1
171
     0
176
     1
290
     0
176
     1
 93
        5
176
     1
 44
0.0
176
     1
173
     0
176
     1
  0
VISUALSTYLE
  5
183
102
{ACAD_REACTORS
330
99
102
}
330
99
100
AcDbVisualStyle
  2
Shaded with edges
 70
    26
177
     2
291
     0
 71
     2
176
     1
 72
     2
176
     1
 73
     1
176
     1
 90
        2
176
     1
 40
0.6
176
     1
 41
30.0
176
     1
 63
     7
421
 16777215
176
     1
 74
     1
176
     1
 91
       10
176
     1
 64
     7
176
     1
 65
   257
176
     1
 75
     2
176
     1
175
     1
176
     1
 42
1.0
176
     1
 92
        8
176
     1
 66
   257
176
     1
 43
1.0
176
     1
 76
     1
176
     1
 77
     6
176
     1
 78
     2
176
     1
 67
     7
176
     1
 79
     3
176
     1
170
     0
176
     1
171
     0
176
     1
290
     0
176
     1
 93
        5
176
     1
 44
0.0
176
     1
173
     0
176
     1
  0
VISUALSTYLE
  5
180
102
{ACAD_REACTORS
330
99
102
}
330
99
100
AcDbVisualStyle
  2
Shades of Gray
 70
    23
177
     2
291
     0
 71
     2
176
     1
 72
     2
176
     1
 73
     3
176
     1
 90
        0
176
     1
 40
0.6
176
     1
 41
30.0
176
     1
 63
     7
421
 16777215
176
     1
 74
     2
176
     1
 91
        2
176
     1
 64
     7
176
     1
 65
     7
176
     1
 75
     1
176
     1
175
     1
176
     1
 42
40.0
176
     1
 92
        8
176
     1
 66
     7
176
     1
 43
1.0
176
     1
 76
     1
176
     1
 77
     6
176
     1
 78
     2
176
     1
 67
     7
176
     1
 79
     3
176
     1
170
     0
176
     1
171
     0
176
     1
290
     0
176
     1
 93
        1
176
     1
 44
0.0
176
     1
173
     0
176
     1
  0
VISUALSTYLE
  5
181
102
{ACAD_REACTORS
330
99
102
}
330
99
100
AcDbVisualStyle
  2
Sketchy
 70
    24
177
     2
291
     0
 71
     1
176
     1
 72
     2
176
     1
 73
     2
176
     1
 90
        0
176
     1
 40
0.6
176
     1
 41
30.0
176
     1
 63
     7
421
 16777215
176
     1
 74
     2
176
     1
 91
        2
176
     1
 64
     7
176
     1
 65
     7
176
     1
 75
     1
176
     1
175
     1
176
     1
 42
40.0
176
     1
 92
       11
176
     1
 66
     7
176
     1
 43
1.0
176
     1
 76
     1
176
     1
 77
     6
176
     1
 78
     2
176
     1
 67
     7
176
     1
 79
     6
176
     1
170
     0
176
     1
171
     0
176
     1
290
     0
176
     1
 93
        1
176
     1
 44
0.0
176
     1
173
     0
176
     1
  0
VISUALSTYLE
  5
A6
102
{ACAD_REACTORS
330
99
102
}
330
99
100
AcDbVisualStyle
  2
Thicken
 70
    13
177
     2
291
     1
 71
     2
176
     1
 72
     2
176
     1
 73
     1
176
     1
 90
        0
176
     1
 40
0.6
176
     1
 41
30.0
176
     1
 63
     7
421
 16777215
176
     1
 74
     1
176
     1
 91
        4
176
     1
 64
     7
176
     1
 65
   257
176
     1
 75
     1
176
     1
175
     1
176
     1
 42
1.0
176
     1
 92
       12
176
     1
 66
     7
176
     1
 43
1.0
176
     1
 76
     1
176
     1
 77
     6
176
     1
 78
     2
176
     1
 67
     7
176
     1
 79
     5
176
     1
170
     0
176
     1
171
     0
176
     1
290
     0
176
     1
 93
        1
176
     1
 44
0.0
176
     1
173
     0
176
     1
  0
VISUALSTYLE
  5
17E
102
{ACAD_REACTORS
330
99
102
}
330
99
100
AcDbVisualStyle
  2
Wireframe
 70
     5
177
     2
291
     0
 71
     0
176
     1
 72
     2
176
     1
 73
     0
176
     1
 90
        0
176
     1
 40
0.6
176
     1
 41
30.0
176
     1
 63
     7
421
 16777215
176
     1
 74
     1
176
     1
 91
        4
176
     1
 64
     7
176
     1
 65
   257
176
     1
 75
     1
176
     1
175
     1
176
     1
 42
1.0
176
     1
 92
        0
176
     1
 66
   257
176
     1
 43
1.0
176
     1
 76
     1
176
     1
 77
     6
176
     1
 78
     2
176
     1
 67
     7
176
     1
 79
     3
176
     1
170
     0
176
     1
171
     0
176
     1
290
     0
176
     1
 93
        1
176
     1
 44
0.0
176
     1
173
     0
176
     1
  0
VISUALSTYLE
  5
182
102
{ACAD_REACTORS
330
99
102
}
330
99
100
AcDbVisualStyle
  2
X-Ray
 70
    25
177
     2
291
     0
 71
     2
176
     1
 72
     2
176
     1
 73
     1
176
     1
 90
        1
176
     1
 40
0.5
176
     1
 41
30.0
176
     1
 63
     7
421
 16777215
176
     1
 74
     1
176
     1
 91
        0
176
     1
 64
     7
176
     1
 65
   257
176
     1
 75
     1
176
     1
175
     1
176
     1
 42
1.0
176
     1
 92
        8
176
     1
 66
     7
176
     1
 43
1.0
176
     1
 76
     1
176
     1
 77
     6
176
     1
 78
     2
176
     1
 67
     7
176
     1
 79
     3
176
     1
170
     0
176
     1
171
     0
176
     1
290
     0
176
     1
 93
       13
176
     1
 44
0.0
176
     1
173
     0
176
     1
  0
DICTIONARYVAR
  5
F0
102
{ACAD_REACTORS
330
66
102
}
330
66
100
DictionaryVariables
280
     0
  1
1:1
  0
DICTIONARYVAR
  5
EF
102
{ACAD_REACTORS
330
66
102
}
330
66
100
DictionaryVariables
280
     0
  1
STANDARD
  0
DICTIONARYVAR
  5
89
102
{ACAD_REACTORS
330
66
102
}
330
66
100
DictionaryVariables
280
     0
  1
STANDARD
  0
DICTIONARYVAR
  5
67
102
{ACAD_REACTORS
330
66
102
}
330
66
100
DictionaryVariables
280
     0
  1
2
  0
DICTIONARYVAR
  5
6B
102
{ACAD_REACTORS
330
66
102
}
330
66
100
DictionaryVariables
280
     0
  1
1
  0
DICTIONARYVAR
  5
14D
102
{ACAD_REACTORS
330
66
102
}
330
66
100
DictionaryVariables
280
     0
  1
0
  0
DICTIONARYVAR
  5
14E
102
{ACAD_REACTORS
330
66
102
}
330
66
100
DictionaryVariables
280
     0
  1
0
  0
DICTIONARY
  5
EE2
330
22
100
AcDbDictionary
280
     1
281
     1
  3
ADSK_XREC_LAYOUTTHUMBNAIL
360
EE3
  0
DICTIONARY
  5
110
330
98
100
AcDbDictionary
280
     1
281
     1
  3
BUMPTILE
360
112
  3
DIFFUSETILE
360
111
  3
FBXASSET
360
3D4
  3
OPACITYTILE
360
113
  3
REFLECTIONTILE
360
114
  0
DICTIONARY
  5
104
330
87
100
AcDbDictionary
280
     1
281
     1
  3
ACAD_ROUNDTRIP_2008_TABLESTYLE_CELLSTYLEMAP
360
1A5C
  0
XRECORD
  5
EE3
102
{ACAD_REACTORS
330
EE2
102
}
330
EE2
100
AcDbXrecord
280
     1
310
280000000001000072000000010008000000000000720000000000000000000000010000000000003028210000000000FFFFFF000000000000000000000000000000000000000000000000000000000000000000330000006600000099000000CC000000FF00000000330000333300006633000099330000CC330000FF3300
310
0000660000336600006666000099660000CC660000FF66000000990000339900006699000099990000CC990000FF99000000CC000033CC000066CC000099CC0000CCCC0000FFCC000000FF000033FF000066FF000099FF0000CCFF0000FFFF000000003300330033006600330099003300CC003300FF003300003333003333
310
33006633330099333300CC333300FF33330000663300336633006666330099663300CC663300FF66330000993300339933006699330099993300CC993300FF99330000CC330033CC330066CC330099CC3300CCCC3300FFCC330000FF330033FF330066FF330099FF3300CCFF3300FFFF330000006600330066006600660099
310
006600CC006600FF00660000336600333366006633660099336600CC336600FF33660000666600336666006666660099666600CC666600FF66660000996600339966006699660099996600CC996600FF99660000CC660033CC660066CC660099CC6600CCCC6600FFCC660000FF660033FF660066FF660099FF6600CCFF6600
310
FFFF660000009900330099006600990099009900CC009900FF00990000339900333399006633990099339900CC339900FF33990000669900336699006666990099669900CC669900FF66990000999900339999006699990099999900CC999900FF99990000CC990033CC990066CC990099CC9900CCCC9900FFCC990000FF99
310
0033FF990066FF990099FF9900CCFF9900FFFF99000000CC003300CC006600CC009900CC00CC00CC00FF00CC000033CC003333CC006633CC009933CC00CC33CC00FF33CC000066CC003366CC006666CC009966CC00CC66CC00FF66CC000099CC003399CC006699CC009999CC00CC99CC00FF99CC0000CCCC0033CCCC0066CC
310
CC0099CCCC00CCCCCC00FFCCCC0000FFCC0033FFCC0066FFCC0099FFCC00CCFFCC00FFFFCC000000FF003300FF006600FF009900FF00CC00FF00FF00FF000033FF003333FF006633FF009933FF00CC33FF00FF33FF000066FF003366FF006666FF009966FF00CC66FF00FF66FF000099FF003399FF006699FF009999FF00CC
310
99FF00FF99FF0000CCFF0033CCFF0066CCFF0099CCFF00CCCCFF00FFCCFF0000FFFF0033FFFF0066FFFF0099FFFF00CCFFFF00FFFFFF00000000000D0D0D001A1A1A00282828003535350043434300505050005D5D5D006B6B6B00787878008686860093939300A1A1A100AEAEAE00BBBBBB00C9C9C900D6D6D600E4E4E400
310
F1F1F100FFFFFF000000000000000000000000000000000000000000000000000000000000000000000000000000000000000000000000000000000000000000000000000000000000000000000000000000000000000000000000000000000000000000000000000000000000000000000000000000000000000000000000
310
00000000000000000000000000000000000000000000000000000000000000000000000000000000000000000000000000000000000000000000000000000000000000000000000000000000000000000000000000000000000000000000000000000000000000000000000000000000000000000000000000000000000000
310
00000000000000000000000000000000000000000000000000000000000000000000000000000000000000000000000000000000000000000000000000000000000000000000000000000000000000000000000000000000000000000000000000000000000000000000000000000000000000000000000000000000000000
310
00000000000000000000000000000000000000000000000000000000000000000000000000000000000000000000000000000000000000000000000000000000000000000000000000000000000000000000000000000000000000000000000000000000000000000000000000000000000000000000000000000000000000
310
00000000000000000000000000000000000000000000000000000000000000000000000000000000000000000000000000000000000000000000000000000000000000000000000000000000000000000000000000000000000000000000000000000000000000000000000000000000000000000000000000000000000000
310
00000000000000000000000000000000000000000000000000000000000000000000000000000000000000000000000000000000000000000000000000000000000000000000000000000000000000000000000000000000000000000000000000000000000000000000000000000000000000000000000000000000000000
310
00000000000000000000000000000000000000000000000000000000000000000000000000000000000000000000000000000000000000000000000000000000000000000000000000000000000000000000000000000000000000000000000000000000000000000000000000000000000000000000000000000000000000
310
00000000000000000000000000000000000000000000000000000000000000000000000000000000000000000000000000000000000000000000000000000000000000000000000000000000000000000000000000000000000000000000000000000000000000000000000000000000000000000000000000000000000000
310
00000000000000000000000000000000000000000000000000000000000000000000000000000000000000000000000000000000000000000000000000000000000000000000000000000000000000000000000000000000000000000000000000000000000000000000000000000000000000000000000000000000000000
310
00000000000000000000000000000000000000000000000000000000000000000000000000000000000000000000000000000000000000000000000000000000000000000000000000000000000000000000000000000000000000000000000000000000000000000000000000000000000000000000000000000000000000
310
00000000000000000000000000000000000000000000000000000000000000000000000000000000000000000000000000000000000000000000000000000000000000000000000000000000000000000000000000000000000000000000000000000000000000000000000000000000000000000000000000000000000000
310
00000000000000000000000000000000000000000000000000000000000000000000000000000000000000000000000000000000000000000000000000000000000000000000000000000000000000000000000000000000000000000000000000000000000000000000000000000000000000000000000000000000000000
310
00000000000000000000000000000000000000000000000000000000000000000000000000000000000000000000000000000000000000000000000000000000000000000000000000000000000000000000000000000000000000000000000000000000000000000000000000000000000000000000000000000000000000
310
00000000000000000000000000000000000000000000000000000000000000000000000000000000000000000000000000000000000000000000000000000000000000000000000000000000000000000000000000000000000000000000000000000000000000000000000000000000000000000000000000000000000000
310
00000000000000000000000000000000000000000000000000000000000000000000000000000000000000000000000000000000000000000000000000000000000000000000000000000000000000000000000000000000000000000000000000000000000000000000000000000000000000000000000000000000000000
310
00000000000000000000000000000000000000000000000000000000000000000000000000000000000000000000000000000000000000000000000000000000000000000000000000000000000000000000000000000000000000000000000000000000000000000000000000000000000000000000000000000000000000
310
00000000000000000000000000000000000000000000000000000000000000000000000000000000000000000000000000000000000000000000000000000000000000000000000000000000000000000000000000000000000000000000000000000000000000000000000000000000000000000000000000000000000000
310
00000000000000000000000000000000000000000000000000000000000000000000000000000000000000000000000000000000000000000000000000000000000000000000000000000000000000000000000000000000000000000000000000000000000000000000000000000000000000000000000000000000000000
310
00000000000000000000000000000000000000000000000000000000000000000000000000000000000000000000000000000000000000000000000000000000000000000000000000000000000000000000000000000000000000000000000000000000000000000000000000000000000000000000000000000000000000
310
00000000000000000000000000000000000000000000000000000000000000000000000000000000000000000000000000000000000000000000000000000000000000000000000000000000000000000000000000000000000000000000000000000000000000000000000000000000000000000000000000000000000000
310
00000000000000000000000000000000000000000000000000000000000000000000000000000000000000000000000000000000000000000000000000000000000000000000000000000000000000000000000000000000000000000000000000000000000000000000000000000000000000000000000000000000000000
310
00000000000000000000000000000000000000000000000000000000000000000000000000000000000000000000000000000000000000000000000000000000000000000000000000000000000000000000000000000000000000000000000000000000000000000000000000000000000000000000000000000000000000
310
00000000000000000000000000000000000000000000000000000000000000000000000000000000000000000000000000000000000000000000000000000000000000000000000000000000000000000000000000000000000000000000000000000000000000000000000000000000000000000000000000000000000000
310
00000000000000000000000000000000000000000000000000000000000000000000000000000000000000000000000000000000000000000000000000000000000000000000000000000000000000000000000000000000000000000000000000000000000000000000000000000000000000000000000000000000000000
310
00000000000000000000000000000000000000000000000000000000000000000000000000000000000000000000000000000000000000000000000000000000000000000000000000000000000000000000000000000000000000000000000000000000000000000000000000000000000000000000000000000000000000
310
00000000000000000000000000000000000000000000000000000000000000000000000000000000000000000000000000000000000000000000000000000000000000000000000000000000000000000000000000000000000000000000000000000000000000000000000000000000000000000000000000000000000000
310
00000000000000000000000000000000000000000000000000000000000000000000000000000000000000000000000000000000000000000000000000000000000000000000000000000000000000000000000000000000000000000000000000000000000000000000000000000000000000000000000000000000000000
310
00000000000000000000000000000000000000000000000000000000000000000000000000000000000000000000000000000000000000000000000000000000000000000000000000000000000000000000000000000000000000000000000000000000000000000000000000000000000000000000000000000000000000
310
00000000000000000000000000000000000000000000000000000000000000000000000000000000000000000000000000000000000000000000000000000000000000000000000000000000000000000000000000000000000000000000000000000000000000000000000000000000000000000000000000000000000000
310
00000000000000000000000000000000000000000000000000000000000000000000000000000000000000000000000000000000000000000000000000000000000000000000000000000000000000000000000000000000000000000000000000000000000000000000000000000000000000000000000000000000000000
310
00000000000000000000000000000000000000000000000000000000000000000000000000000000000000000000000000000000000000000000000000000000000000000000000000000000000000000000000000000000000000000000000000000000000000000000000000000000000000000000000000000000000000
310
00000000000000000000000000000000000000000000000000000000000000000000000000000000000000000000000000000000000000000000000000000000000000000000000000000000000000000000000000000000000000000000000000000000000000000000000000000000000000000000000000000000000000
310
00000000000000000000000000000000000000000000000000000000000000000000000000000000000000000000000000000000000000000000000000000000000000000000000000000000000000000000000000000000000000000000000000000000000000000000000000000000000000000000000000000000000000
310
00000000000000000000000000000000000000000000000000000000000000000000000000000000000000000000000000000000000000000000000000000000000000000000000000000000000000000000000000000000000000000000000000000000000000000000000000000000000000000000000000000000000000
310
00000000000000000000000000000000000000000000000000000000000000000000000000000000000000000000000000000000000000000000000000000000000000000000000000000000000000000000000000000000000000000000000000000000000000000000000000000000000000000000000000000000000000
310
00000000000000000000000000000000000000000000000000000000000000000000000000000000000000000000000000000000000000000000000000000000000000000000000000000000000000000000000000000000000000000000000000000000000000000000000000000000000000000000000000000000000000
310
00000000000000000000000000000000000000000000000000000000000000000000000000000000000000000000000000000000000000000000000000000000000000000000000000000000000000000000000000000000000000000000000000000000000000000000000000000000000000000000000000000000000000
310
00000000000000000000000000000000000000000000000000000000000000000000000000000000000000000000000000000000000000000000000000000000000000000000000000000000000000000000000000000000000000000000000000000000000000000000000000000000000000000000000000000000000000
310
00000000000000000000000000000000000000000000000000000000000000000000000000000000000000000000000000000000000000000000000000000000000000000000000000000000000000000000000000000000000000000000000000000000000000000000000000000000000000000000000000000000000000
310
00000000000000000000000000000000000000000000000000000000000000000000000000000000000000000000000000000000000000000000000000000000000000000000000000000000000000000000000000000000000000000000000000000000000000000000000000000000000000000000000000000000000000
310
00000000000000000000000000000000000000000000000000000000000000000000000000000000000000000000000000000000000000000000000000000000000000000000000000000000000000000000000000000000000000000000000000000000000000000000000000000000000000000000000000000000000000
310
00000000000000000000000000000000000000000000000000000000000000000000000000000000000000000000000000000000000000000000000000000000000000000000000000000000000000000000000000000000000000000000000000000000000000000000000000000000000000000000000000000000000000
310
00000000000000000000000000000000000000000000000000000000000000000000000000000000000000000000000000000000000000000000000000000000000000000000000000000000000000000000000000000000000000000000000000000000000000000000000000000000000000000000000000000000000000
310
00000000000000000000000000000000000000000000000000000000000000000000000000000000000000000000000000000000000000000000000000000000000000000000000000000000000000000000000000000000000000000000000000000000000000000000000000000000000000000000000000000000000000
310
00000000000000000000000000000000000000000000000000000000000000000000000000000000000000000000000000000000000000000000000000000000000000000000000000000000000000000000000000000000000000000000000000000000000000000000000000000000000000000000000000000000000000
310
00000000000000000000000000000000000000000000000000000000000000000000000000000000000000000000000000000000000000000000000000000000000000000000000000000000000000000000000000000000000000000000000000000000000000000000000000000000000000000000000000000000000000
310
00000000000000000000000000000000000000000000000000000000000000000000000000000000000000000000000000000000000000000000000000000000000000000000000000000000000000000000000000000000000000000000000000000000000000000000000000000000000000000000000000000000000000
310
00000000000000000000000000000000000000000000000000000000000000000000000000000000000000000000000000000000000000000000000000000000000000000000000000000000000000000000000000000000000000000000000000000000000000000000000000000000000000000000000000000000000000
310
00000000000000000000000000000000000000000000000000000000000000000000000000000000000000000000000000000000000000000000000000000000000000000000000000000000000000000000000000000000000000000000000000000000000000000000000000000000000000000000000000000000000000
310
00000000000000000000000000000000000000000000000000000000000000000000000000000000000000000000000000000000000000000000000000000000000000000000000000000000000000000000000000000000000000000000000000000000000000000000000000000000000000000000000000000000000000
310
00000000000000000000000000000000000000000000000000000000000000000000000000000000000000000000000000000000000000000000000000000000000000000000000000000000000000000000000000000000000000000000000000000000000000000000000000000000000000000000000000000000000000
310
00000000000000000000000000000000000000000000000000000000000000000000000000000000000000000000000000000000000000000000000000000000000000000000000000000000000000000000000000000000000000000000000000000000000000000000000000000000000000000000000000000000000000
310
00000000000000000000000000000000000000000000000000000000000000000000000000000000000000000000000000000000000000000000000000000000000000000000000000000000000000000000000000000000000000000000000000000000000000000000000000000000000000000000000000000000000000
310
00000000000000000000000000000000000000000000000000000000000000000000000000000000000000000000000000000000000000000000000000000000000000000000000000000000000000000000000000000000000000000000000000000000000000000000000000000000000000000000000000000000000000
310
00000000000000000000000000000000000000000000000000000000000000000000000000000000000000000000000000000000000000000000000000000000000000000000000000000000000000000000000000000000000000000000000000000000000000000000000000000000000000000000000000000000000000
310
00000000000000000000000000000000000000000000000000000000000000000000000000000000000000000000000000000000000000000000000000000000000000000000000000000000000000000000000000000000000000000000000000000000000000000000000000000000000000000000000000000000000000
310
00000000000000000000000000000000000000000000000000000000000000000000000000000000000000000000000000000000000000000000000000000000000000000000000000000000000000000000000000000000000000000000000000000000000000000000000000000000000000000000000000000000000000
310
00000000000000000000000000000000000000000000000000000000000000000000000000000000000000000000000000000000000000000000000000000000000000000000000000000000000000000000000000000000000000000000000000000000000000000000000000000000000000000000000000000000000000
310
00000000000000000000000000000000000000000000000000000000000000000000000000000000000000000000000000000000000000000000000000000000000000000000000000000000000000000000000000000000000000000000000000000000000000000000000000000000000000000000000000000000000000
310
00000000000000000000000000000000000000000000000000000000000000000000000000000000000000000000000000000000000000000000000000000000000000000000000000000000000000000000000000000000000000000000000000000000000000000000000000000000000000000000000000000000000000
310
00000000000000000000000000000000000000000000000000000000000000000000000000000000000000000000000000000000000000000000000000000000000000000000000000000000000000000000000000000000000000000000000000000000000000000000000000000000000000000000000000000000000000
310
00000000000000000000000000000000000000000000000000000000000000000000000000000000000000000000000000000000000000000000000000000000000000000000000000000000000000000000000000000000000000000000000000000000000000000000000000000000000000000000000000000000000000
310
00000000000000000000000000000000000000000000000000000000000000000000000000000000000000000000000000000000000000000000000000000000000000000000000000000000000000000000000000000000000000000000000000000000000000000000000000000000000000000000000000000000000000
310
00000000000000000000000000000000000000000000000000000000000000000000000000000000000000000000000000000000000000000000000000000000000000000000000000000000000000000000000000000000000000000000000000000000000000000000000000000000000000000000000000000000000000
310
00000000000000000000000000000000000000000000000000000000000000000000000000000000000000000000000000000000000000000000000000000000000000000000000000000000000000000000000000000000000000000000000000000000000000000000000000000000000000000000000000000000000000
310
00000000000000000000000000000000000000000000000000000000000000000000000000000000000000000000000000000000000000000000000000000000000000000000000000000000000000000000000000000000000000000000000000000000000000000000000000000000000000000000000000000000000000
310
00000000000000000000000000000000000000000000000000000000000000000000000000000000000000000000000000000000000000000000000000000000000000000000000000000000000000000000000000000000000000000000000000000000000000000000000000000000000000000000000000000000000000
310
00000000000000000000000000000000000000000000000000000000000000000000000000000000000000000000000000000000000000000000000000000000000000000000000000000000000000000000000000000000000000000000000000000000000000000000000000000000000000000000000000000000000000
310
00000000000000000000000000000000000000000000000000000000000000000000000000000000000000000000000000000000000000000000000000000000000000000000000000000000000000000000000000000000000000000000000000000000000000000000000000000000000000000000000000000000000000
310
00000000000000000000000000000000000000000000000000000000000000000000000000000000000000000000000000000000000000000000000000000000000000000000000000000000000000000000000000000000000000000000000000000000000000000000000000000000000000000000000000000000000000
310
00000000000000000000000000000000000000000000000000000000000000000000000000000000000000000000000000000000000000000000000000000000000000000000000000000000000000000000000000000000000000000000000000000000000000000000000000000000000000000000000000000000000000
310
00000000000000000000000000000000000000000000000000000000000000000000000000000000000000000000000000000000000000000000000000000000000000000000000000000000000000000000000000000000000000000000000000000000000000000000000000000000000000000000000000000000000000
310
00000000000000000000000000000000000000000000000000000000000000000000000000000000000000000000000000000000000000000000000000000000000000000000000000000000000000000000000000000000000000000000000000000000000000000000000000000000000000000000000000000000000000
310
00000000000000000000000000000000000000000000000000000000000000000000000000000000000000000000000000000000000000000000000000000000000000000000000000000000000000000000000000000000000000000000000000000000000000000000000000000000000000000000000000000000000000
310
00000000000000000000000000000000000000000000000000000000000000000000000000000000000000000000000000000000000000000000000000000000000000000000000000000000000000000000000000000000000000000000000000000000000000000000000000000000000000000000000000000000000000
310
00000000000000000000000000000000000000000000000000000000000000000000000000000000000000000000000000000000000000000000000000000000000000000000000000000000000000000000000000000000000000000000000000000000000000000000000000000000000000000000000000000000000000
310
00000000000000000000000000000000000000000000000000000000000000000000000000000000000000000000000000000000000000000000000000000000000000000000000000000000000000000000000000000000000000000000000000000000000000000000000000000000000000000000000000000000000000
310
00000000000000000000000000000000000000000000000000000000000000000000000000000000000000000000000000000000000000000000000000000000000000000000000000000000000000000000000000000000000000000000000000000000000000000000000000000000000000000000000000000000000000
310
00000000000000000000000000000000000000000000000000000000000000000000000000000000000000000000000000000000000000000000000000000000000000000000000000000000000000000000000000000000000000000000000000000000000000000000000000000000000000000000000000000000000000
310
00000000000000000000000000000000000000000000000000000000000000000000000000000000000000000000000000000000000000000000000000000000000000000000000000000000000000000000000000000000000000000000000000000000000000000000000000000000000000000000000000000000000000
310
00000000000000000000000000000000000000000000000000000000000000000000000000000000000000000000000000000000000000000000000000000000000000000000000000000000000000000000000000000000000000000000000000000000000000000000000000000000000000000000000000000000000000
310
00000000000000000000000000000000000000000000000000000000000000000000000000000000000000000000000000000000000000000000000000000000000000000000000000000000000000000000000000000000000000000000000000000000000000000000000000000000000000000000000000000000000000
310
0000000000000000000000000000000000000000000000000000F500000000000000000000000000000000000000000000000000000000000000000000000000000000000000000000000000000000000000000000000000000000000000000000000000000000000000000000000000000000000000000000000000000000
310
00000000000000000000000000000000000000000000000000000000000000000000000000000000000000000000000000000000000000000000000000000000000000000000000000000000000000000000000000000000000000000000000000000000000000000000000000000000000000000000000000000000000000
310
000000000000000000000000000000000000000000000000000000F5F50000000000000000000000000000000000000000000000000000000000000000000000000000000000000000000000000000000000000000000000000000000000000000000000000000000000000000000000000000000000000000000000000000
310
00000000000000000000000000000000000000000000000000000000000000000000000000000000000000000000000000000000000000000000000000000000000000000000000000000000000000000000000000000000000000000000000000000000000000000000000000000000000000000000000000000000000000
310
00000000000000000000000000000000000000000000000000000000F5F5F50000000000000000000000000000000000000000000000F5F5F500000000000000000000000000000000000000000000000000000000000000000000000000000000000000000000000000000000000000000000000000000000000000000000
310
0000000000000000000000000000000000000000000000000000000000000000000000000000000000000000000000000000000000000000000000000000000000000000000000000000000000F5F5F5F5F5F5F5F5F500000000000000000000000000000000F5F5F5F5F5F5F5F5F500000000000000000000000000000000
310
0000F5F5F5F5F5F5F50000000000000000000000000000000000000000F5F5F5F5F5F500000000000000000000000000000000000000000000F5F5F5F5000000000000000000000000000000000000000000F5F5F5F5F5F5000000000000000000000000000000000000000000000000000000000000000000000000000000
310
00000000000000000000000000000000000000000000000000000000000000000000000000000000000000000000000000000000000000000000000000000000000000000000000000000000000000F5000000F500F500F500000000000000000000000000000000F500F50000F50000F50000000000000000000000000000
310
00000000F5F50000F500F50000000000000000000000000000000000000000F500F50000F5000000000000000000000000000000000000000000F5F5F500F5000000000000000000000000000000000000000000F50000F5F5F5F5000000000000000000000000000000000000000000000000000000000000000000000000
310
000000000000000000000000000000000000000000000000000000000000000000000000000000000000000000000000000000000000000000000000000000000000000000000000000000000000000000F5000000F500F5F5F500000000000000000000000000000000F500F50000F50000F5000000000000000000000000
310
000000000000F5F50000F500F50000000000000000000000000000000000000000F5F5F5F500F5000000000000000000000000000000000000000000F5F5F500F5000000000000000000000000000000000000000000F50000F5F5F5F5F5000000000000000000000000000000000000000000000000000000000000000000
310
0000000000000000000000000000000000000000000000000000000000000000000000000000000000000000000000000000000000000000000000000000000000000000000000000000000000000000000000F5000000F500F500F500000000000000000000000000000000F500F50000F50000F500000000000000000000
310
0000000000000000F5F50000F500F50000000000000000000000000000000000000000F5F5F50000F5000000000000000000000000000000000000000000F5F5F500F5000000000000000000000000000000000000000000F50000F50000F5F500000000000000000000000000000000000000000000000000000000000000
310
00000000000000000000000000000000000000000000000000000000000000000000000000000000000000000000000000000000000000000000000000000000000000000000000000000000000000000000000000F5000000F500F500F500000000000000000000000000000000F5F5F50000F50000F50000000000000000
310
00000000000000000000F5F5F5F5F500F50000000000000000000000000000000000000000F500F50000F5000000000000000000000000000000000000000000F500F500F5000000000000000000000000000000000000000000F50000F500F5F5F50000000000000000000000000000000000000000000000000000000000
310
000000000000000000000000000000000000000000000000000000000000000000000000000000000000000000000000000000000000000000000000000000000000000000000000000000000000000000000000000000F5000000F500F500F5000000000000000000000000000000000000F5F5F5F50000F5000000000000
310
00000000000000000000000000F5F5F5F500F50000000000000000000000000000000000000000F500F50000F500000000000000000000000000000000000000000000F5F500F5000000000000000000000000000000000000000000F50000F5F5F5F500000000000000000000000000000000000000000000000000000000
310
0000000000000000000000000000000000000000000000000000000000000000000000000000000000000000000000000000000000000000000000000000000000000000000000000000000000000000000000000000000000F5000000F5F5F5F5F5000000000000000000000000000000000000F50000F50000F500000000
310
000000000000000000000000000000F50000F500F50000000000000000000000000000000000000000F500F50000F5000000000000000000000000000000000000000000F500F500F5000000000000000000000000000000000000000000F5000000F5F5000000000000000000000000000000000000000000000000000000
310
00000000000000000000000000000000000000000000000000000000000000000000000000000000000000000000000000000000000000000000000000000000000000000000000000000000000000000000000000000000000000F5000000F500F50000000000000000000000000000000000000000F5F5F5F50000F50000
310
0000000000000000000000000000000000F50000F500F50000000000000000000000000000000000000000F500F50000F5000000000000000000000000000000000000000000F500F500F5000000000000000000000000000000000000000000F5000000F5F500000000000000000000000000000000000000000000000000
310
000000000000000000000000000000000000000000000000000000000000000000000000000000000000000000000000000000000000000000000000000000000000000000000000000000000000000000000000000000000000000000F5000000F500F50000000000000000000000000000000000000000F50000F50000F5
310
00000000000000000000000000000000000000F50000F500F50000000000000000000000000000000000000000F500F50000F5000000000000000000000000000000000000000000F500F500F5000000000000000000000000000000000000000000F5000000F5F50000000000000000000000000000000000000000000000
310
0000000000000000000000000000000000000000000000000000000000000000000000000000000000000000000000000000000000000000000000000000000000000000000000000000000000000000000000000000000000000000000000F5000000F5F5F50000000000000000000000000000000000000000F50000F500
310
00F500000000000000000000000000000000000000F50000F500F50000000000000000000000000000000000000000F500F50000F5000000000000000000000000000000000000000000F500F500F5000000000000000000000000000000000000000000F50000F500F5000000000000000000000000000000000000000000
310
00000000000000000000000000000000000000000000000000000000000000000000000000000000000000000000000000000000000000000000000000000000000000000000000000000000000000000000000000000000000000000000000000F5000000F5F5F50000000000000000000000000000000000000000F50000
310
F50000F500000000000000000000000000000000000000F50000F500F50000000000000000000000000000000000000000F500F50000F5000000000000000000000000000000000000000000F500F500F5000000000000000000000000000000000000000000F50000F500F500000000000000000000000000000000000000
310
000000000000000000000000000000000000000000000000000000000000000000000000000000000000000000000000000000000000000000000000000000000000000000000000000000000000000000000000000000000000000000000000000000F5000000F500F50000000000000000000000000000000000000000F5
310
0000F50000F500000000000000000000000000000000000000F50000F500F50000000000000000000000000000000000000000F500F50000F5000000000000000000000000000000000000000000F500F500F5000000000000000000000000000000000000000000F50000F500F50000000000000000000000000000000000
310
0000000000000000000000000000000000000000000000000000000000000000000000000000000000000000000000000000000000000000000000000000000000000000000000000000000000000000000000000000000000000000000000000000000000F5000000F500F500000000000000000000000000000000000000
310
00F50000F50000F500000000000000000000000000000000000000F50000F500F5F500000000000000000000000000000000000000F500F50000F5F50000000000000000000000000000000000000000F500F500F5F50000000000000000000000000000000000000000F50000F500F5000000000000000000000000000000
310
00000000000000000000000000000000000000000000000000000000000000000000000000000000000000000000000000000000000000000000000000000000000000000000000000000000000000000000000000000000000000000000000000000000000000F5000000F500F50000000000000000000000000000000000
310
000000F50000F50000F500000000000000000000000000000000000000F50000F500F50000000000000000000000000000000000000000F5F5F5F500F5F50000000000000000000000000000000000000000F500F500F5F50000000000000000000000000000000000000000F50000F500F500000000000000000000000000
310
000000000000000000000000000000000000000000000000000000000000000000000000000000000000000000000000000000000000000000000000000000000000000000000000000000000000000000000000000000000000000000000000000000000000000000F5000000F500F5000000000000000000000000000000
310
0000000000F50000F50000F500000000000000000000000000000000000000F50000F500F50000000000000000000000000000000000000000F5F5F50000F5000000000000000000000000000000000000000000F500F500F5000000000000000000000000000000000000000000F50000F5F5F50000000000000000000000
310
0000000000000000000000000000000000000000000000000000000000000000000000000000000000000000000000000000000000000000000000000000000000000000000000000000000000000000000000000000000000000000000000000000000000000000000000F5000000F500F500000000000000000000000000
310
00000000000000F50000F50000F500000000000000000000000000000000000000F50000F500F50000000000000000000000000000000000000000F5F5F50000F5000000000000000000000000000000000000000000F500F500F5000000000000000000000000000000000000000000F50000F500F5F50000000000000000
310
00000000000000000000000000000000000000000000000000000000000000000000000000000000000000000000000000000000000000000000000000000000000000000000000000000000000000000000000000000000000000000000000000000000000000000000000000F5000000F500F50000000000000000000000
310
000000000000000000F50000F50000F500000000000000000000000000000000000000F50000F500F50000000000000000000000000000000000000000F5F5F50000F5000000000000000000000000000000000000000000F500F500F5000000000000000000000000000000000000000000F50000F5F5F5F5000000000000
310
000000000000000000000000000000000000000000000000000000000000000000000000000000000000000000000000000000000000000000000000000000000000000000000000000000000000000000000000000000000000000000000000000000000000000000000000000000F5000000F500F5000000000000000000
310
0000000000000000000000F50000F50000F500000000000000000000000000000000000000F50000F500F50000000000000000000000000000000000000000F500F5F500F5000000000000000000000000000000000000000000F500F500F5000000000000000000000000000000000000000000F50000F5F5F5F500000000
310
0000000000000000000000000000000000000000000000000000000000000000000000000000000000000000000000000000000000000000000000000000000000000000000000000000000000000000000000000000000000000000000000000000000000000000000000000000000000F5000000F500F500000000000000
310
00000000000000000000000000F50000F50000F500000000000000000000000000000000000000F50000F500F50000000000000000000000000000000000000000F5F5F50000F5000000000000000000000000000000000000000000F5F5F500F5000000000000000000000000000000000000000000F50000F50000F5F5F5
310
00000000000000000000000000000000000000000000000000000000000000000000000000000000000000000000000000000000000000000000000000000000000000000000000000000000000000000000000000000000000000000000000000000000000000000000000000000000000000F5000000F5F5F50000000000
310
000000000000000000000000000000F5F5F5F50000F500000000000000000000000000000000000000F50000F500F50000000000000000000000000000000000F5F5F5F5F5F5F500F5000000000000000000000000000000000000000000F500F500F5000000000000000000000000000000000000000000F50000F50000F5
310
00F500000000000000000000000000000000000000000000000000000000000000000000000000000000000000000000000000000000000000000000000000000000000000000000000000000000000000000000000000000000000000000000000000000000000000000000000000000000000000F5000000F5F5F5F5F500
310
0000000000000000000000000000000000F50000F50000F500000000000000000000000000000000000000F50000F500F50000000000000000000000000000000000F50000F50000F500F500000000000000000000000000000000000000F5F5F5F5F500F5000000000000000000000000000000000000000000F50000F500
310
00F500F500000000000000000000000000000000000000000000000000000000000000000000000000000000000000000000000000000000000000000000000000000000000000000000000000000000000000000000000000000000000000000000000000000000000000000000000000000000000000F5000000F500F500
310
F5000000000000000000000000000000000000F5F5F5F50000F500000000000000000000000000000000000000F5F5F5F500F50000000000000000000000000000000000F50000F50000F500F500000000000000000000000000000000000000F500F500F500F5000000000000000000000000000000000000000000F50000
310
F50000F500F500000000000000000000000000000000000000000000000000000000000000000000000000000000000000000000000000000000000000000000000000000000000000000000000000000000000000000000000000000000000000000000000000000000000000000000000000000000000000F5000000F500
310
F5F5F500000000000000000000000000000000F5F5F5F5F5F50000F50000000000000000000000000000000000F5F5F5F5F5F500F50000000000000000000000000000000000F50000F50000F500F500000000000000000000000000000000000000F5F5F500F500F5000000000000000000000000000000000000000000F5
310
0000F50000F500F500000000000000000000000000000000000000000000000000000000000000000000000000000000000000000000000000000000000000000000000000000000000000000000000000000000000000000000000000000000000000000000000000000000000000000000000000000000000000F5000000
310
F500F5F5F500000000000000000000000000000000F500F50000F50000F50000000000000000000000000000000000F500F50000F500F50000000000000000000000000000000000F50000F50000F500F500000000000000000000000000000000000000F5F5F500F500F50000000000000000000000000000000000000000
310
00F50000F50000F500F500000000000000000000000000000000000000000000000000000000000000000000000000000000000000000000000000000000000000000000000000000000000000000000000000000000000000000000000000000000000000000000000000000000000000000000000000000000000000F500
310
0000F500F500F500000000000000000000000000000000F500F50000F50000F50000000000000000000000000000000000F500F50000F500F50000000000000000000000000000000000F50000F50000F500F500000000000000000000000000000000000000F500F500F500F5000000000000000000000000000000000000
310
000000F50000F50000F500F500000000000000000000000000000000000000000000000000000000000000000000000000000000000000000000000000000000000000000000000000000000000000000000000000000000000000000000000000000000000000000000000000000000000000000000000000000000000000
310
F5000000F500F500F500000000000000000000000000000000F500F50000F50000F50000000000000000000000000000000000F500F50000F500F50000000000000000000000000000000000F50000F50000F500F500000000000000000000000000000000000000F500F500F500F500000000000000000000000000000000
310
0000000000F50000F50000F500F50000000000000000000000000000000000000000000000000000000000000000000000000000000000000000000000000000000000000000000000000000000000000000000000000000000000000000000000000000000000000000000000000000000000000000000000000000000000
310
0000F5F5F5F5F5F5F5F5F500000000000000000000000000000000F5F5F5F5F5F5F5F5F50000000000000000000000000000000000F5F5F5F5F5F5F5F50000000000000000000000000000000000F5F5F5F5F5F5F5F5F500000000000000000000000000000000000000F5F5F5F5F5F5F50000000000000000000000000000
310
00000000000000F5F5F5F5F5F5F5F5F5000000000000000000000000000000000000000000000000000000000000000000000000000000000000000000000000000000000000000000000000000000000000000000000000000000000000000000000000000000000000000000000000000000000000000000000000000000
310
0000000000000000F500F50000000000000000000000000000000000000000F5F5F5F500000000000000000000000000000000000000000000F5F5F5F500000000000000000000000000000000000000000000F50000F50000000000000000000000000000000000000000000000F5F5F50000000000000000000000000000
310
000000000000000000000000F5F5F5F5000000000000000000000000000000000000000000000000000000000000000000000000000000000000000000000000000000000000000000000000000000000000000000000000000000000000000000000000000000000000000000000000000000000000000000000000000000
310
00000000000000000000F5F5F50000000000000000000000000000000000000000F5F5F5F500000000000000000000000000000000000000000000F5F5F5F500000000000000000000000000000000000000000000F5F5F5F50000000000000000000000000000000000000000000000F5F5F5000000000000000000000000
310
0000000000000000000000000000F5F5F5F500000000000000000000000000000000000000000000000000000000000000000000000000000000000000000000000000000000000000000000000000000000000000000000000000000000000000000000000000000000000000000000000000000000000000000000000000
310
0000000000000000000000000000000000000000000000000000000000000000000000F5F5F5F5000000000000000000000000000000000000000000000000F5000000000000000000000000000000000000000000000000000000000000000000000000000000000000000000000000000000000000000000000000000000
310
00000000000000000000000000000000000000000000000000000000000000000000000000000000000000000000000000000000000000000000000000000000000000000000000000000000000000000000000000000000000000000000000000000000000000000000000000000000000000000000000000000000000000
310
00000000000000000000000000000000000000000000000000000000000000000000000000000000000000000000000000000000000000000000000000000000000000000000000000000000000000000000000000000000000000000000000000000000000000000000000000000000000000000000000000000000000000
310
00000000000000000000000000000000000000000000000000000000000000000000000000000000000000000000000000000000000000000000000000000000000000000000000000000000000000000000000000000000000000000000000000000000000000000000000000000000000000000000000000000000000000
310
00000000000000000000000000000000000000000000000000000000000000000000000000000000000000000000000000000000000000000000000000000000000000000000000000000000000000000000000000000000000000000000000000000000000000000000000000000000000000000000000000000000000000
310
00000000000000000000000000000000000000000000000000000000000000000000000000000000000000000000000000000000000000000000000000000000000000000000000000000000000000000000000000000000000000000000000000000000000000000000000000000000000000000000000000000000000000
310
00000000000000000000000000000000000000000000000000000000000000000000000000000000000000000000000000000000000000000000000000000000000000000000000000000000000000000000000000000000000000000000000000000000000000000000000000000000000000000000000000000000000000
310
00000000000000000000000000000000000000000000000000000000000000000000000000000000000000000000000000000000000000000000000000000000000000000000000000000000000000000000000000000000000000000000000000000000000000000000000000000000000000000000000000000000000000
310
00000000000000000000000000000000000000000000000000000000000000000000000000000000000000000000000000000000000000000000000000000000000000000000000000000000000000000000000000000000000000000000000000000000000000000000000000000000000000000000000000000000000000
310
00000000000000000000000000000000000000000000000000000000000000000000000000000000000000000000000000000000000000000000000000000000000000000000000000000000000000000000000000000000000000000000000000000000000000000000000000000000000000000000000000000000000000
310
00000000000000000000000000000000000000000000000000000000000000000000000000000000000000000000000000000000000000000000000000000000000000000000000000000000000000000000000000000000000000000000000000000000000000000000000000000000000000000000000000000000000000
310
00000000000000000000000000000000000000000000000000000000000000000000000000000000000000000000000000000000000000000000000000000000000000000000000000000000000000000000000000000000000000000000000000000000000000000000000000000000000000000000000000000000000000
310
00000000000000000000000000000000000000000000000000000000000000000000000000000000000000000000000000000000000000000000000000000000000000000000000000000000000000000000000000000000000000000000000000000000000000000000000000000000000000000000000000000000000000
310
00000000000000000000000000000000000000000000000000000000000000000000000000000000000000000000000000000000000000000000000000000000000000000000000000000000000000000000000000000000000000000000000000000000000000000000000000000000000000000000000000000000000000
310
00000000000000000000000000000000000000000000000000000000000000000000000000000000000000000000000000000000000000000000000000000000000000000000000000000000000000000000000000000000000000000000000000000000000000000000000000000000000000000000000000000000000000
310
00000000000000000000000000000000000000000000000000000000000000000000000000000000000000000000000000000000000000000000000000000000000000000000000000000000000000000000000000000000000000000000000000000000000000000000000000000000000000000000000000000000000000
310
00000000000000000000000000000000000000000000000000000000000000000000000000000000000000000000000000000000000000000000000000000000000000000000000000000000000000000000000000000000000000000000000000000000000000000000000000000000000000000000000000000000000000
310
00000000000000000000000000000000000000000000000000000000000000000000000000000000000000000000000000000000000000000000000000000000000000000000000000000000000000000000000000000000000000000000000000000000000000000000000000000000000000000000000000000000000000
310
00000000000000000000000000000000000000000000000000000000000000000000000000000000000000000000000000000000000000000000000000000000000000000000000000000000000000000000000000000000000000000000000000000000000000000000000000000000000000000000000000000000000000
310
00000000000000000000000000000000000000000000000000000000000000000000000000000000000000000000000000000000000000000000000000000000000000000000000000000000000000000000000000000000000000000000000000000000000000000000000000000000000000000000000000000000000000
310
00000000000000000000000000000000000000000000000000000000000000000000000000000000000000000000000000000000000000000000000000000000000000000000000000000000000000000000000000000000000000000000000000000000000000000000000000000000000000000000000000000000000000
310
00000000000000000000000000000000000000000000000000000000000000000000000000000000000000000000000000000000000000000000000000000000000000000000000000000000000000000000000000000000000000000000000000000000000000000000000000000000000000000000000000000000000000
310
00000000000000000000000000000000000000000000000000000000000000000000000000000000000000000000000000000000000000000000000000000000000000000000000000000000000000000000000000000000000000000000000000000000000000000000000000000000000000000000000000000000000000
310
00000000000000000000000000000000000000000000000000000000000000000000000000000000000000000000000000000000000000000000000000000000000000000000000000000000000000000000000000000000000000000000000000000000000000000000000000000000000000000000000000000000000000
310
00000000000000000000000000000000000000000000000000000000000000000000000000000000000000000000000000000000000000000000000000000000000000000000000000000000000000000000000000000000000000000000000000000000000000000000000000000000000000000000000000000000000000
310
00000000000000000000000000000000000000000000000000000000000000000000000000000000000000000000000000000000000000000000000000000000000000000000000000000000000000000000000000000000000000000000000000000000000000000000000000000000000000000000000000000000000000
310
00000000000000000000000000000000000000000000000000000000000000000000000000000000000000000000000000000000000000000000000000000000000000000000000000000000000000000000000000000000000000000000000000000000000000000000000000000000000000000000000000000000000000
310
00000000000000000000000000000000000000000000000000000000000000000000000000000000000000000000000000000000000000000000000000000000000000000000000000000000000000000000000000000000000000000000000000000000000000000000000000000000000000000000000000000000000000
310
00000000000000000000000000000000000000000000000000000000000000000000000000000000000000000000000000000000000000000000000000000000000000000000000000000000000000000000000000000000000000000000000000000000000000000000000000000000000000000000000000000000000000
310
00000000000000000000000000000000000000000000000000000000000000000000000000000000000000000000000000000000000000000000000000000000000000000000000000000000000000000000000000000000000000000000000000000000000000000000000000000000000000000000000000000000000000
310
00000000000000000000000000000000000000000000000000000000000000000000000000000000000000000000000000000000000000000000000000000000000000000000000000000000000000000000000000000000000000000000000000000000000000000000000000000000000000000000000000000000000000
310
00000000000000000000000000000000000000000000000000000000000000000000000000000000000000000000000000000000000000000000000000000000000000000000000000000000000000000000000000000000000000000000000000000000000000000000000000000000000000000000000000000000000000
310
00000000000000000000000000000000000000000000000000000000000000000000000000000000000000000000000000000000000000000000000000000000000000000000000000000000000000000000000000000000000000000000000000000000000000000000000000000000000000000000000000000000000000
310
00000000000000000000000000000000000000000000000000000000000000000000000000000000000000000000000000000000000000000000000000000000000000000000000000000000000000000000000000000000000000000000000000000000000000000000000000000000000000000000000000000000000000
310
00000000000000000000000000000000000000000000000000000000000000000000000000000000000000000000000000000000000000000000000000000000000000000000000000000000000000000000000000000000000000000000000000000000000000000000000000000000000000000000000000000000000000
310
00000000000000000000000000000000000000000000000000000000000000000000000000000000000000000000000000000000000000000000000000000000000000000000000000000000000000000000000000000000000000000000000000000000000000000000000000000000000000000000000000000000000000
310
00000000000000000000000000000000000000000000000000000000000000000000000000000000000000000000000000000000000000000000000000000000000000000000000000000000000000000000000000000000000000000000000000000000000000000000000000000000000000000000000000000000000000
310
00000000000000000000000000000000000000000000000000000000000000000000000000000000000000000000000000000000000000000000000000000000000000000000000000000000000000000000000000000000000000000000000000000000000000000000000000000000000000000000000000000000000000
310
00000000000000000000000000000000000000000000000000000000000000000000000000000000000000000000000000000000000000000000000000000000000000000000000000000000000000000000000000000000000000000000000000000000000000000000000000000000000000000000000000000000000000
310
00000000000000000000000000000000000000000000000000000000000000000000000000000000000000000000000000000000000000000000000000000000000000000000000000000000000000000000000000000000000000000000000000000000000000000000000000000000000000000000000000000000000000
310
00000000000000000000000000000000000000000000000000000000000000000000000000000000000000000000000000000000000000000000000000000000000000000000000000000000000000000000000000000000000000000000000000000000000000000000000000000000000000000000000000000000000000
310
00000000000000000000000000000000000000000000000000000000000000000000000000000000000000000000000000000000000000000000000000000000000000000000000000000000000000000000000000000000000000000000000000000000000000000000000000000000000000000000000000000000000000
310
00000000000000000000000000000000000000000000000000000000000000000000000000000000000000000000000000000000000000000000000000000000000000000000000000000000000000000000000000000000000000000000000000000000000000000000000000000000000000000000000000000000000000
310
00000000000000000000000000000000000000000000000000000000000000000000000000000000000000000000000000000000000000000000000000000000000000000000000000000000000000000000000000000000000000000000000000000000000000000000000000000000000000000000000000000000000000
310
00000000000000000000000000000000000000000000000000000000000000000000000000000000000000000000000000000000000000000000000000000000000000000000000000000000000000000000000000000000000000000000000000000000000000000000000000000000000000000000000000000000000000
310
00000000000000000000000000000000000000000000000000000000000000000000000000000000000000000000000000000000000000000000000000000000000000000000000000000000000000000000000000000000000000000000000000000000000000000000000000000000000000000000000000000000000000
310
00000000000000000000000000000000000000000000000000000000000000000000000000000000000000000000000000000000000000000000000000000000000000000000000000000000000000000000000000000000000000000000000000000000000000000000000000000000000000000000000000000000000000
310
00000000000000000000000000000000000000000000000000000000000000000000000000000000000000000000000000000000000000000000000000000000000000000000000000000000000000000000000000000000000000000000000000000000000000000000000000000000000000000000000000000000000000
310
00000000000000000000000000000000000000000000000000000000000000000000000000000000000000000000000000000000000000000000000000000000000000000000000000000000000000000000000000000000000000000000000000000000000000000000000000000000000000000000000000000000000000
310
00000000000000000000000000000000000000000000000000000000000000000000000000000000000000000000000000000000000000000000000000000000000000000000000000000000000000000000000000000000000000000000000000000000000000000000000000000000000000000000000000000000000000
310
00000000000000000000000000000000000000000000000000000000000000000000000000000000000000000000000000000000000000000000000000000000000000000000000000000000000000000000000000000000000000000000000000000000000000000000000000000000000000000000000000000000000000
310
00000000000000000000000000000000000000000000000000000000000000000000000000000000000000000000000000000000000000000000000000000000000000000000000000000000000000000000000000000000000000000000000000000000000000000000000000000000000000000000000000000000000000
310
00000000000000000000000000000000000000000000000000000000000000000000000000000000000000000000000000000000000000000000000000000000000000000000000000000000000000000000000000000000000000000000000000000000000000000000000000000000000000000000000000000000000000
310
00000000000000000000000000000000000000000000000000000000000000000000000000000000000000000000000000000000000000000000000000000000000000000000000000000000000000000000000000000000000000000000000000000000000000000000000000000000000000000000000000000000000000
310
00000000000000000000000000000000000000000000000000000000000000000000000000000000000000000000000000000000000000000000000000000000000000000000000000000000000000000000000000000000000000000000000000000000000000000000000000000000000000000000000000000000000000
310
00000000000000000000000000000000000000000000000000000000000000000000000000000000000000000000000000000000000000000000000000000000000000000000000000000000000000000000000000000000000000000000000000000000000000000000000000000000000000000000000000000000000000
310
00000000000000000000000000000000000000000000000000000000000000000000000000000000000000000000000000000000000000000000000000000000000000000000000000000000000000000000000000000000000000000000000000000000000000000000000000000000000000000000000000000000000000
310
00000000000000000000000000000000000000000000000000000000000000000000000000000000000000000000000000000000000000000000000000000000000000000000000000000000000000000000000000000000000000000000000000000000000000000000000000000000000000000000000000000000000000
310
00000000000000000000000000000000000000000000000000000000000000000000000000000000000000000000000000000000000000000000000000000000000000000000000000000000000000000000000000000000000000000000000000000000000000000000000000000000000000000000000000000000000000
310
00000000000000000000000000000000000000000000000000000000000000000000000000000000000000000000000000000000000000000000000000000000000000000000000000000000000000000000000000000000000000000000000000000000000000000000000000000000000000000000000000000000000000
310
00000000000000000000000000000000000000000000000000000000000000000000000000000000000000000000000000000000000000000000000000000000000000000000000000000000000000000000000000000000000000000000000000000000000000000000000000000000000000000000000000000000000000
310
00000000000000000000000000000000000000000000000000000000000000000000000000000000000000000000000000000000000000000000000000000000000000000000000000000000000000000000000000000000000000000000000000000000000000000000000000000000000000000000000000000000000000
310
00000000000000000000000000000000000000000000000000000000000000000000000000000000000000000000000000000000000000000000000000000000000000000000000000000000000000000000000000000000000000000000000000000000000000000000000000000000000000000000000000000000000000
310
00000000000000000000000000000000000000000000000000000000000000000000000000000000000000000000000000000000000000000000000000000000000000000000000000000000000000000000000000000000000000000000000000000000000000000000000000000000000000000000000000000000000000
310
00000000000000000000000000000000000000000000000000000000000000000000000000000000000000000000000000000000000000000000000000000000000000000000000000000000000000000000000000000000000000000000000000000000000000000000000000000000000000000000000000000000000000
310
00000000000000000000000000000000000000000000000000000000000000000000000000000000000000000000000000000000000000000000000000000000000000000000000000000000000000000000000000000000000000000000000000000000000000000000000000000000000000000000000000000000000000
310
00000000000000000000000000000000000000000000000000000000000000000000000000000000000000000000000000000000000000000000000000000000000000000000000000000000000000000000000000000000000000000000000000000000000000000000000000000000000000000000000000000000000000
310
00000000000000000000000000000000000000000000000000000000000000000000000000000000000000000000000000000000000000000000000000000000000000000000000000000000000000000000000000000000000000000000000000000000000000000000000000000000000000000000000000000000000000
310
00000000000000000000000000000000000000000000000000000000000000000000000000000000000000000000000000000000000000000000000000000000000000000000000000000000000000000000000000000000000000000000000000000000000000000000000000000000000000000000000000000000000000
310
00000000000000000000000000000000000000000000000000000000000000000000000000000000000000000000000000000000000000000000000000000000000000000000000000000000000000000000000000000000000000000000000000000000000000000000000000000000000000000000000000000000000000
310
00000000000000000000000000000000000000000000000000000000000000000000000000000000000000000000000000000000000000000000000000000000000000000000000000000000000000000000000000000000000000000000000000000000000000000000000000000000000000000000000000000000000000
310
00000000000000000000000000000000000000000000000000000000000000000000000000000000000000000000000000000000000000000000000000000000000000000000000000000000000000000000000000000000000000000000000000000000000000000000000000000000000000000000000000000000000000
310
00000000000000000000000000000000000000000000000000000000000000000000000000000000000000000000000000000000000000000000000000000000000000000000000000000000000000000000000000000000000000000000000000000000000000000000000000000000000000000000000000000000000000
310
00000000000000000000000000000000000000000000000000000000000000000000000000000000000000000000000000000000000000000000000000000000000000000000000000000000000000000000000000000000000000000000000000000000000000000000000000000000000000000000000000000000000000
310
00000000000000000000000000000000000000000000000000000000000000000000000000000000000000000000000000000000000000000000000000000000000000000000000000000000000000000000000000000000000000000000000000000000000000000000000000000000000000000000000000000000000000
310
00000000000000000000000000000000000000000000000000000000000000000000000000000000000000000000000000000000000000000000000000000000000000000000000000000000000000000000000000000000000000000000000000000000000000000000000000000000000000000000000000000000000000
310
00000000000000000000000000000000000000000000000000000000000000000000000000000000000000000000000000000000000000000000000000000000000000000000000000000000000000000000000000000000000000000000000000000000000000000000000000000000000000000000000000000000000000
310
00000000000000000000000000000000000000000000000000000000000000000000000000000000000000000000000000000000000000000000000000000000000000000000000000000000000000000000000000000000000000000000000000000000000000000000000000000000000000000000000000000000000000
310
00000000000000000000000000000000000000000000000000000000000000000000000000000000000000000000000000000000000000000000000000000000000000000000000000000000000000000000000000000000000000000000000000000000000000000000000000000000000000000000000000000000000000
310
00000000000000000000000000000000000000000000000000000000000000000000000000000000000000000000000000000000000000000000000000000000000000000000000000000000000000000000000000000000000000000000000000000000000000000000000000000000000000000000000000000000000000
310
00000000000000000000000000000000000000000000000000000000000000000000000000000000000000000000000000000000000000000000000000000000000000000000000000000000000000000000000000000000000000000000000000000000000000000000000000000000000000000000000000000000000000
310
00000000000000000000000000000000000000000000000000000000000000000000000000000000000000000000000000000000000000000000000000000000000000000000000000000000000000000000000000000000000000000000000000000000000000000000000000000000000000000000000000000000000000
310
00000000000000000000000000000000000000000000000000000000000000000000000000000000000000000000000000000000000000000000000000000000000000000000000000000000000000000000000000000000000000000000000000000000000000000000000000000000000000000000000000000000000000
310
00000000000000000000000000000000000000000000000000000000000000000000000000000000000000000000000000000000000000000000000000000000000000000000000000000000000000000000000000000000000000000000000000000000000000000000000000000000000000000000000000000000000000
310
00000000000000000000000000000000000000000000
  0
XRECORD
  5
112
102
{ACAD_REACTORS
330
110
102
}
330
110
100
AcDbXrecord
280
     1
270
     1
271
     1
  0
XRECORD
  5
111
102
{ACAD_REACTORS
330
110
102
}
330
110
100
AcDbXrecord
280
     1
270
     1
271
     1
  0
XRECORD
  5
3D4
102
{ACAD_REACTORS
330
110
102
}
330
110
100
AcDbXrecord
280
     1
 70
     1
 90
1778669749
 71
     1
  1
BC4ABC41-C940-42BB-86DB-4857335A614E
310
504B03040A000008000064500D453DEE336E79000000790000001B0000006175746F6465736B2D64657369676E2D7061636B6167652E786D6C3C3F786D6C2076657273696F6E3D22312E302220656E636F64696E673D227574662D3822203F3E3C666F726D6174733E3C666F726D61743E687474703A2F2F736368656D612E
310
6175746F6465736B2E636F6D2F64657369676E2D7061636B6167652F323030393C2F666F726D61743E3C2F666F726D6174733E504B030414000608080064500D4565017641AD00000026010000130000005B436F6E74656E745F54797065735D2E786D6C6D8E4D0E82301085AFD2CC1E8A2E8C31800BF5065CA0D6011AE9B4
310
690783B7B70D1B4358CE9BF7F3D5D7C54EE283211A470D1CCA0A0492762F43430333F7C519C4B5ADBBAFC7289297620323B3BF4819F58856C5D279A4F4E95DB08AD31906E9957EAB01E5B1AA4E523B62242E3877405BDFB157F3C4E2B12479DD7D1A02715B7D5DB235A0BC9F8C569CB0A4D38C5C440EA82CC8DD024FC3A6C0
310
D80C90F5FD4422DE24FE27F337E5648689ED0F504B030414000608080064500D45132A07D6E80000007C01000008000000636F72652E786D6C8D905D6EC3201084AF82F61D1BFCD3500B1339896FD00B20202E4A0C9681AAC72F4E1CA97DEBD38E86F9D8D5F0E3F77C475F660DD6BB1E68410019A7BCB66EEA21C52B66808E
310
82AFDEC75F31404ECEA687CD06C1A7D5A765B79477D1B8985DE7B5D94D19828980D43D8B1E82FA34B32C648A39116EC522D54D4EA6A02F95E194AC46CF2556E7FFECD59A15C4F9723855A791E1CB3052DCD071C043CD08264D4B5B7638BC9FD91B2F3758F068E7D77EB51A198D065111DA60C230AD3F28E948DD654DDA8E10
310
5E6EF13F505AF43FA1645DACABFDDC271640D07CC8E341F072EB228F4751796EBD891F504B030414000608080064500D4555019EA25F0000007C00000007000000636E782E786D6C4DCB3B0E80201045D1AD90E915ED2CF8AC45050C11660C8261F98AB1B07AC9C97D42D718D865D3E909258CFD00CCE24AC6E326A164D74D
310
C0B4128928FF326038472BA13128B1252AC747C6BAB984FC68F0B87FE8960A5C09FE86CFB69FBA01504B030414000608080064500D45648F4DA86E010000D40300000C0000006662782F636F72652E786D6CC5535B6E833010BC8AE57FB00DA4A1917194D70D7A01071C8A02363236CAF1BB3CA234551AA55FE5035633BBDE
310
9901F8FAD2D4A857B6AB8CCE300B29464AE7A6A8749961EF4E418AD15A706B8CFBD68691968DCAF00063C14B6B7C3B43B9D14E6907A836859A41D975CA6194D75064B8CB3F552343E91D7474E7B095F959962A6421D0D02778E72C0840D392E18EC5E978E164C205F7BE2A66B62A605B75AA94C562B75F6EA3ED210DF69B03
310
0B1276D8049B38A5014D166C912E97EFBBF48D9361587057355775B955D2A9028B88B224A069C0E20F4657345E414D172B4A3919DAEF867C5BBC38E42BEDE268963B8D7558301032123FDC42440E75B2073D44703284088F31E1FBA0211008D9C9637DF57106A857B9333601A630FE46F5B2F60AB6D2908E17FABDE0649A84
310
ADE3E1E0FAE18EE8E51DCF4F84572D750926A483F2E8DDA0934F1AE6D05A6583DE5D9036B691F56B369E38FC137513FF50526E6A63FF4B11995F10993F0F32FC8FE20B504B030414000608080064500D45657B478E7E0000009D0000000B0000006662782F636E782E786D6C4DCCD10E82201886E15B61FF398916061BE028
310
E23E5CA273213482D6E5A7CD838EBEEDD9B757749FC5A3B74BAF390609F5810072E11E87394C124A1E3103D4299162CC7F3740A15F9C848D418929C5F2DC6970635F7C5ED5CFE1B1E3CD5876395B8AEB465B7C6A8CC19A518E352547CE08E76D7B854A89EA575A770BAB2F504B030414000608080064500D4581027CF22901
310
000012020000310000006662782F45444638423746352D313241462D343244442D413835392D4135303339383039393636432F636F72652E786D6C8D514B6EC32014BC0A62952EB0C1BFDA11264A9BE604BD000192A2C460F1A972FC42ED48ED2E1B1E9A37336FE0D1DD7DBA816FE5BCB66684A4C0102823ACD4E632C218CE
310
A88760C7A8B336FCA14160F8A4469861C8E8C5D938AF90B0262813126AAC542BC8BD570102714B97117AF1A5265EF01812C35F8B998B2BBFA88214A99D788CFAE05200B00CC927641F8763FFF67A6C11A9F647D4548703DAF7ED80F62DAE871E0F43D7BDD37211321AA396AB5CCB14479FB572CF9A6431A3414F8FF8C2291E
310
9484ACC2A441B847A4FE24788BEB6DBAE3768B312D33FD9F28CEF24951D426D4D51A779179C8082D9706A3D2C6D3ED1146DD67EB02C8F3365E8917C8708109E97047CB85989E9F1CBB6675F4C1BAF4BD9BEB297149BBD8760DA365DE502ABFEB4B356F93FD00504B030414000608080064500D45DB0835104C010000330300
310
00300000006662782F45444638423746352D313241462D343244442D413835392D4135303339383039393636432F636E782E786D6CD593CD6EC32010845F0571B78D1B378A224CA41EFA043DF48A6193D060B0F8A99AB7EF92D034971C7AEC05A1D98F99D5C8E6BBAFD9924F08D17837D2BE659480535E1B7718694EFB6643
310
C94EF0E07DBAC3287172869116990A7E083E2F55D2B097D92654AD71A72A06883E070511E5F29258AFA44503704D4611E609B4064D6E20DEF610701514A733494720AF2FEFC44F1FA052E45D7111BC2B198297B326DD4194282B631C69544798652B73F21AE2A9D532C9B66F7FB21EECF4EB44CA839FC81C0C29E1232D2715
310
75A3167BE41D0E058F29607B154AE705A890CB628D92094BEE2EE095113C1B97D643650D161F90EED7AB6140B3CB4CF06466A8840A2013682A9E583F346CD3F4ABB79E6DD96A8B77F6BC658C7705177CF2DED6476803C12F447997C0252A7ADE95F1A3FA2A47B409D8B50FE73F148905D4D46B3B378FFFDC4F77F9BEB1AE80
310
7F81F806504B030414000608080064500D452B120B21B905000005110000340000006662782F45444638423746352D313241462D343244442D413835392D4135303339383039393636432F6F626A656374732E786D6CB558698F9B3818FE2B88FD4C0809992615A1CA31A9A26ADA51A356FB61A4C88061D831876C9866F6D7
310
EF63300472B4D9AB520336AFDFF3790F8FF3E19030ED95721167E95CB706435DA3A99F05711ACDF5B2088DA9AE7D701D9E6545874CD75292D0B92EB775D7897856E66A2BA021295971B2BB59FEAE099FA654D77C468498EBC27FA6091990B2C8022A5E060129C8200A0F036B5013F6D9469CE4CF274C73C2695A4053ECA7E0
310
A2D54A59FDE550375DC794DF5D47FE2AAAF1752AB3B2A72F3F4E454152FF4CD8099BB165AFEF47939931B1EDB161DF8D2C63B959AE0DEBDD78B8BA5BAD668BFB19048B828393D284D350773FC2373CF61DB3FED46AAC14BFA4929FA529F52BFB6161A5B3E218D09CA601E2185301691DAB87FDA5257DD3F93C966B25B2BB7D
310
9B55DD131D468DEECDB3AB69E6FD0113C42DA8E0824A54D5FE5186D6F81B1EBDE6651953DF62A125A4A03C264C63B1C7097FD35D904A12D7E9B191E8E412E1D202DDB58EFCBABA22357E8DDD4B5A862563129ABA5B217B0FFCD342549AC57F527E591A7442ACCA382DA6CAA0E22DA7BA3B73CC6AD375E4633C521F6B476A21
310
2311420E33EBAF2786AE64EE6DD7BAFB69E31D76321F2F0BCF7996535E48F8005A4DE09AA7F492126BDD14397900C6F47C7E74CA5778FE33D2F7A80AE2C6E3837DB0959482935484194F109BC1B0FAA70D9B17A37D3B7F413D3BA13EA76977FE11B163B6CAF60BC6B5F8015C3234D37F1FBFBECFBA48ED84CF755E9160191F
310
2B57EE7CC2507A1EE2140191A0D458862DD4F2D03BE8EE169512951DA708735B879CBD38E62BBEE3B7E68D6A5589EF3C5304F4A4DEDE50F9E1CB2A2DA0DB15B09CD5C94AB032EE9ACF27FF49CE2CD6BB4FBB9287C4A70FAAB0AC6918A77181DE79046F57A15E207A16BDD0B71F190F60E8791076DD20244A9480B7A5CFA5E3
310
A3A659C8C551724F808F7351266B9EF30B09304276EC0EFF8758F8943192D2AC6CE4B68D49A2B72D3B6A72405ED62E1E8F4E70CDE96B2C678B1E454F51747F9FC7B97462DB06DBCA3DB862DDB7ED67C014F42CF3083B1279C7FAEF672CE37BEF6D5F97461D68C4913EDCBFF7F1AE5C604A2E48810ADC4D0D523EDF07711896
310
0285F8825BBF6F57DDD0B595E5FCA5C9A846629DA436CA3592917085E7462626044ED0E9B3741FA3AF234F2F0AEFCA3E15202ABED78C129485FB98B132D9873143D3DC2724BFE2B1FFC744AF4CF23D49B2322DAEC8ED59D778B4F15F635E0F59E20729FC67DDDD554F63892E12D0E008961EB1EC8A17BCDA03C872652FF0DF
310
3256337B68D8A3E5D298DEAD97863D9DBC1B8F278B3BCBBE6F35AA463CD7699A66B72C209E68D24EC96315E86F5B24A1AA24BAFB400AF1F4B1CEF1A7A87E7EDB0E30A93B26CE20C3DA83DB246734A1694164FE3CC817F69560D0E9F1A8F7B70989E80D5CBE7CDC9DE8809D1BCE3DCA5CA73F4ECEAADD95CCC68B4C8AE732F1
310
521233DD2541FEFE43351DCD4DB423F37EBD992EDF6D2686355A6C0C7BB45E1B8B2986EBC564389E4D87B3D9DDDDCAE4546425F7A930C7E670AFDCB5CFD34839AB0940FBAC5B53B3942B15050CD422637180CA196811CD125AA07EDED0B678420570D6BD5E04EA1A74C3E9D77AB02D88C768A3C933C16CCF045201202DFDA2
310
BFAFFD8659548E83731D6E1ABCE04715105D0340E63ACA7211C325030F7D5E4E7015730007E3645BBB015092460C5784FA50BB6E4F49DFA06CA2952BF92DC92D639FB2ABD72F5056728C1FBD6E50E9A604F87FCBF0461D8D1478F5CAA2B5E5B8D11A5389413ED646A94B0E66A11725FA80ACFCB959D6A0A2E979E4A60BDF4F
310
415073350AC2A3EA8223F5532A2DD68F26661A6DFB45CB59192196B77332645EB0529605A008A8503C735200AAABF74F8F3CC3A53AD1363120F0B4CA92244BD562A12EE5DAEE1957ECE009C584CA7B94180D2DEBA94A5075A3DA7B44D00109C40B369A8493169C600D803C9B0254084C198313F2ED5A538DCE06D30AB467D3
310
75FDF7040DC923AFC03255BA2536FFE90DC6AC4801068EBB87FB17504B030414000608000064500D45000000000000000000000000350000006662782F45444638423746352D313241462D343244442D413835392D4135303339383039393636432F76657274696365732E62696E504B030414000608080064500D45F270F1
310
330600000004000000360000006662782F45444638423746352D313241462D343244442D413835392D4135303339383039393636432F747269616E676C65732E62696E636660600000504B030414000608000064500D45000000000000000000000000370000006662782F45444638423746352D313241462D343244442D41
310
3835392D4135303339383039393636432F617474726962757465732E62696E504B030414000608080064500D4508DA0BD19000000041010000360000006662782F45444638423746352D313241462D343244442D413835392D4135303339383039393636432F6469726563746F72792E786D6C858F410AC3201045AF22B36F
310
53E9A60B35CBEEBAE80D244E44489C6234F4F835464A48035D0DF398FF9F8AF63D0E6CC63039F212F8F9020C7D47C6792B21C5FE7403D62A1188E2E60C98D7234A5830286103A55745067B9D86B8A3CF9C7F90C11DE607FB144396D7B6A82D282E9A152AD114D5EF2CB866EEE831B8EEA07A7BB5A8D7D61A2BAAEB7FD5F709
310
21FF497D00504B030414000608080064500D45C1608DD6FB000000A00100003B0000006662782F45444638423746352D313241462D343244442D413835392D4135303339383039393636432F7265736F75726365732F636F72652E786D6C8D50596E833010BD0AF2BFC1660914194724E106BD806526D44AB09197AAC7AF1D
310
A8D4FEF56766F416BDA761E7AFF5997D8275CAE801D19CA00CB434B3D2CB8082BFE30E6567CEAC31FE970C655AAC30A00423CE166BC27640D2680FDA47549B190E5038071E65F2198F0139F901ABC845F051E11EF926E4432C90D33CD251C799F33616C8F6903411B7E04CB0121C2B7696B310D47C68D41C33D55D8145FC7A
310
6B2FE5653AE1DB38515CD369C463D5114CEA86365DDBBE5DBB132B929933AFD69F8ED282F030235E125A63D2615ABD53D293AA8F37697A425891E47F4C619BFF690A4AFBAA3CEAEE3617B3629117C15991FE15D7EB9971A7DFF26F504B030414000608080064500D452DEF20765E0000007A0000003A0000006662782F4544
310
4638423746352D313241462D343244442D413835392D4135303339383039393636432F7265736F75726365732F636E782E786D6C4DCB390E80201085E1AB90E9158D8D05CB59882C21C28C41301EDF2516562FF9F23FA1CF9CD8E1CA1E09258CFD00CCE142366290D0AAEF66605A8942547F193034D9497818940885DAF691
310
75DEB4546F4D11D70F27E04AF037BBF779A90B504B030414000608080064500D45A6967D30F6000000980100003D0000006662782F45444638423746352D313241462D343244442D413835392D4135303339383039393636432F7265736F75726365732F332F636F72652E786D6C8D50596EC32010BD0AE21F1BBCD4AE8589
310
9CC437E80510100725068BA5EAF10BB12BB57FFD9919BD45EF69E8E96B7D824FE5BCB66684A4C0102823ACD46619610C37D4437062D4591B7EC920307C5523CC30647471366E0724AC09CA84841A2BD50172EF5580403CD331422FEE6AE5058F2129FCA3D8B878F04515A44874D231EA834B05C01E922764352D7794D118B5
310
3C382D5396BE69E520BB5CBB73759E3B749D66821A324F68AA7B8C70D392B6EFBAF74BFF46CB6C6634E8F5A79B708A072521AB306910EE11A93F081E703DA41BB703C6B4CCF23FA6B8C97F9AA236A1AE8EBABBCDA7AC54E445305AE63FA5F57A62DAF9A7EC1B504B030414000608080064500D451EC9B0F628010000C20100
310
003C0000006662782F45444638423746352D313241462D343244442D413835392D4135303339383039393636432F7265736F75726365732F332F636E782E786D6C5551416EC32010FC0AE28EC1719CDA16264A9BE605BD47046F5C140C16E02AFD7D2175ABF6C2AE6666774703DFDF27833EC007ED6C8FCB82610456B941DB
310
B1C74BBC9206A3BDE0DEB9F84786919513F438C358F0D1BB655EA101AE723131A146DBDB0AB2F30816BC56E7D98E18292343E87150EF30C9422ED10D106EC520A32CCAC243708B579056E42BC838254D3A06962C010B39CCDD3ECD43ECE9F572A7AFC753F3FC74AA49B9399CC876733C924353B7E450B3AA6D58DBEE762FF4
310
6767A015FD6786D37C43F0C56B94BB1EE7178B5F51911C739A68C143F4299655163FE7E4504F7204FA907CB382473DC1AA511E6484018B0D2BB78435A4ACDE4AD6B1AA4B3DAB3BC638CD72C12FCE997548DB08DECD48B9D4D898AC709A69C1694E349547DCA9FAF429E20B504B03040A000008000064500D4588E575979041
310
000090410000420000006662782F45444638423746352D313241462D343244442D413835392D4135303339383039393636432F7265736F75726365732F332F305F67656E657269632E706E6789504E470D0A1A0A0000000D4948445200000080000000800806000000C33E61CB0000415749444154789CD490310A00200C03
310
73F4E7EABFE3A05D0405373D28293794125A2DD61596473C0FA08858ACE5F9BB73595C0E20607BDFF2173D9CE8000000FFFFD4924B0AC0400C429F9AFB1F39338B32FDD0AEBA6A0381208806AD372401437CEAF9245485CD1DC0C00E962E3657B8E7FB69BBFBC659B86D9220B4CB1D65FAD74C000000FFFFCC93310EC03008
310
035D1BFEFF63E84012554D86284BCB80301E7D3E00E06A3B0B02E0131024C1DD8736B3A9ED154AB5FB1DFAF35EFD48CE5EF33B1C1181CC842450FC552176E7060000FFFFCC95310E80300C03CFD4FCFFC1555486A445A21B03C24BA478F4257EF501522A14BE03C1F60ADD36A75D3C0AC6ACA69A8CDCE7BF42D2E34AA79FDA
310
FD7B2F29C38E002022E8BD2F008ED6B00D05C35E3BFFD5050000FFFFCC96390EC030080467252CFFFFBD5E8714B19DA34D8A4C872890D8E578618089CE36EAFBFFE02A7A29E536F58B4C52625E25C1535FC83CCD32435DD339E2B1E104DB76886D9BD61AB6B14DEF7D89BF18F523825A2B928888C3183F66070000FFFFCC96
310
B10AC03008444FAB19F2FFBFDA2107C10ED592215B3BD4F14038BCA7F8B13B5966FC0E063343738765E8DB67ACB6BDC2CFC7AD80C01250A08CC57A341E152209C52DCE19208931064882E40D41859F00C4D2AF221051A89ED043E1EE68EEE8BDEFC1FD415D000000FFFFCC96C10A02310C445F1B2BACFDFF5FDD1893B61E76
310
5DADDE04C15B42602EF366C80FF1FC0E86524E94723ED23ED93E2596CDF8A3F25F6ED3323EE677181EB06C553F88689819AACAD58C9B19EE8E7B102D6811F4DEE9E3A9945222E58CEC0FA288602248CEACAA5C96855AEBDF35C21D0000FFFFCC974B0A80300C445F3F2BEDFD2F5AD1D01AEB425B15C5A5B8497621216F06E6
310
A36DCE30C01310F5E15535BCC4AF47928E1C77E9F7FA32B514541511619C26A4019048697382591555A52CA55ED11CC01883B516BF03E09CC77B47CE191121C681BEEF0821FCC61156000000FFFFC457C10A8030087DB3CDCB2EFBFFEF1C6B95A30EAE261D3A4490200A0A82F8F4F9D3388EFDAB880F0881C1CC36C30CC16E
310
807CF39FECC5EC4D69C3F63573486B03F97329A8B5AAF62D202206F5F6053C6B6A6C830391EBAFA9D733E63D6412ACEB829C33628C482981885EF4EF3B39000000FFFFC498BD0E80200C84BFC190E0C4FB3F2852FEEA2020123707593A909096EB71E57E6900551DC39D316630FE093AD08C9659C96FEF66025B5F62DBD717
310
C0757D2DB8BE749DA921486B84803F3C22422D7591A09ED82441FD58945A21E74C8CB1D5DA656DA394424C892082738EDDDA2FD7F9699D000000FFFFC458310AC020108BA04E75B1FFFF658B978AD2C1A227A5D0CDE96E396E4808499610C02963647E010F05F80CE044822FD0F57CDD0EE9279BE9230911414A0914B6DC6F
310
F45F743298B1F672AC99C3D11F945A71E50CF72404EF3DAC7538CB018A600B017B8C4BD4E0060000FFFFBC58BB0E8030083C1734E962FFFF273B4AD1E260C1565D8C895D48089094D75DF8B501EC784374AEFB9628A28A1EAB9FD7FFB509FA62DFED5CDFF898DEA65F243BE35F98C19951B416BF62BEE37D0301F6053F8E0E
310
C0A007C5B4F8AA8AB215C8BA6214C1384D2022A8022925F0C288714608E14B8A5FBF1D0000FFFFAC98B10EC2300C445F225361B2D3FFFF482A70E2A6434800896CF562C91ECE8375A73B69F6EA8F569E0D2482AAB22C1742F87CFADC1DD49F7B66B9FDE81336E8FB192B40A3FF520A963339E766FF9E2FDC1D2A23F90BB167
310
1E5DFCBFAF7D638F49FB820044629385BAE3E67871CC0CD51BAA5744846D7B6066ACEB9D94D234983ABB0E000000FFFFB458390E80300C7353D4A1CADAFF7FAF5FA89A0806E805A22021866C1EA2C472EC2CB559DC19EFCE2C7DC8F4AFB3F039D64DA4FF49EA6784E871E5D9532A4B6ECB3F148088AABCB7418CF77FBD3262
310
40196300DA0995924254212AF0DEC33907918C182398192104586B7F27C1060000FFFFB4993B1280200C44570BB1A0C6FBDF100BA9B2C102017FA88D076018864742DE7E68013BE69B93D9FD9C9F4DD8703678C5CAD535EDB28FF6E5BD54834740B67D340340822210499A9764114B7D9772018D7AF308EAD9733A784D09D3
310
A7E10002000A1196000A61AD85190D5415DECFD018313957B4F25F20AC000000FFFFB4593112C02008E3EC828B83FF7FA55DA4A7E8608BA2ED756907CE955CC024FA9107D039FF72F98838BCE275E7F4789BA8EDBF978085C4A275FD8DF4F964E65667BE4F3975F24DCBF685F5EFE0D0A18029D30028C328A8D60DCA9C2152
310
9401B368C16C06F610E02002EF3D38E77E93840A0000FFFFAC99310AC0200C45DF5007EF7F490FD0C141D30E31515BA1945610044194FF135FF47708BC89EF132819192A2D239FD904ABF14336786B008334EBB514A47DFA58CA57F187BDD375BD46BD55009311FCAC8D25C6120238449F9DD941AA106324848D9C33292500
310
3781ADF4E54A1EDB090000FFFFAC99DD0A803008853FA331E8FD9F76C3D955732E8A8ABCD00B11040FC7BF5F01D08B9FF3E9E46951454F60CC97C3DF6C3F30C10800035AB3BEF679CF770AF7B4EF8B7EE587784812114C8D5A0BB21CDFCB8D35259A6A00011E3DCCA273CB792E3B000000FFFFA26A0280CD84B1B0228C8564
310
7CD43A1FD3AD68753E321F4F23106F1790848480C00C28753DB4370FCDF7A8453ADC6C7844A35503B812054C9C8181818181918191119118FEFF812C62F9CDC4CCF0E3C70F064E46460616165686BF7FFF303CC748040880DE2525254100000000FFFF949AD10AC0200845AF4DA4FEFF2BFB832D64EB61E1DAA8986FBE28C2
310
BD4744E4F9CB53C7E48F62218476E060BC373C1A80FFA5BEB53D22DF6D80F52498E65A0FD763027443DFF45FD0ED8D719A78847BD72854ECC184F60329113666A82A72CE1011C418975A780C51010000FFFFC25302202F96C0AE021678B0C11DF848D6FFFFF0E955BC4911A5D187CAC756F463B403A85802C0BC88DA66418E
310
7CA4D63EA1DC4DAC388C0DB59891919181E13703C34FC61F0CCCCCCC0C7F98FE30FCF8F9938193919181958585E1F7EF3F0C4F9E3C6590969662E02461F8183541A0B61F00000000FFFFA499D10E80200845AF39163FC1FF7F185F21D5D68359B261B3E5138FBA7BC103FCFE028808CCEC28D597FD07FA422B0CA0AF27DE51
310
16BFF6FF930670E7DAE8391320C8FA48C419A1EFB8DDCF4362E38EB427142BC839E358EA889A790511C13683AA42443E99A07BA4E387130000FFFF9C9A4B0AC0200C446761EF7FCF7A827E32D385DAF8815A14B2314188090C7964193E0BC21642C6993E26D54D5034D573ACF556EF870D7713E30FDF574C6F65EDCBB7804B
310
33B705C5ECAD3A17F67E8CF174B949A328617786525702529260341CE7098A191819F618574BD79C070000FFFF9C9A4B0AC0200C44C7B1981B78FFF379001786942E54A462BF6E26590812CD53067F13C0D323888024CCAC39651DFD1FB08FF57DBFA2C1BD8E22BF9F33D4B51F3D2441F617BF9B3ABB1FE673BC24C0030D66
310
0AF4BC2E06502A36AD469A27B19B414B4110814840CE192925C4185FEDD7D538000000FFFFA45AC90DC03008332474FF41B34129F491435173A86AFD361FB02C0B7912027BEB5D0F4A8C606698597BF478DFB35AC207CA54001D6F77F0BF87AFA8650E626EA1676FF31F05F0B0FE4110EE80021AB20B6854040E10615C66D0
310
532147EE17A49440444504E35EDFE0060000FFFF9C9B490AC0200C45BF26C5A5F73FA3276831A40B67895DD4951814CC8B3FE26028C0F7E64F55C144B89AF48BC093874E1F05B6535E6B90C566435901777BEDFB07F89C9E30B5BBBEF2CB732E26C6837BC8B6096C07DAE6B5D6CFD03152CA160422D2E167C920A11A9CAEA8
310
6DF6602E37AB292584101063FCF2F8B1BC000000FFFFAC9A4B0E80200C44874A2CF73F25DEA1A52E8A0405A326B2817445FA795DCC7C5E01448495B929682E58785A9BD9B26579FEA553A127A8EFDF7FDC6F287034C1426EE64408B0A223F2AFC5BC69907B72CCA7BE8F9919A255F550041A2394B4AA9101A20222771D6B29
310
C879033323A53490EDE9EC000000FFFFBC9A410E80201003BB35F20FF9FFB3F00D18B2091E90450D62BCC8853BD30E977E0E40DDBBA594DADF6FAF08B455C4731E7BA0EF0AFB03FCF9AEA34EB2B48B426856036610DF02D03542A7F9C310140B0030ED538A0126123913AA0A11819B1DE21611C20AEF978347BE9470747600
310
0000FFFF626124A6DA86024646C8A0042CE090A72B21E620AA017C7512A1461FB21A7A2400B8DF9056F432313331FCFF859E9351EB7D8A4A010289E0D7EF5F0C9CFF3819FEFFFF0FC9F17F2089F32F333303D37FE822963F7F20DD70767686EFDFBF33BC7CF98A415252828194A16200000000FFFFAC9ABD0E80200C840F69
310
256190F77F489D19F871A104047411269276A0F705480F9276E47A48B150EF48F1CD0580E683759F3923E0E3C87FAEFF16FE0D02D91F33C31803EF7DF107D6828F6F037462CE81E8639E79A9C0A6CACC2923C6801037E8028222AA2EA62602EF8CF33AE1DC016B6D57CBA111D494FA060000FFFFAC9ADD0A80200C854FCEDA
310
93F8FE4FE5431879EA42B34CE907BA1BC260EE636783EDF53D00C022F74BBE8B2FF2DFB26F92DB7B7BB2BFCE04BFCD0122D069AADBC08DF4F780F6FB3E4EF27FF5D9E364029ED7C4AA0A0C0073D54712122356636044120712A3B5984380F71ECEB916C6F1CBAAE037000000FFFF9C9AB112C02008435339FBFFBF6A27F5AA
310
74804CD6EAD5998917950BD99A01AC491673E6D68CCEDFECF6CFBE803F021860F92BB2250AD6AF6A400188C7B923E219516AD902FE067480FD3503402D77A01DDDF307B5548345834AE1E6113B75A0ABE26E0D12044104295DC8392FF7053C0F000000FFFFB49BC10A80300886BF5A0BEA15EAFD9FAEAEC56A731D96154163
310
97BC08A2277F7F51B41800C6A451449F22F57B361793B3FD45FFAACB7C006EDF6B1C34066B1BFAAE675D5676BF1782E0CD0E14808054F53122921840CE0DA1B6206B5B6A3D4E49D027461009408584C0261B3E789C734CF3CC380C9FB979CA010000FFFFB45B410EC0200803DDFFDF6B88851D70844CB69DE6C998E841A425
310
D21E4963B0E570B862CD428C709923E3016CC95F677EBEFCB779DEFF5FE0EB3535378836666ABD477753441E8AB76FF82FB9FF4601BA605F2F0A58E7022035F3CE60420140C948BC4260F6AFE23142C78039EB0014E3040000FFFF9C9BC10A84301043DF42A98C82FEFF97AED68E7A98B66BC5AD60612EED2510921C9A7125
310
E3EB1F44C000A86A5146AE4FAB2ACEB97BFB3F596A754EF7FF14DF22AEF5F626FFCB246C39DA62AE83A5ED1EEF3DDF7966D35893FD60FF46FC25126E22E0AA7AC39814BEEF2C4BB096303F07086B8090FA8C51E103433F304E239DEF1011EB1388345D1AE0000000FFFFBC5B310E80200CBCB092880E8CFCFF6DBC417A7180
310
6231DA51920B0B53EF5A52B8BA57004988C8F4F5E9E3CF246404CF30F4D56DFC5AFE7577893710E30954E8074D085D08ED7CC97057040F212C2218B059CFF58C2E91763B92D109D7517592485B422905C7B1F76A30C6DB6AADC83923C6E88AE0020000FFFF9C5C4B16C0100C9CDA70045D70FF83398428795DF83CB4F5DA5A
310
059BE44D6662331E1BA0677F95FFF9DB946E8331ED697D647F1FFF033E67B3023E3FB4526BF29812B858BF13338E10E03D0100945420A241F6AF0C7F798E1BF0EB7D37FEAA1A1385520367D772C84E65B109E85DC31A032965B3AFD77A638C70CEC15ABB5482130000FFFF8C9C4D0A802010851F7908570976FF7BD501C44C
310
1A6B618E3F88E94A0617CA7BDF208C4ED700C949445475BB28EF0325617F6386FE91F8BD58256E9C4C11CF8F3F4BE25306483F84BCC7E91CE8A62F032CB9BCDB23BE8A8F8CD08AFFE47571C749013EF7E55CA49D02F72A104240A915524A500830C6B0A981879B53586BB11F0736AD73C1AE91EC050000FFFF945BBB0EC330
310
08BCE02195423EA1F9FFCF4B17ECC8C1EE40C8B3A9DAC18B174BDC1D1CC85C3683DC14BAF2F7C1F4E011859F09F0AFE2BF81FD09DCCB1D4EC0D4FDA74FEBAF759EA15A508A42B5AC8B21D3940C785550D3A0EB18140829463357AA3698B953FC0D11B673ACF5AEFA43EA3C19B19C33524C28D508D0738F617882992122AB21
310
F72ECD93348580B67DE0358E10916538B4CD00EAF2EE1B0000FFFFA49CB112C2200C867F5A1CEA90B34365AABCFF33D93760A6C16BF41C2C0888E720036C0C7CC9FDDC7F499A9D41D1E9AB35EB3D16A55D275FAF7FE0D7607F9D2DF8F7ACDAB7D4F8470A844D04B710525B58A73A9CA709C61810114404CC0C22C27559C01C
310
76DBFB13F2D7408819BF0F9528E0E7EF9FED49320178EFA10F1AE369C47C99711C06AC2B436403A0A0F5CB9657AA43DFC7BB55FABB39E760AD2D584477F0090000FFFF8C5CBB12C3200C135CB3F101558EFFFFADE40B98D225CDD91DCC23A4A457260616232C73B24FC312503C718CFE5B6FBC8940BF35802B90DFC0B610EF
310
CEFD4DFFD78FD580E67BCA971C9FD5F8FD6DB5737A4C88316226AB945A6D618E032104F0492CEBD24D3FDD67FBF90148157846E03B18F51A6C5AEFDC7B6F828E03661224A1AAD8B6576E16691E232FE614B6171138B429ED94124876FE0B657D000000FFFFA45C410E84200C9C8D7AD15492A58986FF7F8E8B5ECDDA5DF750
310
4090ECC5E5099DE9740AB43F3D401DE852CAFE23C09DEC07827055F5FE04E053993AC9325F44B0BF7407407CCD34C6C0DA27981944A4B3FB09F83744F674F7414460CBF0DE976A73ADF18988B9EC5F9D7E8CF581239200E79EA2A66931F4BA4D6434239C7310116C9B4E2C3F024E45C508BF9AF2D375DAC62ECB8A799E2A9C
310
BE000000FFFF749CB11283200C863F4DBB58ED641DEDFBBF5DE59005950E1A140F06EE200753FEFCF70D218900AA0ABC5F129ABC8A41ABABE400D7CA4EE3A5249FF773FB701E8AB60F64C14EFFFAED23DD8E8A3F206A5D57DE5DC7387E19860F2235DE2F38E762B2EF0B40A4A6EF7B8C31586B63FBDBDDFE95EEB72D6FFB21
310
B256D2BB0D9502DC93AE6D695E0DF3EC908744000CFA38E9633CF2C7EE1A0AF1E8A43211A6E99715C01F0000FFFF8C5C410AC420108BA5E8CADAEE45F0E6FF9FE7452C156A0FEA682DC21E4590C168662662060660F43DBABEF48DD43A63801923CC007FCFFD71FB7BF081BCB9A56DAB603F818F38CF88700412B07EFB0E6B
310
2DB4D6A4F285103BE0AF92365AFAC80A5BEE0684E030C6D09A35BE57A157812737B1A1026F4C4FC38531702EB06D0A524A78EFE19C83525FB2A7A982507324EBED6CDBA1B852C29212D6352B9ABE58DE48F979C471030000FFFF8C9C310F83201085DF9D1A3BA9832676D1FFFFBFEC62272BD646817610E8699BA603616039
310
F2F11E5C7287C802287C8B768420D5668CBCFFF6407FC1FF07B884FD11835B94F66AADE8EA15B35E359675C1639EB138F0E7BA4659963BF04AA9AF6A0F6D62DEC6DD8B792B1889501439AA7B85AEBB047C47CB7F8B45664B07EA6EBF84278819697A429E65889318C370C334291011F4AA61AC0DF0FD60DE8A58FC0120DF5B
310
0042C4CE8998112709CC38A2EFAF68DB66C7EC050000FFFF8C5C3D1383200C7D89B2D881C1DE51FFFFAFAB7775E38E2A4807084687B67B8690072F9FE49405C87A14638CA2D7DC72E0A2F08E94BE67019ABA7F82AC64FFA17C01FEFAA53BA688B86D65F74EF5F17B4A784C13EEE308E71C88E804BC8E13A40E901570D29717
310
7D0900778C0E3D9C730821607ECED515E897BFABBAC171D6AB8DA8D23931E3360CB0D68298B0BC16BCD7B551BBF8FC227B4C2F13736382C6022D0E60E4DAB5EDEB8C83F7BE5D1481E3030000FFFF745CBB12C420085C9B34B1D5CBF8FF7F48521CEA7905C4574CEB30A3B2B8B28A4E39C0A8FDB57B9990B6F5A7827345F10A
310
F807F893CD9AFAC5B2A7FE5F2983944B5A3F9FB348B9FBE4EECBF2A1D3717CE0BD8773AE02CFCC48290F14DFAFF806784B2CFBAD07909C5DA87A4308014404A213C6E0B1F25103E0E5759511F966F71DD65A7064101122C7C1B739ABAFCD02FC1A044D44DE77374519406E37375CD7096656352023FB030000FFFF845C4112
310
C2200CDC302D07DAAA4FA8FF7F91FA0B6670606AC10304288CF508A7B09B6C42603254B6FCECF0D56351F951A897F74CEFE9FEFFBC9F404F0BAE3D8E11CF933C12F1CEC1598BDD7BDCAEB1375E477C21FED35D0FB3D4B7A485D0D9C4401109080A504AE1BEAE783C5F781B9395A0384FC1B641054402E33860592E98A709C6
310
1868ADE3C91B6FD9B6D80E169CF313E95CF01505A003F979B279FAE7B87B0F6B2DA494B933F8050000FFFF7C5CC10DC3200C3C68455E49783000ECBF4F3A46A350A941A1A58F603028EA0B2130823B6C2C63B8D304BF2935DE3F9D56DCF93B57239AC1FF925F1B2F08AF320568021EC826B4F3EC33E964EA4308D8DF3B8E78
310
609E663867618C2949ABE563C77C71C2E3FDFD19DD6A3C95171B20250632A0B586B316CB63418C1F665E8BEE573044969712C330601A4728A5B0F90DDEBF08DEA63B554447BE60E49323C8A3B8000A3FF276268B00C0735D9B67E63F000000FFFF7C5C310EC3200CBC04589852A9594995FFBF28F943BA51429BA403364620
310
850D18B07446B60F739A4FFDC608EFBD8480C2829C09B3B3D02DBA53AD68C12F002FF66A47282B8EACDDC37DF2BF047CDC23FC2749AB1863F09A2638E760ADCDFA7EC7C1C2CE44F9121B780F7C5D7AD2BA182DE0501276A1C7383E31EF339665C5794A7B7CCDEAE11272E7310C505A61DBDE082134E1B4AB26FC2691416FC0
310
AFBFB74948EFBB2473A3954EE56B31FE000000FFFF745C3B0EC3200C7D7C26A2F4027573FF53A517606824A620950ED8160E0D1262C083C1D8F83D3EFA32A853BFDDEA8257450D2532B85F8E85EFFEB59BC2FEB418EE8D3FC23A13EA199E4A821763C4B6BD404458960E934A290AE78400528F6FCD24785A59916B7BD5DB0C
310
A97D15877BE7001F404F42AD15FBFEE6999B037F080129253CD6157040CE19E7595572A482C7A2CEC757C3FF1BDF6E035DDE2206EF1D8ECF31E401C00F0000FFFF8C9CB10EC3200C445F02D9C2C20F344BF3FFDF46CA5029810E60E19028EAC88284CFB68EF3C956821F42E03812C60E54638902ACF900C51790522AA61095
310
B97F91C09B764F3ECBB7A2C069E0BF42F0EA0C7C5DDF78EFD9F722E0C83F5F0B41A93A6AE8417F00FEAEDA2FE7FA8E1A6E86110C23CB6B01284990F32936D36499E719E71C3146B6ED5356D1E8CABF605F1442D93BDC00EFC05744B02581BA4508A431D0CD717E000000FFFF945C4B0AC320107D634648415C790069EE7FA4
310
E6168D2D14A70BC789B449A12B3782CA1B9DCF7B23DB043D9E74F495F000114881698C13594368AD82DE13FA4F0CB00759DDB834A7EF9DB1AF46CC3CB52EF1506A36848065B922A504E79C017F54BDB3A7DED63AF3F33A0E7B3D03FDDB3064176C1261E20939671008B775357FEFBD478C119779C676DF5AB027C32DFB00DE
310
52BEA60003330FB2B05FE03BFDD84A8DE7203BA82228A59868F40D0000FFFF749CB112832010441F03A1B1C1DA31FAFF3F674C23642624C58122624107C5CDDEB27B706080CA1445F60C4841C634276B90D626B5297F41E91BD69F93E20ABE0CD9EE731D9F74FE23066FF39B3C867C188669E0398E745D470861BF0A3D819F
310
74BEA9ED0D9D2F81BE677E1547B526335DCEE5A5737A9E27949224B0D6E29CC318CDF25AF09B6F805E7D40A90E10E127A46B30FDF004A529BC96F26512C41859D7377DDF03F0070000FFFFAC5C311284200CDC20D65E49A3FCFF75145E213A842B90104E6F6CAE64683281EC6E7632B144106EFDB5989015029CF115032567
310
8C0F5EC01DA73691C722D68EA3AFFA3DEE606638E7302F335ED3243C5FE1BE28FC84C4099CB86BC18A7BF71FB8EF0F570AA3B3D289089401630678EF61ADC5FA5E0110420832DDD332A6A05ACF61D43B54C16994F0FB7E7C23EBEC9A3E501F40B5F695B662DC24820F000000FFFF6C5B490EC4200C735B893E62729BFEFF41
310
7C63AA42A5D2CC81601671E300521483E32CF06750A6E35EB533255125AD162355952DE33CACD83BAFE25E059F5A886125EFA9E0DF16E7430C785382733B8EE30B11018086EE733EDFB67759A81A299FEB6CC79CF627804F5E7EBFB53FFB025852223D17D52EF2C1EF3CE1BDC775853A5D353482087801BFBD14BA60770EDB
310
B6D2F723F8ABC5FD510714C7B39066223E5AB91F00FE000000FFFF7C9C4B12832010441F909529532E63990378FFD3E835CC2A9AA2B3403E129315AC80A96EE8F95073899609654D27E4A7A5608C81542489801B63113E49C3BFC450C9C0085C8AE7D78DD7BAC7F3DB8610F7BEE7310C745D572472DED58DCFDEFD6FC07538
310
4B3DD6A07E817D32392381D25E42B2A92E8F815BDB328E23F334B33C977D2D7B003EFA1165F898755C34D706EB1C2A64B8949D408C4CA22CE5A4D7563E7420110A3F8CBCC739C7070000FFFF7C9D3B12C3200C441728A1A7766AE7FEF771B80433C0A6508CAC38E404307AFA212198750011E0C0A0976F58DCA7474D401C47
310
9FD78FBC972A96246EEDFE26E00FF8E65C7F5A7D95D0536B45EB0D31463CB60D3967905C2679675D4285AEC0FFBB7BDEF7B7266E9561A13436DC48CD41A68BFC849152C2FEDC711C2F9452404A4B1DC6622FF0CDEA4E8DEE1BBE53F00074788457E5E7F4947D74C322848037000000FFFF949D410E02210C459FC68C6CD01B
310
B051EF7FA499530806A42EA450758C71416045483EF0DBDF5276C0C87805BA0F683900A1D6CD780FD016904B0179D6B6538BD5F2BDC8E7959F55C54B37528AE45CD08C971002DEFB1EFB1EA7BE18E0ADD4FA47FF6503FCC07E15743B8752E768B5894FDBEEBA49ADECA789CBF9C4F1E099E7856B8C6FEA9D01DF8C0570CEF5
310
0F30D7051FB5135ECBD32BF81A3391962974AF83CE1F000000FFFF8C9CC10EC2200C867F1CB799C9C1655EDDFB3FD5BCB9701747A9870E6C06313E4043D29F86F6CB4F2D33C37B0F8A11C65A00099C0F6FF4019900024057C64192D52A2AC13A1944B198324278E315A4EA2912FA738FF93E631CAF60E602738AF80AE65433
310
FC9FA2B7DFEE5AF11FFA1F621B8D262BA76F926AEB28C15AF96BC8BBAED374C3305CB03C16ACCF55809AB2DEE170114EC6C039D7843B2AA0AA7EC6770DFEB60953C9C616CD273E000000FFFF8C9D310EC2300C455F05586D97CC50F672FF030117A02BA402C2103B75A98AD833F95BFEF6B71DE732508DF9D62CD15380E501
310
30ED0AD804AA881063CC7BEA4A03CB90FF72A5DD83BB6AF700FB43E6FA104251F88A92E7BA76FF0B38BF405F0BF9ABD07FBD9D73BE39E052569E9C20772FF56ED076A3FAC993BAA939F53DC7AEE37CB9320C375232EDDE3B02C84E689B7606BE5779AA8AF2B185B77F52F0C751AF9DD94C819B1F00F8000000FFFF8C9D3B12
310
83300C449FC74EE014843EB9FF9D481137A40124A5F00F68C2013CE3B1646957B2BCC1950333C5D451134B71598C220DAAB41270058266ACE5070BD74047ADE6AD4928A968F188083E781EC3C0388EA82AF3FCCDD4AE093396DEFCB9277F95D6FD037A17EC7F5A7F8C3C691F39D7EE6FFF1E945AAE7388B089E796E56DCD40
310
1D091BBC9EC44F647A4FC418914D487A1A29A2F67D4FD7DD3950C66A9BE4143E1BBF3D62D1CAAC963C48B2AC0BA6860F1E53AB135E3F000000FFFF7C9DBD1683200C85BFA01DDA73EA8275F7FD5FCB8E76B4A76AB043403C5ABBC2C04FC2252137A134A858560A515C232276FA45F246A80A224A51840839F6BE6D503D23B1
310
9C99056FF25D9FE85341035575A76D5BBCF72B0369FB23E77F23EF4C0976FDDBB683904F8CBC53F9EFC63D40FF0F1460AB083033471ABA525E72E9B7699A70CE51D79EA679300C6FBA6747DFBF18C70F0B0BD7DB351A8169525911523EC05EF896E36021F2E445A95A312F278E10BD37802F000000FFFFA45D310EC3200CBC
310
380CEE96EE644DFFFF3336E25440070C06B56A87AE4858883387B1CFC2B50442C919594FF1A8543527A89B901AD88BD3AC60FDA15BE48273AB49B2AE7AD78FCD0B7EF7D8BD073323C6F846F9B5554BD9E89F20EFAB03FC847DB231D1FD27E031838F61DCE6435542D68FB0AA5893A8D6E989087C633C8E032925C4F3440801
310
F76D53A66DB598799D1618A3BFCA9EFA2399887416404177A4A5989117000000FFFF945D410AC4200C9CD51E5A5AB62FA8FF7FA025A06DDCC388C46E29F424286820D14C46920C1FB0F013E37943033704D8E380520FA11BA02B483923C688711A99AB9E1244D8734F0B3F8DC21610C2C6277FDF71B45EBC96BBBFF0F7AF46
310
6B08BD929FC1DDFD8235B027C577F37FC66264AA7B965391B5A273EF6BD12D72FD7A2A9C67E3C9659EB17E5738E72022EDF69263B8486CDC6E3E98DA66C935C6FC83E16B4AC3113F000000FFFFA45CD10A80200CBC4DFD00FB03FBFF1F0CB47AD09D664144820F22226EC39BE7360F58944F2582440169F3B4011E063820C8
310
523D57D78A2A861078CD8B081D3A7B03A735618991346FCE99DFBDB7E08CBFCA1FC65F5A5F3B61FDACFC17C53F43D1BCD741D8DD4B816A95A7770E5A6A7D60830793B3B2BB8B1190E51BA8714B7CD95A5CA4B6C25774EDA4E70F9C000000FFFF8C5D490E80200C1CC02392F002F9FFBFF013027A183623014F1C48E884764A
310
535AC806A02A03910341BAFEC67ED1810F0190F202F28B619B52D8B586F727CF244121D65A3877C018F372F905684A715C8AF547D953D7BF3200F1999FBBFC11EB178C1FE2E8F75254053249C31A08FE3FCC57CAA46CACAF8177192BE6D6761663E2A55A69ED4B6C302989244ABD81BC1E003C000000FFFF845D4112802008
310
5C663A684FF0E0FFBF58197450508BEAAC33228BC0B0232CA04A37EAD7A5EE01C48C0042C335042718DB2E167B8E5210E38A102BDD1962404A0939671060048EB97CD609DC4EA2F702FAA4E087A2BF62BD87BFDCF6CD207A40FF016F120CE8EB1113D3E719425B6211A0D53D50C87A03AA21507B58BD38D365B366D35CE71A
310
13D54F21569154819AF168F278010000FFFF7C5DBB0AC0200CBC8A5BDDDDECFFFFA120C60E466B126D16110E0C5C7C9DC178A0039B5E01C42170A1BF71FE7B2928AC008E2C9E7007E49C1163C493126AED8598D7926C5B35EF40BA20FB877CC1BB0E00BB657E183DFE61D6DB3E4C2B82F0649776671F08C38808A0863A7116
310
23FC065F0B597370CE2D0FCD6DFEE1E959C70180170000FFFF845CD10AC020087490CFEBFFBF74B1E0F6A033B5DA9E8A0AD22E8D4E4B3382F4FBB1EC013C19A42A42932BFBDD355F5D846A97C4E89999EA59A72B5E5FB8FC81C1B77BCFA51B6A686E171FFEF88AED79630D4BDF59FD0FF0D1E45D75063A82B9EAA740C59BAA
310
409AE620E18FE21B0109083A41F0B2BBA052D8E2370F000000FFFF845D410AC0200C8B32F1B0FDFFAB3B8C991D566B0A6EDE2B2D2426058BDD00F84EBFC686AC0A408248269963C7DEE513B9276E1B0D2389520AF6E31D71CEF6B171F77C97FC7EA31484192040889B7BEC027C44B78F40FDCBB9122134785ACF5772620D6E
310
0071159BC79B819E122275C22484C0417E49546BF59EE0010000FFFF945A490E80200C9C122F5CE501EAFF9FC51B68E20278B02A5242622FD0362184E9F4307400006B2DEE593FD45A00C9E3A402FC6D0507C67EECA20318CCCB84D139A418E1BD476086217A46C7DE1FAAFFE0AB5C11AF31501DB25A358B5B0CEFB0BE3E4C
310
193576E235C1250D64A72374F39FC2286F910B3F8BB278D9090000FFFF845CC10EC0100C7D46626147FBFF5F7473916C87671BD686534BE5251E954ACB01682F53FC021616D8D04701F4BA249F4518A53055CB3A8B2332CC3B53E29D5F2B4288C83963DF3D80A75882E07FF21B89D20953E7E8045C8A3C63EA6E7DB411F185
310
662665452E8671C87D12B98B8DF259F68A1916C37BFFCA37000000FFFF8C5D410A0021089CA1FA45FF7F652B7B48C36C5BF424358760C41141AB80FEEAAD5B314940B4D2B4625944E65CBD76F6C678D622C5DEFB5A57623DE852E6383309D4D6BE09F77E222032E41FA70E1BB3C99574C5FD6ABC59643D5E5EB47E7A27B9DC
310
20B72C9024DF3D873825C0EC050000FFFF949C410A80201045BF59D4C07485BCFFF144A916922DA6B232A3562E443FE393F98CA8758C119552E8DA16D6DA53B921A12F4BDC3C7FC6384D0821A0A91B504730660033C33B87FD3A949C122A10119C77E8998F5734AFE9BFB4F01FE097A09F863F6894AB8FF7547F077DE52B8D
310
BA3348DE9CF59737CA1F0B48F2B9B6CC2E5169AD2FDFC8AE000000FFFF945CC10A80200C7D927550EFF5FF3F5747838284CA0E9B62D88A3CEE5D84E736C7B69747799C7318C70967C36BC891E7FE766EE8F0AA75D79286EE30F430C66259A993A7A0A035D596C771C25A033F7B6C21D0A74320A32206A8F37FBAA490F745EC
310
F3713D616F811E28255C4AABE8D915AF32F9AF9E8FBFE4DF000A013166D998742E000000FFFF8C9DBB0E80200C456F141C1426FCFF5FC445127904070882560253C3C821B7B4346D290913423CCD1173E2C087507EF3ACB36950D4C2B12B0529258C3971590BEF1C62041867E0392298E6F43ED0874E7DF819A3E1D787DEF3
310
B99DCBD0587FB29FED0F6852618845307F6FB7C5DDA3A0C7E0D7FA3F049FE41FB1AE5B33C9FD060000FFFF8297007C7C7C0CECECEC900DA2D0A1E19FD079FC5F3F7F414FC7606710161161101515854EF522067960C7993330406E1483CC037033BC7DFB96E1DBB7EF90858D68AB8789AD16B05501D86B031C098694848506
310
E0018A25E3E3CAE594453E666982CCC65ECC13906380965CFFFF33F0F2F2A2F801000000FFFF9C9DC10E84200C449FD9C22A12FCFF7F5CAF8B078D1E0A898BA8593937044A679A36CD20D9D01843D7B6C46F0421A9684D2A97DE807D5B9C730C21A80843D479BE7999D34CFE9A5A9080B534C04B843004C6CF88A43F06B3D7
310
AF727EBDECAAA1B4920E0EE83ED9A7B03FAC13C4DFA1F4DF877ECA0625CD6BDC150CB43FF7AA2D65EFFB9F6B6D000000FFFFC45D310E80200CBC0E84057580FFFF4F1619988450874605C438DA85A4C776B9B469E02A8ECF90D9B1750EABF760E6CB50A9145956A8B5867316442416EA2921E7D48C750B17600788E43F3A98
310
B1CC33C21610638499CCFD82B8277A707E9780510C7A8AEAFE48EBBD5ADE516AF37F935F734C6D9B5963A74C94528F6D2207000000FFFF429C16CEC0C0202424C4F0FFFF7FC42A923F9055C06CAC6C0CFC7C7C0C6C6CECD0593D48E4FFFD87BE218381E1CFFF3FD09D2A6C0C90830B5918848404199E3D7FCEC0C40C390A05
310
A5574052024030F055D7C42716A8345A66410423720E23AEB826560F35229F608900F70764A289938B0B63093F000000FFFF9C5D310E80200C3C8C180914FFFF455C3B8889C1A146053418994A189AF6B88381D26C36790F72843007F9861C72B1336684B50E312E887115F0CF52AC2C95D8904405A0A0750FA53A10791033
310
98F9E8383A9C2F583F2BC0E5228FEC7E366784AFD97FCFD1653EB0FE15C83FE07E586F015B4A7B7323D471A524452AE5D8010000FFFF9C5DC10A80200C7D36A8BCAE63FEFF9FD51F34EA9075D0594689E44914863E9FF29863CB084044706EC434CF3000281627ECAD85F73BD6754BC19BF7EC598AB27653E975137440630C
310
0666C822101100477010C59595FED39F14C836A8534A822F417807EF45CC65764B37BB6A2C19A93CFC3AF7EE9F57E082E240DBB560E614E8A3ED040000FFFFA45D4D0BC020087D31B0B10EF9FF7F64D7AD067307B7A8F6C9D65110D1A7601AAF035328332B28465F0A59225822C49890E6A45BC04C1973D38489368404005D
310
07220BCF1E21048C93412FCAB8B5EB5CCFDB8B634AB1D40E37F6CFF4F21D3E27C15BA03E56EE5FF073E59789F66CAF8DCA220237B8EDA3EF3A342B000000FFFFC29A00040405183EBCFFC0C0C2CCC2C0CACAC6F09F01B27BE8F76FC8993BFFFFE1AA541109E2DFBF7F502E23031B1BE49C1A010101862F9F2127553132422E
310
3D842C5640443AAE0E19235AEE856E5C8368C2C8FD487A600E624491404B36E4443E23A65E3897889281889C8F29865F3DA6BF100076A104FA1E4E00000000FFFFA45C410A0021081C0B7C4AFF7F9F1DDC8366A12D2CAC3027E9A2624933961D2FCC8C3186395B0308F12814992630083D7E86CBA29C9AB498C12226E7EECD
310
F6E910082233E8CA7B9DBB7F1967A8624BBFBD53383923AE8E136EB598CE08E504BFFBAE81473D4BA9607E259F6EFEAFC9A780C246FC3CFF2F7B000000FFFFC27A58B4BC9C2CC3B56BD7E099EB27743CE0EF9FBF0CFF19FEA3050C4AF0A204F9BFFFFFE0ED0106460606061656064E4E4E063E7E48D7F03723242261EB0831
310
CD43CFB6FF2143D4D0154A8CD0F58AC8118DD61942682598BB91F4E3CBC568C532692D7822D4923CDE8F99309199FFFFFD870FF2C18491E308000000FFFFC29A003838381974B4B519AE5EBBC6F09F81013E26F0FF3F6AE43362B110622B8CFA8F54153030307040B63A09F00B307CFBFA8DE1E7AF9FF04522C8CB9730E31D
310
12E9C8342CE21991FA709869085F4EC6174138221F4E123603591D5673488C7C94648D2FF291A8FF0C90BD85C2C222A811830400000000FFFFC2796790AAAA2AC3E7CF9F191E3F79023DBAE50FD600424B0628009633FFFD829604D0128595959541584498E1F9F3E7901BB2A19B16991899E02E6764C08C746C890015600B
310
70DC62F8229F702EC627874B2F213309A845F1223E3968F8FFFBC7C0C7CFCFC0CBCB831427A800000000FFFFC27B6B98969616C3EBD76F18DE7E7D8B3350F125008485FF18FEFD82F61C20491D5215F0F1317CFCF89101B6349A8119621A72E4E3351CE104342E72AE421743753B6604A0CBE15647D7C867C466278A0791DC
310
CFC8C0C00039B6460C7A542E3C1418FFA3F40400000000FFFFC29B003838381838383820AB7F98995172206C912103C37F94C50658C17FC8A6F3FFFFA167E43032327032723208F0F3232D2D832C496366C2DE1E803A1F6B2EC42E871C5C98114C7A4EC616218CE84C5431343623AA42A2F561442ECE848160FD830EC3234E
310
0545F239522200000000FFFF9C9D4B0AC0200C445FEC0DAAF6FEC794426D17FE6BA0D22C47FC9038300A8EBAD36317D6EE20FD47494D9517DF1955B94F2AFE265E91333B9286103066C3390B50557ECC2BABC59D583BC71ABB45C77E165FDB68DF0C6E58EABF700934CC21E520D08D39B617CC88E0FD313C057F650C800700
310
00FFFF229800A4A4A420B9FF1F62A006BEA61FBE6C1A09638348EAFEFE855C6CF8F5DB57861F3F7E40CEC8E7E747CC28229F4C0E85D8230D3B8D2D41604B4CD8731F151304C9F244B03112375A02848AFDFFFF9F8197978F818F0F7BD70F590B000000FFFF22980084848418E464651002F0BE36EEC84660681A61406A7CFC
310
87AC18829DF5F7EBD74F063E5E483705B25D0C3A1E006B31121BF9707F1193309042808848450F74846E7C89894479A2D8B8F988C88724143131511CB91F25A41800000000FFFF2298001818208D418C3304D19B935807F0B08CCE3042C4610B4EBE7EFDC6F0F7EF1F0661116106760E76E82EA3BFF0EE23D1918F1E894834
310
DCBB387325FE1C4BB0FEC7484C686C528B7A52239F01598C8141187A011641C0C8C000000000FFFF222A01080B0B33E8EBEB614AA0C72F96F8C66E2FC4B9FFFEFD63F8F5FB17C3D76FDF18FEFFFFCFC0C7CB075F4D041B69441E7822AE6867440438C6A00D0303034EB3B0C9218BA1B1714412563DD803812691CFCACACAC0
310
C2CCCCF0EAD52B86E7CF9F33BC79F3067E130C6C2C07B147839101000000FFFFAC5D310AC0200C3C53AB20F80DFFFF24FB013BA52E857648A916541C9A3164C91D8124E4C8700AA82D84801837A43D41F592EA9AAA40AB4006DEABE39C33ACB570CE810F9675F2758ACC492B10A84D3EDABE02E328BEC67182C8898A9FADEC
310
3FC8FFB2208DBAD64BF92E0659E231B3DC691261350678545CDE7BDC000000FFFF22AA04606080A42C434303062646269C1336B800239C80B91DEA01D836E7FF9044F0EBE74F060E0E76060E0E0E06462646F83E83BF7FFFE29F2422902070CBA14704448CB88824560C3B1B256CA810F90C0CFFA18751C1D6F932A2842F03
310
0303FCC6901F3F7F327CFEF285E1C58B170C00000000FFFF223A013030407A049A9A1AA4684173263C161890BB650C0C90C6CBEF3F7F187EFDFE0D5F85043B350376E50B6C568FE4F1001C72488E41514F7E8B9EB8C8C79D10D0D9442406A4C8E7E4E0C458F1831AFEA8F8FFFFFF0C00000000FFFF22290130303030686A6A
310
32888A8A92500AA0E72844C4C3F6BB33229206C33FE8B574AC6CAC0C6C6C904400B9CDF327D2A516E891C080268616D038E4085705A4473429918F9910B0254C3C7C28F8CFC0003F8A0E7D62941006000000FFFF22390170727232989A98401A6B44240246341A1EF148109E2419600B43FE33303142CED9676767871C60F1
310
17D26BF8F3FB0F6A6F04236209E458AC7224D4C984AA08AC1148091B071F0EFE33B030B33030B3B0A08CCDE0C60C288D7400000000FFFF2239013030407A0506860650EB892C0990221D290B42130452626080B911B2650D960858595919FEFF832E58FDFD8BE1EFBFBF28E622D34812980902450EC3817822039150F05611
310
A8B66092548E7C6616C89A4D48D14F4C5C405300344100000000FFFF223101FC872F28D3D2D460303234841B8902B045024C1C4B0980D19D8359C500491CACACAC0CEC1CEC0CAC6CAC0CFF19FEC30F9F80CD22A2E863404B100C58DC82357289890C7CF2986CCCF020511FA1C8676661E0E0E080ACA7405FEB452400000000
310
FFFF223201C08672A1E9076A999A9A1A83B4943403AE94879A0E9073396A09802C8F1C21B0C40A3BEF869D9D1DD22E606262F8F3FB0FC3F7EF3F50DA059891892E863BF21950C4F0B1C9CDCDA806E093C79DF810F1C1CCC2C2C0C1C18EE58E67CCD21EC78229060606060600000000FFFF22900050231E45E63F03032B0B0B
310
8385853983A8882803FC883706745B50733F8289A504C0E906887A582240B40BA06710FDFE8DB808095FEEC68868CCBC454A0E253B21A03A0305E00C062499FFFF19A0174961CBF948518DA31D809C5000000000FFFFC2910070473CBA559C9C9C0C9696160CC222C2180B0E11CE460B3574CC802D9722620DBEF68F01E271
310
36363606760E4869F0FFDF7F86EFD0DDCB7F615D455C399E014D0CA9304211243A3793570A608409466EC7C28787F97F78E44322114BCEC752026002880C000000FFFF62421640310CAB26747510CCC7C7C7606D65C52020C00F9FCE457637B61C8F33F7A3862D6A40407DC3C4C4C4C0C6CA063D48999D81919181E1D7EFDF
310
0C5FBF7E856F6743050412045AA2203E12D1CD279F8DDD2C8C9067606662869480CCCCF06C016B34FF4789726CB91EB3AA00000000FFFF624216C00D508B0E0C596822B0B4B0C04C04687EC3C00C68B91EAE101B0D730B03A45DC0CAC2C0CEC1CEC0C9C1C9C0066D20FEF8013D9FF8CF1F0606947904061C1180268E214F04
310
9BEC9C8F1A34B8C17F68E43331B0B343EE0FFA8F35CB136E0BA08423C37F0600000000FFFFC2D30620A64440B2F4DF3F06616161063B5B5B06116161C86D97FF1950C214AB9719B188A2E456549A81014B95C0CEC6C0C9C1093FFDEAF7EFDF0C5FBF7D832C47877517498A5C0612D4E28F3AAC00470EC725011BC767636387
310
DC1D8467CA1D11D1C494040C0C00000000FFFF6242B20543123B406B482044112581A50583A8A808C35FD88A60244FA1F6051851C4E1B18F192C986103B190013E68C40639B686939393818D9D8DE1FF7F4469F0E7F76F94E5E90351C4132EEE31FDFDFF3FE4185F56563606365644CE47CDCDD81B7CC4F40A1818FE330000
310
0000FFFF42540118D6A38636C1D2002AFFEFDF3F789B404C54147E4C1C5E40A014C0CCBD888084253C0606C85E46767636064E4E4E064E0E4E4877F1CF1F866FDFBE337CFBFA0D328A08730BB909018D4D8C3EF4A8C5270703FFFF43B6CEB1B2B232B0B1B1622DF629290960FA01000000FFFF22BA0AC0268FE20814C7FF67
310
E0E6E666B0B1B166D0D5D3656060408CF11304384A013C8AE17632FCFF0F1F38E2E0E060E0E4E284CC2C323232FCFE0369247EFDFA157E90328659C42404343641F7E1548CA31E80966C90862E2BFC8877A2231A6B22C1DD3B00000000FFFFAC5DC10E8020087D1496FF62FFFF27F6279DC4EA40A9B9691DF2E81E834D40D0
310
8DC7B5F6F762B0D72164CC7E28DDC9E21C0C33BC5F2151405C7EFDFCBB6EDB0957A7304CE0912146397382040409889BCE3DB0B3D5B9BAF4E53DACE5081D074195DE9B773F908E31453E834A3E46CA38CAF04AFAA92BEF34C138010000FFFFA49D490AC0200C45BF53ADBD88F7BF4A4E934D4917D53A83D0BD311FBE2438E0
310
B3D828FF3BA6AF76074A29C41811C205220233FF5A047D7BE84FFEA4129B8926C66838EB70DCEE239267848D361AA7F7E95BF5977FD0649B9AB6D23EC66655D3184179529F8CB7151BA0DC7CA231A0317B689FD20F4235CB20F3010000FFFF9C5D410E80200CEB60CA1FF4FFEF7327BD007A980A2804632F1C6842C6BA8440
310
58B995D8DAA5CE83D01145E26897F080799EB08840441011B52721A8B93F39FA72A908E19A2182B5EAAFC3ACCFCCDE9F4E5A3E600D1B40FA31D68DEE76E748EB7E3DD4FDC0AEC11B6B303017EE5F37258FB118DE95D94EF65EEAF1C4010000FFFF945D310E80200C3CD4960FE0FFDFC7466483983A600902893AB134A4706D
310
2909DC3547C05BF9C707D0277388C07B8F2346103376E760D922848094531542A86FFF048019AE0ECDF863C76516086B21BED80827176EFE7C339DA9A045F9BA4E20A28754AEFAD077ED7F624057A6FC09450164A9F2F063E29911C421C9FBB23F075B26B617000000FFFFA49DB10E80200C44AF22984822FFFF9752571487
310
161263D5C191C0D6F6DA81DE1B7F57FACB3D118199915998B9F51026514A0B629CC1BC61CDAB40161B33CFCA01954AB292E3261F866C57E836931C084AE1701EF01E5EBFA277CA66D9C5FFB094DE12A610E0D453B911D32E99F9A10A15555CD40040D7EE8741CCB44881CD97503C54B915446B2EB0DFDD5BC4090000FFFF9C
310
9DBB0EC0200845B1AF38D6FFFFC3BAD9A94AB5C3151B13FB7496C59B1B09014EBB7FE88FD3AB70FCFDCC4C8BB5C421E4844662B148D29899B4D6E4565780C6654A58E1D19EE703BFF90FEC83938E0AEE1E783D6918294ED8511093801FC1DDDDBCA79EF7922788D82A0B89B9C7B3B45DA35EBAD2F320C28302A2881AAEBF74
310
F91BC16FC4AEEEE573000000FFFF8C9D3112C0200804CFA4C00FE4FF7F8C85A385A6C00BA3A3891D0515B31E5708ECB7801F28664A9252468C115C4CD365948AEA00EF052217724EB84350106AC181390826022B25F832149D4930C3F8AEC65718DCE958111B6D6B31CFBF11668EC7294CC3CFE5D63A78E489726F27DF8159
310
D197AF7C4709566671CC6BD1030000FFFFC25F059011E9C800725FDD7F9CE6200F2AB1B1B131080B0931FCFAF59BE1F397CF0C3F7EFC80F77D19991011C708AD0B20175A30206D58454A1338D300360958A9809418602B9418191998981991723CC2146400A90D18916846B83BFE334076E9324157E9C21203D6BA1E89222E
310
97635383A70188C52C00000000FFFFA45D410E803008EB343E60FEFF8D9CF4A4010F3840B82CF134766BD26E6D960CAA05FCF0FC788B30338848874D2FDE0C2A15B673216CD87BD761D3F785F3781F6E4487597810F433A0E48FCE210D1E2943780822315789B5E16F8668882C929A492E3A13D19FD02C66034AFC8A617F30
310
E49823FCB3E44C301B006B1E00040F000000FFFFA45D410AC0200CCB70FEFFC36ED9A18DD43A85B19BD00AC5A451A810393EFF007DAD047D2CEBF1216B41065957D67AF6FF80F2236A579B55810EB848804082634706BD02BC061124AE697B41BAD2CC5D18BBFFA64DEC4A3117B66EEDCA744601E95759DFDCE39F5420819D
310
F300E0010000FFFF8C9DB10E80200C445F5D0447F9FFBF94C8A0E050080434C8D4846E57EE8EA5F72901337A9FFE1E28ECDFD9F9A1621886D4548B08D61A8C593510F1BA08A7CAC31D6FF505991C6899A0BC64919734F476D30824D15E05B8DCD71AE8C0AFAB6962D210AD1002FEF020E076C7B6593596C56BE43307EB43EB
310
FBA1F8C3021D446F83F1000000FFFF945DD10A80200C3C05B537F3FF7F33A145B91E863A92A4DED4C373703A41DCF6EB297826FA136396DA345B56964CAE80B1F3DC0C68912F4B08AD80159722398CE868D130D6D68C80DD233416A3C5544B9937B0F208CC5C504E0956A183403BC92FE5AB97B9CF39C33B8F9412E21AE19D
310
93F9D5A374627C39C1FF0537BA89615471DD000000FFFF9C5D4D0B80200C7DAE79F16048FDFFFF57878475923EE8102E8BA8E82E53F6B6E7988FC96FA0FFA57F224208013146AD922F7BDF06C4D760206340D622A5041181C888AA2230339C7387D49CF6C7A1B2756CE8A2062CE93DB39681CE2CC823EFD665D58FB3F6EB08
310
AA70CE1DBC7CD0699ED1F51D8638A06D1A785F832DE3E46CC5E319D02F197E5EF3520714B636000000FFFFA49DCD0AC32010843FB591F42434EFFF7CE90F340924E0216A0F1AAB4528B4274157901D991945DC5313BF3FDCFF311642406B4DDF9FD9B6357174BDA25F37C37163B6CC0BE3758C95CB95C2FB088EB5364F9342
310
C6C443D6FC4E7709B0A4DDDE572AB5BB3DB58EF2C30A10EF27EDA238CA65635A1009019038E7B9DD1F3CA789E132608C412AF991C3961F6800FA8D258A989681AC7A53DC0B0000FFFF949D4F0B80200CC57F238F1D8AFAFE1FD0535114696087B26642D86EE243646F3CE61FB6E27B803FF21FCD1843DF772CEB92638A084F
310
E704389B536F586B19C6E17EFE8534D388448410F0CEA301CE3B058A268A4775A493A77A99644E7F3B587F6ABB02A23A77B45F8A30CD136DD352C7CA5D2AB842B2D6B70AE48497247E4232040E000000FFFFC23B0E40EE1801B23E1E1E1E064E682900194F27A304F80F8978064606868F1F3F313C7BFE8CE1F7AFDF0CCC2C
310
2CA8C7A64049A40C89993B519563461E163EE69A4506AC09024D058AAB60B9FEDBB7EF0C3FBEFF6010F821C020C02F0059CB081D68C29ACB29A81630DB02FF51B530303000000000FFFF0300E3B6A64C96CFDE170000000049454E44AE426082504B010214000A000008000064500D453DEE336E79000000790000001B0000
310
0000000000000000000000000000006175746F6465736B2D64657369676E2D7061636B6167652E786D6C504B0102140014000608080064500D4565017641AD000000260100001300000000000000000000000000B20000005B436F6E74656E745F54797065735D2E786D6C504B0102140014000608080064500D45132A07D6
310
E80000007C010000080000000000000000000000000090010000636F72652E786D6C504B0102140014000608080064500D4555019EA25F0000007C00000007000000000000000000000000009E020000636E782E786D6C504B0102140014000608080064500D45648F4DA86E010000D40300000C0000000000000000000000
310
0000220300006662782F636F72652E786D6C504B0102140014000608080064500D45657B478E7E0000009D0000000B00000000000000000000000000BA0400006662782F636E782E786D6C504B0102140014000608080064500D4581027CF229010000120200003100000000000000000000000000610500006662782F4544
310
4638423746352D313241462D343244442D413835392D4135303339383039393636432F636F72652E786D6C504B0102140014000608080064500D45DB0835104C010000330300003000000000000000000000000000D90600006662782F45444638423746352D313241462D343244442D413835392D41353033393830393936
310
36432F636E782E786D6C504B0102140014000608080064500D452B120B21B9050000051100003400000000000000000000000000730800006662782F45444638423746352D313241462D343244442D413835392D4135303339383039393636432F6F626A656374732E786D6C504B0102140014000608000064500D45000000
310
00000000000000000035000000000000000000000000007E0E00006662782F45444638423746352D313241462D343244442D413835392D4135303339383039393636432F76657274696365732E62696E504B0102140014000608080064500D45F270F13306000000040000003600000000000000000000000000D10E000066
310
62782F45444638423746352D313241462D343244442D413835392D4135303339383039393636432F747269616E676C65732E62696E504B0102140014000608000064500D4500000000000000000000000037000000000000000000000000002B0F00006662782F45444638423746352D313241462D343244442D413835392D
310
4135303339383039393636432F617474726962757465732E62696E504B0102140014000608080064500D4508DA0BD190000000410100003600000000000000000000000000800F00006662782F45444638423746352D313241462D343244442D413835392D4135303339383039393636432F6469726563746F72792E786D6C
310
504B0102140014000608080064500D45C1608DD6FB000000A00100003B00000000000000000000000000641000006662782F45444638423746352D313241462D343244442D413835392D4135303339383039393636432F7265736F75726365732F636F72652E786D6C504B0102140014000608080064500D452DEF20765E00
310
00007A0000003A00000000000000000000000000B81100006662782F45444638423746352D313241462D343244442D413835392D4135303339383039393636432F7265736F75726365732F636E782E786D6C504B0102140014000608080064500D45A6967D30F6000000980100003D000000000000000000000000006E1200
310
006662782F45444638423746352D313241462D343244442D413835392D4135303339383039393636432F7265736F75726365732F332F636F72652E786D6C504B0102140014000608080064500D451EC9B0F628010000C20100003C00000000000000000000000000BF1300006662782F45444638423746352D313241462D34
310
3244442D413835392D4135303339383039393636432F7265736F75726365732F332F636E782E786D6C504B010214000A000008000064500D4588E5759790410000904100004200000000000000000000000000411500006662782F45444638423746352D313241462D343244442D413835392D413530333938303939363643
310
2F7265736F75726365732F332F305F67656E657269632E706E67504B050600000000120012002D060000315700000000
  0
XRECORD
  5
113
102
{ACAD_REACTORS
330
110
102
}
330
110
100
AcDbXrecord
280
     1
270
     1
271
     1
  0
XRECORD
  5
114
102
{ACAD_REACTORS
330
110
102
}
330
110
100
AcDbXrecord
280
     1
270
     1
271
     1
  0
CELLSTYLEMAP
  5
1A5C
102
{ACAD_REACTORS
330
104
102
}
330
104
100
AcDbCellStyleMap
 90
        3
300
CELLSTYLE
  1
TABLEFORMAT_BEGIN
 90
        5
170
     1
 91
        0
 92
    32768
 62
   257
 93
        1
300
CONTENTFORMAT
  1
CONTENTFORMAT_BEGIN
 90
        0
 91
        0
 92
      512
 93
        0
300

 40
0.0
140
1.0
 94
        5
 62
     0
340
11
144
0.25
309
CONTENTFORMAT_END
171
     1
301
MARGIN
  1
CELLMARGIN_BEGIN
 40
0.06
 40
0.06
 40
0.06
 40
0.06
 40
0.18
 40
0.18
309
CELLMARGIN_END
 94
        6
 95
        1
302
GRIDFORMAT
  1
GRIDFORMAT_BEGIN
 90
        0
 91
        1
 62
     0
 92
       -2
340
0
 93
        0
 40
0.045
309
GRIDFORMAT_END
 95
        2
302
GRIDFORMAT
  1
GRIDFORMAT_BEGIN
 90
        0
 91
        1
 62
     0
 92
       -2
340
0
 93
        0
 40
0.045
309
GRIDFORMAT_END
 95
        4
302
GRIDFORMAT
  1
GRIDFORMAT_BEGIN
 90
        0
 91
        1
 62
     0
 92
       -2
340
0
 93
        0
 40
0.045
309
GRIDFORMAT_END
 95
        8
302
GRIDFORMAT
  1
GRIDFORMAT_BEGIN
 90
        0
 91
        1
 62
     0
 92
       -2
340
0
 93
        0
 40
0.045
309
GRIDFORMAT_END
 95
       16
302
GRIDFORMAT
  1
GRIDFORMAT_BEGIN
 90
        0
 91
        1
 62
     0
 92
       -2
340
0
 93
        0
 40
0.045
309
GRIDFORMAT_END
 95
       32
302
GRIDFORMAT
  1
GRIDFORMAT_BEGIN
 90
        0
 91
        1
 62
     0
 92
       -2
340
0
 93
        0
 40
0.045
309
GRIDFORMAT_END
309
TABLEFORMAT_END
  1
CELLSTYLE_BEGIN
 90
        1
 91
        1
300
_TITLE
309
CELLSTYLE_END
300
CELLSTYLE
  1
TABLEFORMAT_BEGIN
 90
        5
170
     1
 91
        0
 92
        0
 62
   257
 93
        1
300
CONTENTFORMAT
  1
CONTENTFORMAT_BEGIN
 90
        0
 91
        0
 92
      512
 93
        0
300

 40
0.0
140
1.0
 94
        5
 62
     0
340
11
144
0.18
309
CONTENTFORMAT_END
171
     1
301
MARGIN
  1
CELLMARGIN_BEGIN
 40
0.06
 40
0.06
 40
0.06
 40
0.06
 40
0.18
 40
0.18
309
CELLMARGIN_END
 94
        6
 95
        1
302
GRIDFORMAT
  1
GRIDFORMAT_BEGIN
 90
        0
 91
        1
 62
     0
 92
       -2
340
0
 93
        0
 40
0.045
309
GRIDFORMAT_END
 95
        2
302
GRIDFORMAT
  1
GRIDFORMAT_BEGIN
 90
        0
 91
        1
 62
     0
 92
       -2
340
0
 93
        0
 40
0.045
309
GRIDFORMAT_END
 95
        4
302
GRIDFORMAT
  1
GRIDFORMAT_BEGIN
 90
        0
 91
        1
 62
     0
 92
       -2
340
0
 93
        0
 40
0.045
309
GRIDFORMAT_END
 95
        8
302
GRIDFORMAT
  1
GRIDFORMAT_BEGIN
 90
        0
 91
        1
 62
     0
 92
       -2
340
0
 93
        0
 40
0.045
309
GRIDFORMAT_END
 95
       16
302
GRIDFORMAT
  1
GRIDFORMAT_BEGIN
 90
        0
 91
        1
 62
     0
 92
       -2
340
0
 93
        0
 40
0.045
309
GRIDFORMAT_END
 95
       32
302
GRIDFORMAT
  1
GRIDFORMAT_BEGIN
 90
        0
 91
        1
 62
     0
 92
       -2
340
0
 93
        0
 40
0.045
309
GRIDFORMAT_END
309
TABLEFORMAT_END
  1
CELLSTYLE_BEGIN
 90
        2
 91
        1
300
_HEADER
309
CELLSTYLE_END
300
CELLSTYLE
  1
TABLEFORMAT_BEGIN
 90
        5
170
     1
 91
        0
 92
        0
 62
   257
 93
        1
300
CONTENTFORMAT
  1
CONTENTFORMAT_BEGIN
 90
        0
 91
        0
 92
      512
 93
        0
300

 40
0.0
140
1.0
 94
        2
 62
     0
340
11
144
0.18
309
CONTENTFORMAT_END
171
     1
301
MARGIN
  1
CELLMARGIN_BEGIN
 40
0.06
 40
0.06
 40
0.06
 40
0.06
 40
0.18
 40
0.18
309
CELLMARGIN_END
 94
        6
 95
        1
302
GRIDFORMAT
  1
GRIDFORMAT_BEGIN
 90
        0
 91
        1
 62
     0
 92
       -2
340
0
 93
        0
 40
0.045
309
GRIDFORMAT_END
 95
        2
302
GRIDFORMAT
  1
GRIDFORMAT_BEGIN
 90
        0
 91
        1
 62
     0
 92
       -2
340
0
 93
        0
 40
0.045
309
GRIDFORMAT_END
 95
        4
302
GRIDFORMAT
  1
GRIDFORMAT_BEGIN
 90
        0
 91
        1
 62
     0
 92
       -2
340
0
 93
        0
 40
0.045
309
GRIDFORMAT_END
 95
        8
302
GRIDFORMAT
  1
GRIDFORMAT_BEGIN
 90
        0
 91
        1
 62
     0
 92
       -2
340
0
 93
        0
 40
0.045
309
GRIDFORMAT_END
 95
       16
302
GRIDFORMAT
  1
GRIDFORMAT_BEGIN
 90
        0
 91
        1
 62
     0
 92
       -2
340
0
 93
        0
 40
0.045
309
GRIDFORMAT_END
 95
       32
302
GRIDFORMAT
  1
GRIDFORMAT_BEGIN
 90
        0
 91
        1
 62
     0
 92
       -2
340
0
 93
        0
 40
0.045
309
GRIDFORMAT_END
309
TABLEFORMAT_END
  1
CELLSTYLE_BEGIN
 90
        3
 91
        2
300
_DATA
309
CELLSTYLE_END
  0
ENDSEC
  0
EOF
