  0
SECTION
  2
HEADER
  9
$ACADVER
  1
AC1009
  9
$INSBASE
 10
0.0
 20
0.0
 30
0.0
  9
$EXTMIN
 10
29.404293060302731
 20
2.0151729583740221
 30
0.2675012648105621
  9
$EXTMAX
 10
32.904293060302741
 20
31.01517295837402
 30
3.767501354217528
  9
$LIMMIN
 10
0.0
 20
0.0
  9
$LIMMAX
 10
12.0
 20
9.0
  9
$ORTHOMODE
 70
     0
  9
$REGENMODE
 70
     1
  9
$FILLMODE
 70
     1
  9
$QTEXTMODE
 70
     0
  9
$MIRRTEXT
 70
     1
  9
$DRAGMODE
 70
     2
  9
$LTSCALE
 40
1.0
  9
$OSMODE
 70
  2303
  9
$ATTMODE
 70
     1
  9
$TEXTSIZE
 40
0.2
  9
$TRACEWID
 40
0.05
  9
$TEXTSTYLE
  7
STANDARD
  9
$CLAYER
  8
0
  9
$CELTYPE
  6
BYLAYER
  9
$CECOLOR
 62
   256
  9
$DIMSCALE
 40
3.0
  9
$DIMASZ
 40
0.2
  9
$DIMEXO
 40
0.1
  9
$DIMDLI
 40
0.38
  9
$DIMRND
 40
0.0
  9
$DIMDLE
 40
0.0
  9
$DIMEXE
 40
0.18
  9
$DIMTP
 40
0.0
  9
$DIMTM
 40
0.0
  9
$DIMTXT
 40
0.2
  9
$DIMCEN
 40
0.09
  9
$DIMTSZ
 40
0.0
  9
$DIMTOL
 70
     0
  9
$DIMLIM
 70
     0
  9
$DIMTIH
 70
     1
  9
$DIMTOH
 70
     1
  9
$DIMSE1
 70
     0
  9
$DIMSE2
 70
     0
  9
$DIMTAD
 70
     0
  9
$DIMZIN
 70
     0
  9
$DIMBLK
  1
ARCHTICK
  9
$DIMASO
 70
     1
  9
$DIMSHO
 70
     1
  9
$DIMPOST
  1
"
  9
$DIMAPOST
  1

  9
$DIMALT
 70
     0
  9
$DIMALTD
 70
     2
  9
$DIMALTF
 40
25.399999999999999
  9
$DIMLFAC
 40
1.0
  9
$DIMTOFL
 70
     0
  9
$DIMTVP
 40
0.0
  9
$DIMTIX
 70
     0
  9
$DIMSOXD
 70
     0
  9
$DIMSAH
 70
     0
  9
$DIMBLK1
  1

  9
$DIMBLK2
  1

  9
$DIMSTYLE
  2
OWP_STANDARD
  9
$DIMCLRD
 70
     0
  9
$DIMCLRE
 70
     0
  9
$DIMCLRT
 70
     0
  9
$DIMTFAC
 40
1.0
  9
$DIMGAP
 40
0.09
  9
$LUNITS
 70
     2
  9
$LUPREC
 70
     4
  9
$SKETCHINC
 40
0.1
  9
$FILLETRAD
 40
0.5
  9
$AUNITS
 70
     0
  9
$AUPREC
 70
     0
  9
$MENU
  1
.
  9
$ELEVATION
 40
0.0
  9
$PELEVATION
 40
0.0
  9
$THICKNESS
 40
0.0
  9
$LIMCHECK
 70
     0
  9
$BLIPMODE
 70
     0
  9
$CHAMFERA
 40
0.5
  9
$CHAMFERB
 40
0.5
  9
$SKPOLY
 70
     0
  9
$TDCREATE
 40
2454582.3716793749
  9
$TDUPDATE
 40
2456609.5582584841
  9
$TDINDWG
 40
0.0399085417
  9
$TDUSRTIMER
 40
0.0399082986
  9
$USRTIMER
 70
     1
  9
$ANGBASE
 50
0.0
  9
$ANGDIR
 70
     0
  9
$PDMODE
 70
     0
  9
$PDSIZE
 40
0.0
  9
$PLINEWID
 40
0.0
  9
$COORDS
 70
     0
  9
$SPLFRAME
 70
     0
  9
$SPLINETYPE
 70
     6
  9
$SPLINESEGS
 70
     8
  9
$ATTDIA
 70
     0
  9
$ATTREQ
 70
     1
  9
$HANDLING
 70
     1
  9
$HANDSEED
  5
A2D
  9
$SURFTAB1
 70
     6
  9
$SURFTAB2
 70
     6
  9
$SURFTYPE
 70
     6
  9
$SURFU
 70
     6
  9
$SURFV
 70
     6
  9
$UCSNAME
  2

  9
$UCSORG
 10
0.0
 20
0.0
 30
0.0
  9
$UCSXDIR
 10
1.0
 20
0.0
 30
0.0
  9
$UCSYDIR
 10
0.0
 20
1.0
 30
0.0
  9
$PUCSNAME
  2

  9
$PUCSORG
 10
0.0
 20
0.0
 30
0.0
  9
$PUCSXDIR
 10
1.0
 20
0.0
 30
0.0
  9
$PUCSYDIR
 10
0.0
 20
1.0
 30
0.0
  9
$USERI1
 70
     0
  9
$USERI2
 70
     0
  9
$USERI3
 70
     0
  9
$USERI4
 70
     0
  9
$USERI5
 70
     0
  9
$USERR1
 40
0.0
  9
$USERR2
 40
0.0
  9
$USERR3
 40
0.0
  9
$USERR4
 40
0.0
  9
$USERR5
 40
0.0
  9
$WORLDVIEW
 70
     1
  9
$SHADEDGE
 70
     3
  9
$SHADEDIF
 70
    70
  9
$TILEMODE
 70
     1
  9
$MAXACTVP
 70
    64
  9
$PLIMCHECK
 70
     0
  9
$PEXTMIN
 10
1.0000000000000000E+020
 20
1.0000000000000000E+020
 30
1.0000000000000000E+020
  9
$PEXTMAX
 10
-1.0000000000000000E+020
 20
-1.0000000000000000E+020
 30
-1.0000000000000000E+020
  9
$PLIMMIN
 10
0.0
 20
0.0
  9
$PLIMMAX
 10
12.0
 20
9.0
  9
$UNITMODE
 70
     0
  9
$VISRETAIN
 70
     1
  9
$PLINEGEN
 70
     0
  9
$PSLTSCALE
 70
     1
  0
ENDSEC
  0
SECTION
  2
TABLES
  0
TABLE
  2
VPORT
 70
     1
  0
VPORT
  2
*ACTIVE
 70
     0
 10
0.0
 20
0.0
 11
1.0
 21
1.0
 12
-1.426047115305042
 22
-1.438488301624357
 13
0.0
 23
0.0
 14
0.5
 24
0.5
 15
0.5
 25
0.5
 16
0.0
 26
0.0
 36
1.0
 17
32.58034017560778
 27
19.4990174807877
 37
11.54403793361776
 40
32.456258660066041
 41
1.940976163450624
 42
50.0
 43
0.0
 44
0.0
 50
0.0
 51
0.0
 71
     0
 72
   100
 73
     1
 74
     3
 75
     0
 76
     0
 77
     0
 78
     0
  0
ENDTAB
  0
TABLE
  2
LTYPE
 70
     1
  0
LTYPE
  2
CONTINUOUS
 70
     0
  3
Solid line
 72
    65
 73
     0
 40
0.0
  0
ENDTAB
  0
TABLE
  2
LAYER
 70
     4
  0
LAYER
  2
0
 70
     0
 62
     7
  6
CONTINUOUS
  0
LAYER
  2
LAYER1
 70
     0
 62
     1
  6
CONTINUOUS
  0
LAYER
  2
DEFPOINTS
 70
     0
 62
     7
  6
CONTINUOUS
  0
LAYER
  2
ASHADE
 70
     4
 62
     7
  6
CONTINUOUS
  0
ENDTAB
  0
TABLE
  2
STYLE
 70
     2
  0
STYLE
  2
STANDARD
 70
     0
 40
0.0
 41
1.0
 50
0.0
 71
     0
 42
0.2
  3
txt
  4

  0
STYLE
  2
ASHADE
 70
     0
 40
0.2
 41
1.0
 50
0.0
 71
     0
 42
0.2
  3
simplex
  4

  0
ENDTAB
  0
TABLE
  2
VIEW
 70
     0
  0
ENDTAB
  0
TABLE
  2
UCS
 70
     0
  0
ENDTAB
  0
TABLE
  2
APPID
 70
    16
  0
APPID
  2
ACAD
 70
     0
  0
APPID
  2
ACAD_DSTYLE_DIMEXT_LENGTH
 70
     0
  0
APPID
  2
ACAD_DSTYLE_DIMEXT_ENABLED
 70
     0
  0
APPID
  2
ACAD_DSTYLE_DIMJOGGED_JOGA
 70
     0
  0
APPID
  2
ACAD_DSTYLE_DIMARC_LENGTH_
 70
     0
  0
APPID
  2
ACAD_MLEADERVER
 70
     0
  0
APPID
  2
ACAD_DSTYLE_DIMJAG
 70
     0
  0
APPID
  2
ACAD_DSTYLE_DIMTALN
 70
     0
  0
APPID
  2
ACADANNOTATIVE
 70
     0
  0
APPID
  2
ACAD_EXEMPT_FROM_CAD_STANDARDS
 70
     0
  0
APPID
  2
AVE_RENDER
 70
     0
  0
APPID
  2
AVE_ENTITY_MATERIAL
 70
     0
  0
APPID
  2
AVE_FINISH
 70
     0
  0
APPID
  2
AVE_MATERIAL
 70
     0
  0
APPID
  2
AVE_GLOBAL
 70
     0
  0
APPID
  2
ACAD_NAV_VCDISPLAY
 70
     0
  0
ENDTAB
  0
TABLE
  2
DIMSTYLE
 70
     3
  0
DIMSTYLE
  2
STANDARD
 70
     0
  3
"
  4

  5
ARCHTICK
  6

  7

 40
3.0
 41
0.18
 42
0.0625
 43
0.38
 44
0.18
 45
0.0
 46
0.0
 47
0.0
 48
0.0
140
0.18
141
0.09
142
0.0
143
25.399999999999999
144
1.0
145
0.0
146
1.0
147
0.09
 71
     0
 72
     0
 73
     1
 74
     1
 75
     0
 76
     0
 77
     0
 78
     0
170
     0
171
     2
172
     0
173
     0
174
     0
175
     0
176
     0
177
     0
178
     0
  0
DIMSTYLE
  2
OWP_STANDARD
 70
     0
  3
"
  4

  5
ARCHTICK
  6

  7

 40
3.0
 41
0.2
 42
0.1
 43
0.38
 44
0.18
 45
0.0
 46
0.0
 47
0.0
 48
0.0
140
0.2
141
0.09
142
0.0
143
25.399999999999999
144
1.0
145
0.0
146
1.0
147
0.09
 71
     0
 72
     0
 73
     1
 74
     1
 75
     0
 76
     0
 77
     0
 78
     0
170
     0
171
     2
172
     0
173
     0
174
     0
175
     0
176
     0
177
     0
178
     0
  0
DIMSTYLE
  2
ANNOTATIVE
 70
     0
  3

  4

  5

  6

  7

 40
0.0
 41
0.18
 42
0.0625
 43
0.38
 44
0.18
 45
0.0
 46
0.0
 47
0.0
 48
0.0
140
0.18
141
0.09
142
0.0
143
25.399999999999999
144
1.0
145
0.0
146
1.0
147
0.09
 71
     0
 72
     0
 73
     1
 74
     1
 75
     0
 76
     0
 77
     0
 78
     0
170
     0
171
     2
172
     0
173
     0
174
     0
175
     0
176
     0
177
     0
178
     0
  0
ENDTAB
  0
ENDSEC
  0
SECTION
  2
BLOCKS
  0
BLOCK
  8
0
  2
$MODEL_SPACE
 70
     0
 10
0.0
 20
0.0
 30
0.0
  3
$MODEL_SPACE
  1

  0
ENDBLK
  5
21
  8
0
  0
BLOCK
 67
     1
  8
0
  2
$PAPER_SPACE
 70
     0
 10
0.0
 20
0.0
 30
0.0
  3
$PAPER_SPACE
  1

  0
ENDBLK
  5
1D
 67
     1
  8
0
  0
BLOCK
  8
0
  2
_ARCHTICK
 70
     0
 10
0.0
 20
0.0
 30
0.0
  3
_ARCHTICK
  1

  0
POLYLINE
  5
50
  8
0
 62
     0
 66
     1
 10
0.0
 20
0.0
 30
0.0
 40
0.15
 41
0.15
  0
VERTEX
  5
654
  8
0
 62
     0
 10
-0.5
 20
-0.5
 30
0.0
  0
VERTEX
  5
655
  8
0
 62
     0
 10
0.5
 20
0.5
 30
0.0
  0
SEQEND
  5
656
  8
0
 62
     0
  0
ENDBLK
  5
52
  8
0
  0
BLOCK
  8
0
  2
_OBLIQUE
 70
     0
 10
0.0
 20
0.0
 30
0.0
  3
_OBLIQUE
  1

  0
LINE
  5
BC
  8
0
  6
BYBLOCK
 62
     0
 10
-0.5
 20
-0.5
 30
0.0
 11
0.5
 21
0.5
 31
0.0
  0
ENDBLK
  5
BD
  8
0
  0
BLOCK
  8
0
  2
A$C18112A55
 70
     0
 10
0.0
 20
0.0
 30
0.0
  3
A$C18112A55
  1

  0
INSERT
  5
1F1
  8
0
  2
*U7
 10
0.0
 20
0.0
 30
0.0
  0
ENDBLK
  5
1F8
  8
0
  0
BLOCK
  8
ASHADE
  2
AVE_RENDER
 70
     0
 10
0.0
 20
0.0
 30
0.0
  3
AVE_RENDER
  1
AVE_RENDER
  0
ENDBLK
  5
322
  8
0
  0
BLOCK
  8
ASHADE
  2
AVE_GLOBAL
 70
     0
 10
0.0
 20
0.0
 30
0.0
  3
AVE_GLOBAL
  1
AVE_GLOBAL
  0
ENDBLK
  5
330
  8
0
  0
BLOCK
  8
ASHADE
  2
RM_SDB
 70
     2
 10
0.0
 20
0.0
 30
0.0
  3
RM_SDB
  1
RM_SDB
  0
ATTDEF
  5
51C
  8
0
 10
0.0
 20
0.0
 30
0.0
 40
0.2
  1

  3

  2
NAME
 70
     1
  0
ATTDEF
  5
51D
  8
0
 10
0.0
 20
0.0
 30
0.0
 40
0.2
  1

  3

  2
ACADCOLOR
 70
     1
  0
ATTDEF
  5
51E
  8
0
 10
0.0
 20
0.0
 30
0.0
 40
0.2
  1

  3

  2
COLOR
 70
     1
  0
ATTDEF
  5
51F
  8
0
 10
0.0
 20
0.0
 30
0.0
 40
0.2
  1

  3

  2
OPACITY
 70
     1
  0
ATTDEF
  5
520
  8
0
 10
0.0
 20
0.0
 30
0.0
 40
0.2
  1

  3

  2
SURFACE
 70
     1
  0
ATTDEF
  5
521
  8
0
 10
0.0
 20
0.0
 30
0.0
 40
0.2
  1

  3

  2
SURF1
 70
     1
  0
ATTDEF
  5
522
  8
0
 10
0.0
 20
0.0
 30
0.0
 40
0.2
  1

  3

  2
SURF2
 70
     1
  0
ATTDEF
  5
523
  8
0
 10
0.0
 20
0.0
 30
0.0
 40
0.2
  1

  3

  2
SURF3
 70
     1
  0
ATTDEF
  5
524
  8
0
 10
0.0
 20
0.0
 30
0.0
 40
0.2
  1

  3

  2
SURF4
 70
     1
  0
ATTDEF
  5
525
  8
0
 10
0.0
 20
0.0
 30
0.0
 40
0.2
  1

  3

  2
SHADINGRATE
 70
     1
  0
ATTDEF
  5
526
  8
0
 10
0.0
 20
0.0
 30
0.0
 40
0.2
  1

  3

  2
DISPLACEMENT
 70
     1
  0
ATTDEF
  5
527
  8
0
 10
0.0
 20
0.0
 30
0.0
 40
0.2
  1

  3

  2
DISP1
 70
     1
  0
ATTDEF
  5
528
  8
0
 10
0.0
 20
0.0
 30
0.0
 40
0.2
  1

  3

  2
DISP2
 70
     1
  0
ATTDEF
  5
529
  8
0
 10
0.0
 20
0.0
 30
0.0
 40
0.2
  1

  3

  2
DISP3
 70
     1
  0
ATTDEF
  5
52A
  8
0
 10
0.0
 20
0.0
 30
0.0
 40
0.2
  1

  3

  2
DISP4
 70
     1
  0
ATTDEF
  5
52B
  8
0
 10
0.0
 20
0.0
 30
0.0
 40
0.2
  1

  3

  2
DBOUND
 70
     1
  0
ATTDEF
  5
52C
  8
0
 10
0.0
 20
0.0
 30
0.0
 40
0.2
  1

  3

  2
SMOOTH
 70
     1
  0
ATTDEF
  5
52D
  8
0
 10
0.0
 20
0.0
 30
0.0
 40
0.2
  1

  3

  2
ATMOSHPERE
 70
     1
  0
ATTDEF
  5
52E
  8
0
 10
0.0
 20
0.0
 30
0.0
 40
0.2
  1

  3

  2
ATMO1
 70
     1
  0
ATTDEF
  5
52F
  8
0
 10
0.0
 20
0.0
 30
0.0
 40
0.2
  1

  3

  2
ATMO2
 70
     1
  0
ATTDEF
  5
530
  8
0
 10
0.0
 20
0.0
 30
0.0
 40
0.2
  1

  3

  2
ATMO3
 70
     1
  0
ATTDEF
  5
531
  8
0
 10
0.0
 20
0.0
 30
0.0
 40
0.2
  1

  3

  2
ATMO4
 70
     1
  0
ATTDEF
  5
532
  8
0
 10
0.0
 20
0.0
 30
0.0
 40
0.2
  1

  3

  2
TCCORD
 70
     1
  0
ENDBLK
  5
533
  8
0
  0
BLOCK
  8
0
  2
*U7
 70
     1
 10
0.0
 20
0.0
 30
0.0
  3
*U7
  1

  0
CIRCLE
  5
6A6
  8
0
 10
-4.6176405305316433
 20
-3.0
 30
8.3282680354571994
 40
1.627678250151795
210
0.0000000000000002
220
1.0
230
0.0
  0
CIRCLE
  5
6A7
  8
0
 10
-4.6176405305316441
 20
-3.0
 30
6.721520013832766
 40
1.4656295043273311
210
0.0000000000000002
220
1.0
230
0.0
  0
CIRCLE
  5
6A8
  8
0
 10
-4.617640530531645
 20
-3.0
 30
12.543054255048769
 40
2.3945811385764229
210
0.0000000000000002
220
1.0
230
0.0
  0
CIRCLE
  5
6A9
  8
0
 10
-4.6176405305316433
 20
-3.0
 30
8.3282680354571994
 40
1.627678250151795
210
0.0000000000000002
220
1.0
230
0.0
  0
CIRCLE
  5
6AA
  8
0
 10
-4.617640530531645
 20
-3.0
 30
15.42606231734921
 40
2.9534173375635251
210
0.0000000000000002
220
1.0
230
0.0
  0
CIRCLE
  5
6AB
  8
0
 10
-4.617640530531645
 20
-3.0
 30
12.543054255048769
 40
2.3945811385764229
210
0.0000000000000002
220
1.0
230
0.0
  0
CIRCLE
  5
6AC
  8
0
 10
-4.617640530531645
 20
-3.0
 30
16.967588771001001
 40
2.2506531347519712
210
0.0000000000000002
220
1.0
230
0.0
  0
CIRCLE
  5
6AD
  8
0
 10
-4.617640530531645
 20
-3.0
 30
15.42606231734921
 40
2.9534173375635251
210
0.0000000000000002
220
1.0
230
0.0
  0
CIRCLE
  5
6AE
  8
0
 10
-4.617640530531645
 20
-3.0
 30
17.024569859256871
 40
2.2506531347519712
210
0.0000000000000002
220
1.0
230
0.0
  0
CIRCLE
  5
6AF
  8
0
 10
-4.617640530531645
 20
-3.0
 30
16.967588771001001
 40
2.2506531347519712
210
0.0000000000000002
220
1.0
230
0.0
  0
CIRCLE
  5
6B0
  8
0
 10
-4.617640530531645
 20
-3.0
 30
18.181022745013891
 40
2.2506531347519458
210
0.0000000000000002
220
1.0
230
0.0
  0
CIRCLE
  5
6B1
  8
0
 10
-4.617640530531645
 20
-3.0
 30
17.024569859256871
 40
2.2506531347519712
210
0.0000000000000002
220
1.0
230
0.0
  0
CIRCLE
  5
6B2
  8
0
 10
-4.617640530531645
 20
-3.0
 30
18.244504487529181
 40
2.2506531347519418
210
0.0000000000000002
220
1.0
230
0.0
  0
CIRCLE
  5
6B3
  8
0
 10
-4.617640530531645
 20
-3.0
 30
18.181022745013891
 40
2.2506531347519458
210
0.0000000000000002
220
1.0
230
0.0
  0
CIRCLE
  5
6B4
  8
0
 10
-4.617640530531645
 20
-3.0
 30
18.78746189472923
 40
2.622799188641177
210
0.0000000000000002
220
1.0
230
0.0
  0
CIRCLE
  5
6B5
  8
0
 10
-4.617640530531645
 20
-3.0
 30
18.244504487529181
 40
2.2506531347519418
210
0.0000000000000002
220
1.0
230
0.0
  0
CIRCLE
  5
6B6
  8
0
 10
-4.617640530531645
 20
-3.0
 30
19.40600767468759
 40
2.8390912655181921
210
0.0000000000000002
220
1.0
230
0.0
  0
CIRCLE
  5
6B7
  8
0
 10
-4.617640530531645
 20
-3.0
 30
18.78746189472923
 40
2.622799188641177
210
0.0000000000000002
220
1.0
230
0.0
  0
CIRCLE
  5
6B8
  8
0
 10
-4.617640530531645
 20
-3.0
 30
20.191904624235001
 40
2.8390912655181921
210
0.0000000000000002
220
1.0
230
0.0
  0
CIRCLE
  5
6B9
  8
0
 10
-4.617640530531645
 20
-3.0
 30
19.40600767468759
 40
2.8390912655181921
210
0.0000000000000002
220
1.0
230
0.0
  0
CIRCLE
  5
6BA
  8
0
 10
-4.617640530531645
 20
-3.0
 30
20.810450404193361
 40
2.622799188641177
210
0.0000000000000002
220
1.0
230
0.0
  0
CIRCLE
  5
6BB
  8
0
 10
-4.617640530531645
 20
-3.0
 30
20.191904624235001
 40
2.8390912655181921
210
0.0000000000000002
220
1.0
230
0.0
  0
CIRCLE
  5
6BC
  8
0
 10
-4.617640530531645
 20
-3.0
 30
21.35340781139341
 40
2.2506531347519392
210
0.0000000000000002
220
1.0
230
0.0
  0
CIRCLE
  5
6BD
  8
0
 10
-4.617640530531645
 20
-3.0
 30
20.810450404193361
 40
2.622799188641177
210
0.0000000000000002
220
1.0
230
0.0
  0
CIRCLE
  5
6BE
  8
0
 10
-4.617640530531645
 20
-3.0
 30
21.4168895539087
 40
2.2506531347519352
210
0.0000000000000002
220
1.0
230
0.0
  0
CIRCLE
  5
6BF
  8
0
 10
-4.617640530531645
 20
-3.0
 30
21.35340781139341
 40
2.2506531347519392
210
0.0000000000000002
220
1.0
230
0.0
  0
CIRCLE
  5
6C0
  8
0
 10
-4.6176405305316441
 20
-3.0
 30
22.55862939558272
 40
2.2380446356824879
210
0.0000000000000002
220
1.0
230
0.0
  0
CIRCLE
  5
6C1
  8
0
 10
-4.617640530531645
 20
-3.0
 30
21.4168895539087
 40
2.2506531347519352
210
0.0000000000000002
220
1.0
230
0.0
  0
CIRCLE
  5
6C2
  8
0
 10
-4.6176405305316441
 20
-3.0
 30
22.701105832300371
 40
2.5064398677542421
210
0.0000000000000002
220
1.0
230
0.0
  0
CIRCLE
  5
6C3
  8
0
 10
-4.6176405305316441
 20
-3.0
 30
22.55862939558272
 40
2.2380446356824879
210
0.0000000000000002
220
1.0
230
0.0
  0
CIRCLE
  5
6C4
  8
0
 10
-4.6176405305316441
 20
-3.0
 30
22.74882957435759
 40
2.5064398677542421
210
0.0000000000000002
220
1.0
230
0.0
  0
CIRCLE
  5
6C5
  8
0
 10
-4.6176405305316441
 20
-3.0
 30
22.701105832300371
 40
2.5064398677542421
210
0.0000000000000002
220
1.0
230
0.0
  0
CIRCLE
  5
6C6
  8
0
 10
-4.6176405305316441
 20
-3.0
 30
23.499999938577009
 40
2.5064398677542452
210
0.0000000000000002
220
1.0
230
0.0
  0
CIRCLE
  5
6C7
  8
0
 10
-4.6176405305316441
 20
-3.0
 30
22.74882957435759
 40
2.5064398677542421
210
0.0000000000000002
220
1.0
230
0.0
  0
CIRCLE
  5
6C8
  8
0
 10
-4.6176405305316441
 20
-3.0
 30
23.547723654425411
 40
2.5064398610712568
210
0.0000000000000002
220
1.0
230
0.0
  0
CIRCLE
  5
6C9
  8
0
 10
-4.6176405305316441
 20
-3.0
 30
23.499999938577009
 40
2.5064398677542452
210
0.0000000000000002
220
1.0
230
0.0
  0
POLYLINE
  8
0
  5
71D
  66
     1
 10
0.000000
 20
0.000000
 30
0.000000
  70
     8
  0
VERTEX
  8
0
  5
71E
 10
7.61764
 20
24.4694
 30
-6.00000
  70
    32
  0
VERTEX
  8
0
  5
71F
 10
7.61764
 20
24.4365
 30
-5.91172
  70
    32
  0
VERTEX
  8
0
  5
720
 10
7.61764
 20
24.4048
 30
-5.82544
  70
    32
  0
VERTEX
  8
0
  5
721
 10
7.61764
 20
24.3744
 30
-5.74108
  70
    32
  0
VERTEX
  8
0
  5
722
 10
7.61764
 20
24.3451
 30
-5.65854
  70
    32
  0
VERTEX
  8
0
  5
723
 10
7.61764
 20
24.3169
 30
-5.57773
  70
    32
  0
VERTEX
  8
0
  5
724
 10
7.61764
 20
24.2897
 30
-5.49858
  70
    32
  0
VERTEX
  8
0
  5
725
 10
7.61764
 20
24.2636
 30
-5.42100
  70
    32
  0
VERTEX
  8
0
  5
726
 10
7.61764
 20
24.2385
 30
-5.34493
  70
    32
  0
VERTEX
  8
0
  5
727
 10
7.61764
 20
24.2143
 30
-5.27028
  70
    32
  0
VERTEX
  8
0
  5
728
 10
7.61764
 20
24.1911
 30
-5.19700
  70
    32
  0
VERTEX
  8
0
  5
729
 10
7.61764
 20
24.1688
 30
-5.12503
  70
    32
  0
VERTEX
  8
0
  5
72A
 10
7.61764
 20
24.1473
 30
-5.05429
  70
    32
  0
VERTEX
  8
0
  5
72B
 10
7.61764
 20
24.1267
 30
-4.98474
  70
    32
  0
VERTEX
  8
0
  5
72C
 10
7.61764
 20
24.1069
 30
-4.91632
  70
    32
  0
VERTEX
  8
0
  5
72D
 10
7.61764
 20
24.0879
 30
-4.84897
  70
    32
  0
VERTEX
  8
0
  5
72E
 10
7.61764
 20
24.0697
 30
-4.78264
  70
    32
  0
VERTEX
  8
0
  5
72F
 10
7.61764
 20
24.0522
 30
-4.71729
  70
    32
  0
VERTEX
  8
0
  5
730
 10
7.61764
 20
24.0354
 30
-4.65287
  70
    32
  0
VERTEX
  8
0
  5
731
 10
7.61764
 20
24.0194
 30
-4.58934
  70
    32
  0
VERTEX
  8
0
  5
732
 10
7.61764
 20
24.0041
 30
-4.52664
  70
    32
  0
VERTEX
  8
0
  5
733
 10
7.61764
 20
23.9894
 30
-4.46474
  70
    32
  0
VERTEX
  8
0
  5
734
 10
7.61764
 20
23.9754
 30
-4.40361
  70
    32
  0
VERTEX
  8
0
  5
735
 10
7.61764
 20
23.9621
 30
-4.34319
  70
    32
  0
VERTEX
  8
0
  5
736
 10
7.61764
 20
23.9493
 30
-4.28346
  70
    32
  0
VERTEX
  8
0
  5
737
 10
7.61764
 20
23.9373
 30
-4.22437
  70
    32
  0
VERTEX
  8
0
  5
738
 10
7.61764
 20
23.9258
 30
-4.16590
  70
    32
  0
VERTEX
  8
0
  5
739
 10
7.61764
 20
23.9149
 30
-4.10800
  70
    32
  0
VERTEX
  8
0
  5
73A
 10
7.61764
 20
23.9046
 30
-4.05065
  70
    32
  0
VERTEX
  8
0
  5
73B
 10
7.61764
 20
23.8948
 30
-3.99382
  70
    32
  0
VERTEX
  8
0
  5
73C
 10
7.61764
 20
23.8857
 30
-3.93746
  70
    32
  0
VERTEX
  8
0
  5
73D
 10
7.61764
 20
23.8771
 30
-3.88156
  70
    32
  0
VERTEX
  8
0
  5
73E
 10
7.61764
 20
23.8690
 30
-3.82608
  70
    32
  0
VERTEX
  8
0
  5
73F
 10
7.61764
 20
23.8615
 30
-3.77099
  70
    32
  0
VERTEX
  8
0
  5
740
 10
7.61764
 20
23.8545
 30
-3.71627
  70
    32
  0
VERTEX
  8
0
  5
741
 10
7.61764
 20
23.8480
 30
-3.66189
  70
    32
  0
VERTEX
  8
0
  5
742
 10
7.61764
 20
23.8421
 30
-3.60781
  70
    32
  0
VERTEX
  8
0
  5
743
 10
7.61764
 20
23.8367
 30
-3.55402
  70
    32
  0
VERTEX
  8
0
  5
744
 10
7.61764
 20
23.8317
 30
-3.50049
  70
    32
  0
VERTEX
  8
0
  5
745
 10
7.61764
 20
23.8273
 30
-3.44719
  70
    32
  0
VERTEX
  8
0
  5
746
 10
7.61764
 20
23.8234
 30
-3.39410
  70
    32
  0
VERTEX
  8
0
  5
747
 10
7.61764
 20
23.8200
 30
-3.34119
  70
    32
  0
VERTEX
  8
0
  5
748
 10
7.61764
 20
23.8171
 30
-3.28843
  70
    32
  0
VERTEX
  8
0
  5
749
 10
7.61764
 20
23.8146
 30
-3.23581
  70
    32
  0
VERTEX
  8
0
  5
74A
 10
7.61764
 20
23.8127
 30
-3.18330
  70
    32
  0
VERTEX
  8
0
  5
74B
 10
7.61764
 20
23.8112
 30
-3.13087
  70
    32
  0
VERTEX
  8
0
  5
74C
 10
7.61764
 20
23.8103
 30
-3.07850
  70
    32
  0
VERTEX
  8
0
  5
74D
 10
7.61764
 20
23.8098
 30
-3.02616
  70
    32
  0
VERTEX
  8
0
  5
74E
 10
7.61764
 20
23.8098
 30
-2.97384
  70
    32
  0
VERTEX
  8
0
  5
74F
 10
7.61764
 20
23.8103
 30
-2.92150
  70
    32
  0
VERTEX
  8
0
  5
750
 10
7.61764
 20
23.8112
 30
-2.86913
  70
    32
  0
VERTEX
  8
0
  5
751
 10
7.61764
 20
23.8127
 30
-2.81670
  70
    32
  0
VERTEX
  8
0
  5
752
 10
7.61764
 20
23.8146
 30
-2.76419
  70
    32
  0
VERTEX
  8
0
  5
753
 10
7.61764
 20
23.8171
 30
-2.71157
  70
    32
  0
VERTEX
  8
0
  5
754
 10
7.61764
 20
23.8200
 30
-2.65881
  70
    32
  0
VERTEX
  8
0
  5
755
 10
7.61764
 20
23.8234
 30
-2.60590
  70
    32
  0
VERTEX
  8
0
  5
756
 10
7.61764
 20
23.8273
 30
-2.55281
  70
    32
  0
VERTEX
  8
0
  5
757
 10
7.61764
 20
23.8317
 30
-2.49951
  70
    32
  0
VERTEX
  8
0
  5
758
 10
7.61764
 20
23.8367
 30
-2.44598
  70
    32
  0
VERTEX
  8
0
  5
759
 10
7.61764
 20
23.8421
 30
-2.39219
  70
    32
  0
VERTEX
  8
0
  5
75A
 10
7.61764
 20
23.8480
 30
-2.33811
  70
    32
  0
VERTEX
  8
0
  5
75B
 10
7.61764
 20
23.8545
 30
-2.28373
  70
    32
  0
VERTEX
  8
0
  5
75C
 10
7.61764
 20
23.8615
 30
-2.22901
  70
    32
  0
VERTEX
  8
0
  5
75D
 10
7.61764
 20
23.8690
 30
-2.17392
  70
    32
  0
VERTEX
  8
0
  5
75E
 10
7.61764
 20
23.8771
 30
-2.11844
  70
    32
  0
VERTEX
  8
0
  5
75F
 10
7.61764
 20
23.8857
 30
-2.06254
  70
    32
  0
VERTEX
  8
0
  5
760
 10
7.61764
 20
23.8948
 30
-2.00618
  70
    32
  0
VERTEX
  8
0
  5
761
 10
7.61764
 20
23.9046
 30
-1.94935
  70
    32
  0
VERTEX
  8
0
  5
762
 10
7.61764
 20
23.9149
 30
-1.89200
  70
    32
  0
VERTEX
  8
0
  5
763
 10
7.61764
 20
23.9258
 30
-1.83410
  70
    32
  0
VERTEX
  8
0
  5
764
 10
7.61764
 20
23.9373
 30
-1.77563
  70
    32
  0
VERTEX
  8
0
  5
765
 10
7.61764
 20
23.9493
 30
-1.71654
  70
    32
  0
VERTEX
  8
0
  5
766
 10
7.61764
 20
23.9621
 30
-1.65681
  70
    32
  0
VERTEX
  8
0
  5
767
 10
7.61764
 20
23.9754
 30
-1.59639
  70
    32
  0
VERTEX
  8
0
  5
768
 10
7.61764
 20
23.9894
 30
-1.53526
  70
    32
  0
VERTEX
  8
0
  5
769
 10
7.61764
 20
24.0041
 30
-1.47336
  70
    32
  0
VERTEX
  8
0
  5
76A
 10
7.61764
 20
24.0194
 30
-1.41066
  70
    32
  0
VERTEX
  8
0
  5
76B
 10
7.61764
 20
24.0354
 30
-1.34713
  70
    32
  0
VERTEX
  8
0
  5
76C
 10
7.61764
 20
24.0522
 30
-1.28271
  70
    32
  0
VERTEX
  8
0
  5
76D
 10
7.61764
 20
24.0697
 30
-1.21736
  70
    32
  0
VERTEX
  8
0
  5
76E
 10
7.61764
 20
24.0879
 30
-1.15103
  70
    32
  0
VERTEX
  8
0
  5
76F
 10
7.61764
 20
24.1069
 30
-1.08368
  70
    32
  0
VERTEX
  8
0
  5
770
 10
7.61764
 20
24.1267
 30
-1.01526
  70
    32
  0
VERTEX
  8
0
  5
771
 10
7.61764
 20
24.1473
 30
-0.945709
  70
    32
  0
VERTEX
  8
0
  5
772
 10
7.61764
 20
24.1688
 30
-0.874974
  70
    32
  0
VERTEX
  8
0
  5
773
 10
7.61764
 20
24.1911
 30
-0.802997
  70
    32
  0
VERTEX
  8
0
  5
774
 10
7.61764
 20
24.2143
 30
-0.729719
  70
    32
  0
VERTEX
  8
0
  5
775
 10
7.61764
 20
24.2385
 30
-0.655075
  70
    32
  0
VERTEX
  8
0
  5
776
 10
7.61764
 20
24.2636
 30
-0.578999
  70
    32
  0
VERTEX
  8
0
  5
777
 10
7.61764
 20
24.2897
 30
-0.501421
  70
    32
  0
VERTEX
  8
0
  5
778
 10
7.61764
 20
24.3169
 30
-0.422267
  70
    32
  0
VERTEX
  8
0
  5
779
 10
7.61764
 20
24.3451
 30
-0.341460
  70
    32
  0
VERTEX
  8
0
  5
77A
 10
7.61764
 20
24.3744
 30
-0.258918
  70
    32
  0
VERTEX
  8
0
  5
77B
 10
7.61764
 20
24.4048
 30
-0.174556
  70
    32
  0
VERTEX
  8
0
  5
77C
 10
7.61764
 20
24.4365
 30
-0.0882816
  70
    32
  0
VERTEX
  8
0
  5
77D
 10
7.61764
 20
24.4694
 30
-1.30607e-011
  70
    32
  0
SEQEND
  8
0
  5
77E
  0
POLYLINE
  8
0
  5
77F
  66
     1
 10
0.000000
 20
0.000000
 30
0.000000
  70
     8
  0
VERTEX
  8
0
  5
780
 10
7.61764
 20
24.4694
 30
0.000000
  70
    32
  0
VERTEX
  8
0
  5
781
 10
7.52936
 20
24.4365
 30
2.90976e-018
  70
    32
  0
VERTEX
  8
0
  5
782
 10
7.44308
 20
24.4048
 30
5.68779e-018
  70
    32
  0
VERTEX
  8
0
  5
783
 10
7.35872
 20
24.3744
 30
8.33883e-018
  70
    32
  0
VERTEX
  8
0
  5
784
 10
7.27618
 20
24.3451
 30
1.08673e-017
  70
    32
  0
VERTEX
  8
0
  5
785
 10
7.19537
 20
24.3169
 30
1.32775e-017
  70
    32
  0
VERTEX
  8
0
  5
786
 10
7.11622
 20
24.2897
 30
1.55733e-017
  70
    32
  0
VERTEX
  8
0
  5
787
 10
7.03864
 20
24.2636
 30
1.77583e-017
  70
    32
  0
VERTEX
  8
0
  5
788
 10
6.96257
 20
24.2385
 30
1.98362e-017
  70
    32
  0
VERTEX
  8
0
  5
789
 10
6.88792
 20
24.2143
 30
2.18100e-017
  70
    32
  0
VERTEX
  8
0
  5
78A
 10
6.81464
 20
24.1911
 30
2.36831e-017
  70
    32
  0
VERTEX
  8
0
  5
78B
 10
6.74267
 20
24.1688
 30
2.54581e-017
  70
    32
  0
VERTEX
  8
0
  5
78C
 10
6.67193
 20
24.1473
 30
2.71379e-017
  70
    32
  0
VERTEX
  8
0
  5
78D
 10
6.60238
 20
24.1267
 30
2.87250e-017
  70
    32
  0
VERTEX
  8
0
  5
78E
 10
6.53396
 20
24.1069
 30
3.02218e-017
  70
    32
  0
VERTEX
  8
0
  5
78F
 10
6.46661
 20
24.0879
 30
3.16307e-017
  70
    32
  0
VERTEX
  8
0
  5
790
 10
6.40028
 20
24.0697
 30
3.29536e-017
  70
    32
  0
VERTEX
  8
0
  5
791
 10
6.33493
 20
24.0522
 30
3.41927e-017
  70
    32
  0
VERTEX
  8
0
  5
792
 10
6.27051
 20
24.0354
 30
3.53497e-017
  70
    32
  0
VERTEX
  8
0
  5
793
 10
6.20698
 20
24.0194
 30
3.64266e-017
  70
    32
  0
VERTEX
  8
0
  5
794
 10
6.14428
 20
24.0041
 30
3.74248e-017
  70
    32
  0
VERTEX
  8
0
  5
795
 10
6.08239
 20
23.9894
 30
3.83459e-017
  70
    32
  0
VERTEX
  8
0
  5
796
 10
6.02125
 20
23.9754
 30
3.91915e-017
  70
    32
  0
VERTEX
  8
0
  5
797
 10
5.96083
 20
23.9621
 30
3.99627e-017
  70
    32
  0
VERTEX
  8
0
  5
798
 10
5.90110
 20
23.9493
 30
4.06610e-017
  70
    32
  0
VERTEX
  8
0
  5
799
 10
5.84201
 20
23.9373
 30
4.12874e-017
  70
    32
  0
VERTEX
  8
0
  5
79A
 10
5.78354
 20
23.9258
 30
4.18430e-017
  70
    32
  0
VERTEX
  8
0
  5
79B
 10
5.72564
 20
23.9149
 30
4.23288e-017
  70
    32
  0
VERTEX
  8
0
  5
79C
 10
5.66829
 20
23.9046
 30
4.27458e-017
  70
    32
  0
VERTEX
  8
0
  5
79D
 10
5.61146
 20
23.8948
 30
4.30947e-017
  70
    32
  0
VERTEX
  8
0
  5
79E
 10
5.55510
 20
23.8857
 30
4.33764e-017
  70
    32
  0
VERTEX
  8
0
  5
79F
 10
5.49920
 20
23.8771
 30
4.35915e-017
  70
    32
  0
VERTEX
  8
0
  5
7A0
 10
5.44372
 20
23.8690
 30
4.37406e-017
  70
    32
  0
VERTEX
  8
0
  5
7A1
 10
5.38863
 20
23.8615
 30
4.38244e-017
  70
    32
  0
VERTEX
  8
0
  5
7A2
 10
5.33391
 20
23.8545
 30
4.38433e-017
  70
    32
  0
VERTEX
  8
0
  5
7A3
 10
5.27953
 20
23.8480
 30
4.37978e-017
  70
    32
  0
VERTEX
  8
0
  5
7A4
 10
5.22545
 20
23.8421
 30
4.36881e-017
  70
    32
  0
VERTEX
  8
0
  5
7A5
 10
5.17166
 20
23.8367
 30
4.35147e-017
  70
    32
  0
VERTEX
  8
0
  5
7A6
 10
5.11813
 20
23.8317
 30
4.32777e-017
  70
    32
  0
VERTEX
  8
0
  5
7A7
 10
5.06483
 20
23.8273
 30
4.29773e-017
  70
    32
  0
VERTEX
  8
0
  5
7A8
 10
5.01174
 20
23.8234
 30
4.26137e-017
  70
    32
  0
VERTEX
  8
0
  5
7A9
 10
4.95883
 20
23.8200
 30
4.21869e-017
  70
    32
  0
VERTEX
  8
0
  5
7AA
 10
4.90607
 20
23.8171
 30
4.16970e-017
  70
    32
  0
VERTEX
  8
0
  5
7AB
 10
4.85345
 20
23.8146
 30
4.11438e-017
  70
    32
  0
VERTEX
  8
0
  5
7AC
 10
4.80094
 20
23.8127
 30
4.05273e-017
  70
    32
  0
VERTEX
  8
0
  5
7AD
 10
4.74851
 20
23.8112
 30
3.98473e-017
  70
    32
  0
VERTEX
  8
0
  5
7AE
 10
4.69614
 20
23.8103
 30
3.91036e-017
  70
    32
  0
VERTEX
  8
0
  5
7AF
 10
4.64380
 20
23.8098
 30
3.82959e-017
  70
    32
  0
VERTEX
  8
0
  5
7B0
 10
4.59148
 20
23.8098
 30
3.74239e-017
  70
    32
  0
VERTEX
  8
0
  5
7B1
 10
4.53914
 20
23.8103
 30
3.64871e-017
  70
    32
  0
VERTEX
  8
0
  5
7B2
 10
4.48677
 20
23.8112
 30
3.54851e-017
  70
    32
  0
VERTEX
  8
0
  5
7B3
 10
4.43434
 20
23.8127
 30
3.44174e-017
  70
    32
  0
VERTEX
  8
0
  5
7B4
 10
4.38183
 20
23.8146
 30
3.32835e-017
  70
    32
  0
VERTEX
  8
0
  5
7B5
 10
4.32921
 20
23.8171
 30
3.20826e-017
  70
    32
  0
VERTEX
  8
0
  5
7B6
 10
4.27645
 20
23.8200
 30
3.08140e-017
  70
    32
  0
VERTEX
  8
0
  5
7B7
 10
4.22354
 20
23.8234
 30
2.94771e-017
  70
    32
  0
VERTEX
  8
0
  5
7B8
 10
4.17045
 20
23.8273
 30
2.80709e-017
  70
    32
  0
VERTEX
  8
0
  5
7B9
 10
4.11715
 20
23.8317
 30
2.65946e-017
  70
    32
  0
VERTEX
  8
0
  5
7BA
 10
4.06362
 20
23.8367
 30
2.50472e-017
  70
    32
  0
VERTEX
  8
0
  5
7BB
 10
4.00983
 20
23.8421
 30
2.34277e-017
  70
    32
  0
VERTEX
  8
0
  5
7BC
 10
3.95575
 20
23.8480
 30
2.17349e-017
  70
    32
  0
VERTEX
  8
0
  5
7BD
 10
3.90137
 20
23.8545
 30
1.99677e-017
  70
    32
  0
VERTEX
  8
0
  5
7BE
 10
3.84665
 20
23.8615
 30
1.81247e-017
  70
    32
  0
VERTEX
  8
0
  5
7BF
 10
3.79156
 20
23.8690
 30
1.62047e-017
  70
    32
  0
VERTEX
  8
0
  5
7C0
 10
3.73608
 20
23.8771
 30
1.42062e-017
  70
    32
  0
VERTEX
  8
0
  5
7C1
 10
3.68018
 20
23.8857
 30
1.21276e-017
  70
    32
  0
VERTEX
  8
0
  5
7C2
 10
3.62382
 20
23.8948
 30
9.96747e-018
  70
    32
  0
VERTEX
  8
0
  5
7C3
 10
3.56699
 20
23.9046
 30
7.72397e-018
  70
    32
  0
VERTEX
  8
0
  5
7C4
 10
3.50964
 20
23.9149
 30
5.39534e-018
  70
    32
  0
VERTEX
  8
0
  5
7C5
 10
3.45174
 20
23.9258
 30
2.97966e-018
  70
    32
  0
VERTEX
  8
0
  5
7C6
 10
3.39327
 20
23.9373
 30
4.74928e-019
  70
    32
  0
VERTEX
  8
0
  5
7C7
 10
3.33418
 20
23.9493
 30
-2.12099e-018
  70
    32
  0
VERTEX
  8
0
  5
7C8
 10
3.27445
 20
23.9621
 30
-4.81034e-018
  70
    32
  0
VERTEX
  8
0
  5
7C9
 10
3.21403
 20
23.9754
 30
-7.59548e-018
  70
    32
  0
VERTEX
  8
0
  5
7CA
 10
3.15290
 20
23.9894
 30
-1.04789e-017
  70
    32
  0
VERTEX
  8
0
  5
7CB
 10
3.09100
 20
24.0041
 30
-1.34633e-017
  70
    32
  0
VERTEX
  8
0
  5
7CC
 10
3.02830
 20
24.0194
 30
-1.65513e-017
  70
    32
  0
VERTEX
  8
0
  5
7CD
 10
2.96477
 20
24.0354
 30
-1.97460e-017
  70
    32
  0
VERTEX
  8
0
  5
7CE
 10
2.90035
 20
24.0522
 30
-2.30504e-017
  70
    32
  0
VERTEX
  8
0
  5
7CF
 10
2.83500
 20
24.0697
 30
-2.64678e-017
  70
    32
  0
VERTEX
  8
0
  5
7D0
 10
2.76867
 20
24.0879
 30
-3.00015e-017
  70
    32
  0
VERTEX
  8
0
  5
7D1
 10
2.70133
 20
24.1069
 30
-3.36553e-017
  70
    32
  0
VERTEX
  8
0
  5
7D2
 10
2.63290
 20
24.1267
 30
-3.74330e-017
  70
    32
  0
VERTEX
  8
0
  5
7D3
 10
2.56335
 20
24.1473
 30
-4.13385e-017
  70
    32
  0
VERTEX
  8
0
  5
7D4
 10
2.49261
 20
24.1688
 30
-4.53761e-017
  70
    32
  0
VERTEX
  8
0
  5
7D5
 10
2.42064
 20
24.1911
 30
-4.95504e-017
  70
    32
  0
VERTEX
  8
0
  5
7D6
 10
2.34736
 20
24.2143
 30
-5.38660e-017
  70
    32
  0
VERTEX
  8
0
  5
7D7
 10
2.27272
 20
24.2385
 30
-5.83280e-017
  70
    32
  0
VERTEX
  8
0
  5
7D8
 10
2.19664
 20
24.2636
 30
-6.29417e-017
  70
    32
  0
VERTEX
  8
0
  5
7D9
 10
2.11906
 20
24.2897
 30
-6.77127e-017
  70
    32
  0
VERTEX
  8
0
  5
7DA
 10
2.03991
 20
24.3169
 30
-7.26469e-017
  70
    32
  0
VERTEX
  8
0
  5
7DB
 10
1.95910
 20
24.3451
 30
-7.77507e-017
  70
    32
  0
VERTEX
  8
0
  5
7DC
 10
1.87656
 20
24.3744
 30
-8.30306e-017
  70
    32
  0
VERTEX
  8
0
  5
7DD
 10
1.79220
 20
24.4048
 30
-8.84937e-017
  70
    32
  0
VERTEX
  8
0
  5
7DE
 10
1.70592
 20
24.4365
 30
-9.41475e-017
  70
    32
  0
VERTEX
  8
0
  5
7DF
 10
1.61764
 20
24.4694
 30
-1.00000e-016
  70
    32
  0
SEQEND
  8
0
  5
7E0
  0
POLYLINE
  8
0
  5
7E1
  66
     1
 10
0.000000
 20
0.000000
 30
0.000000
  70
     8
  0
VERTEX
  8
0
  5
7E2
 10
1.61764
 20
24.4694
 30
-6.00000
  70
    32
  0
VERTEX
  8
0
  5
7E3
 10
1.70592
 20
24.4365
 30
-6.00000
  70
    32
  0
VERTEX
  8
0
  5
7E4
 10
1.79220
 20
24.4048
 30
-6.00000
  70
    32
  0
VERTEX
  8
0
  5
7E5
 10
1.87656
 20
24.3744
 30
-6.00000
  70
    32
  0
VERTEX
  8
0
  5
7E6
 10
1.95910
 20
24.3451
 30
-6.00000
  70
    32
  0
VERTEX
  8
0
  5
7E7
 10
2.03991
 20
24.3169
 30
-6.00000
  70
    32
  0
VERTEX
  8
0
  5
7E8
 10
2.11906
 20
24.2897
 30
-6.00000
  70
    32
  0
VERTEX
  8
0
  5
7E9
 10
2.19664
 20
24.2636
 30
-6.00000
  70
    32
  0
VERTEX
  8
0
  5
7EA
 10
2.27272
 20
24.2385
 30
-6.00000
  70
    32
  0
VERTEX
  8
0
  5
7EB
 10
2.34736
 20
24.2143
 30
-6.00000
  70
    32
  0
VERTEX
  8
0
  5
7EC
 10
2.42064
 20
24.1911
 30
-6.00000
  70
    32
  0
VERTEX
  8
0
  5
7ED
 10
2.49261
 20
24.1688
 30
-6.00000
  70
    32
  0
VERTEX
  8
0
  5
7EE
 10
2.56335
 20
24.1473
 30
-6.00000
  70
    32
  0
VERTEX
  8
0
  5
7EF
 10
2.63290
 20
24.1267
 30
-6.00000
  70
    32
  0
VERTEX
  8
0
  5
7F0
 10
2.70133
 20
24.1069
 30
-6.00000
  70
    32
  0
VERTEX
  8
0
  5
7F1
 10
2.76867
 20
24.0879
 30
-6.00000
  70
    32
  0
VERTEX
  8
0
  5
7F2
 10
2.83500
 20
24.0697
 30
-6.00000
  70
    32
  0
VERTEX
  8
0
  5
7F3
 10
2.90035
 20
24.0522
 30
-6.00000
  70
    32
  0
VERTEX
  8
0
  5
7F4
 10
2.96477
 20
24.0354
 30
-6.00000
  70
    32
  0
VERTEX
  8
0
  5
7F5
 10
3.02830
 20
24.0194
 30
-6.00000
  70
    32
  0
VERTEX
  8
0
  5
7F6
 10
3.09100
 20
24.0041
 30
-6.00000
  70
    32
  0
VERTEX
  8
0
  5
7F7
 10
3.15290
 20
23.9894
 30
-6.00000
  70
    32
  0
VERTEX
  8
0
  5
7F8
 10
3.21403
 20
23.9754
 30
-6.00000
  70
    32
  0
VERTEX
  8
0
  5
7F9
 10
3.27445
 20
23.9621
 30
-6.00000
  70
    32
  0
VERTEX
  8
0
  5
7FA
 10
3.33418
 20
23.9493
 30
-6.00000
  70
    32
  0
VERTEX
  8
0
  5
7FB
 10
3.39327
 20
23.9373
 30
-6.00000
  70
    32
  0
VERTEX
  8
0
  5
7FC
 10
3.45174
 20
23.9258
 30
-6.00000
  70
    32
  0
VERTEX
  8
0
  5
7FD
 10
3.50964
 20
23.9149
 30
-6.00000
  70
    32
  0
VERTEX
  8
0
  5
7FE
 10
3.56699
 20
23.9046
 30
-6.00000
  70
    32
  0
VERTEX
  8
0
  5
7FF
 10
3.62382
 20
23.8948
 30
-6.00000
  70
    32
  0
VERTEX
  8
0
  5
800
 10
3.68018
 20
23.8857
 30
-6.00000
  70
    32
  0
VERTEX
  8
0
  5
801
 10
3.73608
 20
23.8771
 30
-6.00000
  70
    32
  0
VERTEX
  8
0
  5
802
 10
3.79156
 20
23.8690
 30
-6.00000
  70
    32
  0
VERTEX
  8
0
  5
803
 10
3.84665
 20
23.8615
 30
-6.00000
  70
    32
  0
VERTEX
  8
0
  5
804
 10
3.90137
 20
23.8545
 30
-6.00000
  70
    32
  0
VERTEX
  8
0
  5
805
 10
3.95575
 20
23.8480
 30
-6.00000
  70
    32
  0
VERTEX
  8
0
  5
806
 10
4.00983
 20
23.8421
 30
-6.00000
  70
    32
  0
VERTEX
  8
0
  5
807
 10
4.06362
 20
23.8367
 30
-6.00000
  70
    32
  0
VERTEX
  8
0
  5
808
 10
4.11715
 20
23.8317
 30
-6.00000
  70
    32
  0
VERTEX
  8
0
  5
809
 10
4.17045
 20
23.8273
 30
-6.00000
  70
    32
  0
VERTEX
  8
0
  5
80A
 10
4.22354
 20
23.8234
 30
-6.00000
  70
    32
  0
VERTEX
  8
0
  5
80B
 10
4.27645
 20
23.8200
 30
-6.00000
  70
    32
  0
VERTEX
  8
0
  5
80C
 10
4.32921
 20
23.8171
 30
-6.00000
  70
    32
  0
VERTEX
  8
0
  5
80D
 10
4.38183
 20
23.8146
 30
-6.00000
  70
    32
  0
VERTEX
  8
0
  5
80E
 10
4.43434
 20
23.8127
 30
-6.00000
  70
    32
  0
VERTEX
  8
0
  5
80F
 10
4.48677
 20
23.8112
 30
-6.00000
  70
    32
  0
VERTEX
  8
0
  5
810
 10
4.53914
 20
23.8103
 30
-6.00000
  70
    32
  0
VERTEX
  8
0
  5
811
 10
4.59148
 20
23.8098
 30
-6.00000
  70
    32
  0
VERTEX
  8
0
  5
812
 10
4.64380
 20
23.8098
 30
-6.00000
  70
    32
  0
VERTEX
  8
0
  5
813
 10
4.69614
 20
23.8103
 30
-6.00000
  70
    32
  0
VERTEX
  8
0
  5
814
 10
4.74851
 20
23.8112
 30
-6.00000
  70
    32
  0
VERTEX
  8
0
  5
815
 10
4.80094
 20
23.8127
 30
-6.00000
  70
    32
  0
VERTEX
  8
0
  5
816
 10
4.85345
 20
23.8146
 30
-6.00000
  70
    32
  0
VERTEX
  8
0
  5
817
 10
4.90607
 20
23.8171
 30
-6.00000
  70
    32
  0
VERTEX
  8
0
  5
818
 10
4.95883
 20
23.8200
 30
-6.00000
  70
    32
  0
VERTEX
  8
0
  5
819
 10
5.01174
 20
23.8234
 30
-6.00000
  70
    32
  0
VERTEX
  8
0
  5
81A
 10
5.06483
 20
23.8273
 30
-6.00000
  70
    32
  0
VERTEX
  8
0
  5
81B
 10
5.11813
 20
23.8317
 30
-6.00000
  70
    32
  0
VERTEX
  8
0
  5
81C
 10
5.17166
 20
23.8367
 30
-6.00000
  70
    32
  0
VERTEX
  8
0
  5
81D
 10
5.22545
 20
23.8421
 30
-6.00000
  70
    32
  0
VERTEX
  8
0
  5
81E
 10
5.27953
 20
23.8480
 30
-6.00000
  70
    32
  0
VERTEX
  8
0
  5
81F
 10
5.33391
 20
23.8545
 30
-6.00000
  70
    32
  0
VERTEX
  8
0
  5
820
 10
5.38863
 20
23.8615
 30
-6.00000
  70
    32
  0
VERTEX
  8
0
  5
821
 10
5.44372
 20
23.8690
 30
-6.00000
  70
    32
  0
VERTEX
  8
0
  5
822
 10
5.49920
 20
23.8771
 30
-6.00000
  70
    32
  0
VERTEX
  8
0
  5
823
 10
5.55510
 20
23.8857
 30
-6.00000
  70
    32
  0
VERTEX
  8
0
  5
824
 10
5.61146
 20
23.8948
 30
-6.00000
  70
    32
  0
VERTEX
  8
0
  5
825
 10
5.66829
 20
23.9046
 30
-6.00000
  70
    32
  0
VERTEX
  8
0
  5
826
 10
5.72564
 20
23.9149
 30
-6.00000
  70
    32
  0
VERTEX
  8
0
  5
827
 10
5.78354
 20
23.9258
 30
-6.00000
  70
    32
  0
VERTEX
  8
0
  5
828
 10
5.84201
 20
23.9373
 30
-6.00000
  70
    32
  0
VERTEX
  8
0
  5
829
 10
5.90110
 20
23.9493
 30
-6.00000
  70
    32
  0
VERTEX
  8
0
  5
82A
 10
5.96083
 20
23.9621
 30
-6.00000
  70
    32
  0
VERTEX
  8
0
  5
82B
 10
6.02125
 20
23.9754
 30
-6.00000
  70
    32
  0
VERTEX
  8
0
  5
82C
 10
6.08239
 20
23.9894
 30
-6.00000
  70
    32
  0
VERTEX
  8
0
  5
82D
 10
6.14428
 20
24.0041
 30
-6.00000
  70
    32
  0
VERTEX
  8
0
  5
82E
 10
6.20698
 20
24.0194
 30
-6.00000
  70
    32
  0
VERTEX
  8
0
  5
82F
 10
6.27051
 20
24.0354
 30
-6.00000
  70
    32
  0
VERTEX
  8
0
  5
830
 10
6.33493
 20
24.0522
 30
-6.00000
  70
    32
  0
VERTEX
  8
0
  5
831
 10
6.40028
 20
24.0697
 30
-6.00000
  70
    32
  0
VERTEX
  8
0
  5
832
 10
6.46661
 20
24.0879
 30
-6.00000
  70
    32
  0
VERTEX
  8
0
  5
833
 10
6.53396
 20
24.1069
 30
-6.00000
  70
    32
  0
VERTEX
  8
0
  5
834
 10
6.60238
 20
24.1267
 30
-6.00000
  70
    32
  0
VERTEX
  8
0
  5
835
 10
6.67193
 20
24.1473
 30
-6.00000
  70
    32
  0
VERTEX
  8
0
  5
836
 10
6.74267
 20
24.1688
 30
-6.00000
  70
    32
  0
VERTEX
  8
0
  5
837
 10
6.81464
 20
24.1911
 30
-6.00000
  70
    32
  0
VERTEX
  8
0
  5
838
 10
6.88792
 20
24.2143
 30
-6.00000
  70
    32
  0
VERTEX
  8
0
  5
839
 10
6.96257
 20
24.2385
 30
-6.00000
  70
    32
  0
VERTEX
  8
0
  5
83A
 10
7.03864
 20
24.2636
 30
-6.00000
  70
    32
  0
VERTEX
  8
0
  5
83B
 10
7.11622
 20
24.2897
 30
-6.00000
  70
    32
  0
VERTEX
  8
0
  5
83C
 10
7.19537
 20
24.3169
 30
-6.00000
  70
    32
  0
VERTEX
  8
0
  5
83D
 10
7.27618
 20
24.3451
 30
-6.00000
  70
    32
  0
VERTEX
  8
0
  5
83E
 10
7.35872
 20
24.3744
 30
-6.00000
  70
    32
  0
VERTEX
  8
0
  5
83F
 10
7.44308
 20
24.4048
 30
-6.00000
  70
    32
  0
VERTEX
  8
0
  5
840
 10
7.52936
 20
24.4365
 30
-6.00000
  70
    32
  0
VERTEX
  8
0
  5
841
 10
7.61764
 20
24.4694
 30
-6.00000
  70
    32
  0
SEQEND
  8
0
  5
842
  0
POLYLINE
  8
0
  5
843
  66
     1
 10
0.000000
 20
0.000000
 30
0.000000
  70
     8
  0
VERTEX
  8
0
  5
844
 10
1.61764
 20
24.4694
 30
-1.00000e-016
  70
    32
  0
VERTEX
  8
0
  5
845
 10
1.61764
 20
24.4365
 30
-0.0882816
  70
    32
  0
VERTEX
  8
0
  5
846
 10
1.61764
 20
24.4048
 30
-0.174556
  70
    32
  0
VERTEX
  8
0
  5
847
 10
1.61764
 20
24.3744
 30
-0.258918
  70
    32
  0
VERTEX
  8
0
  5
848
 10
1.61764
 20
24.3451
 30
-0.341460
  70
    32
  0
VERTEX
  8
0
  5
849
 10
1.61764
 20
24.3169
 30
-0.422267
  70
    32
  0
VERTEX
  8
0
  5
84A
 10
1.61764
 20
24.2897
 30
-0.501421
  70
    32
  0
VERTEX
  8
0
  5
84B
 10
1.61764
 20
24.2636
 30
-0.578999
  70
    32
  0
VERTEX
  8
0
  5
84C
 10
1.61764
 20
24.2385
 30
-0.655075
  70
    32
  0
VERTEX
  8
0
  5
84D
 10
1.61764
 20
24.2143
 30
-0.729719
  70
    32
  0
VERTEX
  8
0
  5
84E
 10
1.61764
 20
24.1911
 30
-0.802997
  70
    32
  0
VERTEX
  8
0
  5
84F
 10
1.61764
 20
24.1688
 30
-0.874974
  70
    32
  0
VERTEX
  8
0
  5
850
 10
1.61764
 20
24.1473
 30
-0.945709
  70
    32
  0
VERTEX
  8
0
  5
851
 10
1.61764
 20
24.1267
 30
-1.01526
  70
    32
  0
VERTEX
  8
0
  5
852
 10
1.61764
 20
24.1069
 30
-1.08368
  70
    32
  0
VERTEX
  8
0
  5
853
 10
1.61764
 20
24.0879
 30
-1.15103
  70
    32
  0
VERTEX
  8
0
  5
854
 10
1.61764
 20
24.0697
 30
-1.21736
  70
    32
  0
VERTEX
  8
0
  5
855
 10
1.61764
 20
24.0522
 30
-1.28271
  70
    32
  0
VERTEX
  8
0
  5
856
 10
1.61764
 20
24.0354
 30
-1.34713
  70
    32
  0
VERTEX
  8
0
  5
857
 10
1.61764
 20
24.0194
 30
-1.41066
  70
    32
  0
VERTEX
  8
0
  5
858
 10
1.61764
 20
24.0041
 30
-1.47336
  70
    32
  0
VERTEX
  8
0
  5
859
 10
1.61764
 20
23.9894
 30
-1.53526
  70
    32
  0
VERTEX
  8
0
  5
85A
 10
1.61764
 20
23.9754
 30
-1.59639
  70
    32
  0
VERTEX
  8
0
  5
85B
 10
1.61764
 20
23.9621
 30
-1.65681
  70
    32
  0
VERTEX
  8
0
  5
85C
 10
1.61764
 20
23.9493
 30
-1.71654
  70
    32
  0
VERTEX
  8
0
  5
85D
 10
1.61764
 20
23.9373
 30
-1.77563
  70
    32
  0
VERTEX
  8
0
  5
85E
 10
1.61764
 20
23.9258
 30
-1.83410
  70
    32
  0
VERTEX
  8
0
  5
85F
 10
1.61764
 20
23.9149
 30
-1.89200
  70
    32
  0
VERTEX
  8
0
  5
860
 10
1.61764
 20
23.9046
 30
-1.94935
  70
    32
  0
VERTEX
  8
0
  5
861
 10
1.61764
 20
23.8948
 30
-2.00618
  70
    32
  0
VERTEX
  8
0
  5
862
 10
1.61764
 20
23.8857
 30
-2.06254
  70
    32
  0
VERTEX
  8
0
  5
863
 10
1.61764
 20
23.8771
 30
-2.11844
  70
    32
  0
VERTEX
  8
0
  5
864
 10
1.61764
 20
23.8690
 30
-2.17392
  70
    32
  0
VERTEX
  8
0
  5
865
 10
1.61764
 20
23.8615
 30
-2.22901
  70
    32
  0
VERTEX
  8
0
  5
866
 10
1.61764
 20
23.8545
 30
-2.28373
  70
    32
  0
VERTEX
  8
0
  5
867
 10
1.61764
 20
23.8480
 30
-2.33811
  70
    32
  0
VERTEX
  8
0
  5
868
 10
1.61764
 20
23.8421
 30
-2.39219
  70
    32
  0
VERTEX
  8
0
  5
869
 10
1.61764
 20
23.8367
 30
-2.44598
  70
    32
  0
VERTEX
  8
0
  5
86A
 10
1.61764
 20
23.8317
 30
-2.49951
  70
    32
  0
VERTEX
  8
0
  5
86B
 10
1.61764
 20
23.8273
 30
-2.55281
  70
    32
  0
VERTEX
  8
0
  5
86C
 10
1.61764
 20
23.8234
 30
-2.60590
  70
    32
  0
VERTEX
  8
0
  5
86D
 10
1.61764
 20
23.8200
 30
-2.65881
  70
    32
  0
VERTEX
  8
0
  5
86E
 10
1.61764
 20
23.8171
 30
-2.71157
  70
    32
  0
VERTEX
  8
0
  5
86F
 10
1.61764
 20
23.8146
 30
-2.76419
  70
    32
  0
VERTEX
  8
0
  5
870
 10
1.61764
 20
23.8127
 30
-2.81670
  70
    32
  0
VERTEX
  8
0
  5
871
 10
1.61764
 20
23.8112
 30
-2.86913
  70
    32
  0
VERTEX
  8
0
  5
872
 10
1.61764
 20
23.8103
 30
-2.92150
  70
    32
  0
VERTEX
  8
0
  5
873
 10
1.61764
 20
23.8098
 30
-2.97384
  70
    32
  0
VERTEX
  8
0
  5
874
 10
1.61764
 20
23.8098
 30
-3.02616
  70
    32
  0
VERTEX
  8
0
  5
875
 10
1.61764
 20
23.8103
 30
-3.07850
  70
    32
  0
VERTEX
  8
0
  5
876
 10
1.61764
 20
23.8112
 30
-3.13087
  70
    32
  0
VERTEX
  8
0
  5
877
 10
1.61764
 20
23.8127
 30
-3.18330
  70
    32
  0
VERTEX
  8
0
  5
878
 10
1.61764
 20
23.8146
 30
-3.23581
  70
    32
  0
VERTEX
  8
0
  5
879
 10
1.61764
 20
23.8171
 30
-3.28843
  70
    32
  0
VERTEX
  8
0
  5
87A
 10
1.61764
 20
23.8200
 30
-3.34119
  70
    32
  0
VERTEX
  8
0
  5
87B
 10
1.61764
 20
23.8234
 30
-3.39410
  70
    32
  0
VERTEX
  8
0
  5
87C
 10
1.61764
 20
23.8273
 30
-3.44719
  70
    32
  0
VERTEX
  8
0
  5
87D
 10
1.61764
 20
23.8317
 30
-3.50049
  70
    32
  0
VERTEX
  8
0
  5
87E
 10
1.61764
 20
23.8367
 30
-3.55402
  70
    32
  0
VERTEX
  8
0
  5
87F
 10
1.61764
 20
23.8421
 30
-3.60781
  70
    32
  0
VERTEX
  8
0
  5
880
 10
1.61764
 20
23.8480
 30
-3.66189
  70
    32
  0
VERTEX
  8
0
  5
881
 10
1.61764
 20
23.8545
 30
-3.71627
  70
    32
  0
VERTEX
  8
0
  5
882
 10
1.61764
 20
23.8615
 30
-3.77099
  70
    32
  0
VERTEX
  8
0
  5
883
 10
1.61764
 20
23.8690
 30
-3.82608
  70
    32
  0
VERTEX
  8
0
  5
884
 10
1.61764
 20
23.8771
 30
-3.88156
  70
    32
  0
VERTEX
  8
0
  5
885
 10
1.61764
 20
23.8857
 30
-3.93746
  70
    32
  0
VERTEX
  8
0
  5
886
 10
1.61764
 20
23.8948
 30
-3.99382
  70
    32
  0
VERTEX
  8
0
  5
887
 10
1.61764
 20
23.9046
 30
-4.05065
  70
    32
  0
VERTEX
  8
0
  5
888
 10
1.61764
 20
23.9149
 30
-4.10800
  70
    32
  0
VERTEX
  8
0
  5
889
 10
1.61764
 20
23.9258
 30
-4.16590
  70
    32
  0
VERTEX
  8
0
  5
88A
 10
1.61764
 20
23.9373
 30
-4.22437
  70
    32
  0
VERTEX
  8
0
  5
88B
 10
1.61764
 20
23.9493
 30
-4.28346
  70
    32
  0
VERTEX
  8
0
  5
88C
 10
1.61764
 20
23.9621
 30
-4.34319
  70
    32
  0
VERTEX
  8
0
  5
88D
 10
1.61764
 20
23.9754
 30
-4.40361
  70
    32
  0
VERTEX
  8
0
  5
88E
 10
1.61764
 20
23.9894
 30
-4.46474
  70
    32
  0
VERTEX
  8
0
  5
88F
 10
1.61764
 20
24.0041
 30
-4.52664
  70
    32
  0
VERTEX
  8
0
  5
890
 10
1.61764
 20
24.0194
 30
-4.58934
  70
    32
  0
VERTEX
  8
0
  5
891
 10
1.61764
 20
24.0354
 30
-4.65287
  70
    32
  0
VERTEX
  8
0
  5
892
 10
1.61764
 20
24.0522
 30
-4.71729
  70
    32
  0
VERTEX
  8
0
  5
893
 10
1.61764
 20
24.0697
 30
-4.78264
  70
    32
  0
VERTEX
  8
0
  5
894
 10
1.61764
 20
24.0879
 30
-4.84897
  70
    32
  0
VERTEX
  8
0
  5
895
 10
1.61764
 20
24.1069
 30
-4.91632
  70
    32
  0
VERTEX
  8
0
  5
896
 10
1.61764
 20
24.1267
 30
-4.98474
  70
    32
  0
VERTEX
  8
0
  5
897
 10
1.61764
 20
24.1473
 30
-5.05429
  70
    32
  0
VERTEX
  8
0
  5
898
 10
1.61764
 20
24.1688
 30
-5.12503
  70
    32
  0
VERTEX
  8
0
  5
899
 10
1.61764
 20
24.1911
 30
-5.19700
  70
    32
  0
VERTEX
  8
0
  5
89A
 10
1.61764
 20
24.2143
 30
-5.27028
  70
    32
  0
VERTEX
  8
0
  5
89B
 10
1.61764
 20
24.2385
 30
-5.34493
  70
    32
  0
VERTEX
  8
0
  5
89C
 10
1.61764
 20
24.2636
 30
-5.42100
  70
    32
  0
VERTEX
  8
0
  5
89D
 10
1.61764
 20
24.2897
 30
-5.49858
  70
    32
  0
VERTEX
  8
0
  5
89E
 10
1.61764
 20
24.3169
 30
-5.57773
  70
    32
  0
VERTEX
  8
0
  5
89F
 10
1.61764
 20
24.3451
 30
-5.65854
  70
    32
  0
VERTEX
  8
0
  5
8A0
 10
1.61764
 20
24.3744
 30
-5.74108
  70
    32
  0
VERTEX
  8
0
  5
8A1
 10
1.61764
 20
24.4048
 30
-5.82544
  70
    32
  0
VERTEX
  8
0
  5
8A2
 10
1.61764
 20
24.4365
 30
-5.91172
  70
    32
  0
VERTEX
  8
0
  5
8A3
 10
1.61764
 20
24.4694
 30
-6.00000
  70
    32
  0
SEQEND
  8
0
  5
8A4
  0
CIRCLE
  5
6CE
  8
0
 10
-4.6176405305316441
 20
-3.0
 30
23.547723654425411
 40
2.5064398610712568
210
0.0000000000000002
220
1.0
230
0.0
  0
CIRCLE
  5
6CF
  8
0
 10
-4.617640530531645
 20
-3.0
 30
1.181809649451083
 40
1.1304461264096479
210
0.0000000000000002
220
1.0
230
0.0
  0
CIRCLE
  5
6D0
  8
0
 10
-4.617640530531645
 20
-3.0
 30
-0.0000000614229873
 40
1.0000000000000011
210
0.0000000000000002
220
1.0
230
0.0
  0
CIRCLE
  5
6D1
  8
0
 10
-4.617640530531645
 20
-3.0
 30
1.2049784366314431
 40
1.1740911820788571
210
0.0000000000000002
220
1.0
230
0.0
  0
CIRCLE
  5
6D2
  8
0
 10
-4.617640530531645
 20
-3.0
 30
1.181809649451083
 40
1.1304461264096479
210
0.0000000000000002
220
1.0
230
0.0
  0
CIRCLE
  5
6D3
  8
0
 10
-4.617640530531645
 20
-3.0
 30
1.235027821926878
 40
1.1740911820788571
210
0.0000000000000002
220
1.0
230
0.0
  0
CIRCLE
  5
6D4
  8
0
 10
-4.617640530531645
 20
-3.0
 30
1.2049784366314431
 40
1.1740911820788571
210
0.0000000000000002
220
1.0
230
0.0
  0
CIRCLE
  5
6D5
  8
0
 10
-4.617640530531645
 20
-3.0
 30
2.051734360568418
 40
1.211413990649294
210
0.0000000000000002
220
1.0
230
0.0
  0
CIRCLE
  5
6D6
  8
0
 10
-4.617640530531645
 20
-3.0
 30
1.235027821926878
 40
1.1740911820788571
210
0.0000000000000002
220
1.0
230
0.0
  0
CIRCLE
  5
6D7
  8
0
 10
-4.617640530531645
 20
-3.0
 30
2.0817837458638531
 40
1.211413990649294
210
0.0000000000000002
220
1.0
230
0.0
  0
CIRCLE
  5
6D8
  8
0
 10
-4.617640530531645
 20
-3.0
 30
2.051734360568418
 40
1.211413990649294
210
0.0000000000000002
220
1.0
230
0.0
  0
CIRCLE
  5
6D9
  8
0
 10
-4.617640530531645
 20
-3.0
 30
2.1049525330442131
 40
1.167768934980085
210
0.0000000000000002
220
1.0
230
0.0
  0
CIRCLE
  5
6DA
  8
0
 10
-4.617640530531645
 20
-3.0
 30
2.0817837458638531
 40
1.211413990649294
210
0.0000000000000002
220
1.0
230
0.0
  0
CIRCLE
  5
6DB
  8
0
 10
-4.617640530531645
 20
-3.0
 30
2.1549525330442099
 40
1.167768934980085
210
0.0000000000000002
220
1.0
230
0.0
  0
CIRCLE
  5
6DC
  8
0
 10
-4.617640530531645
 20
-3.0
 30
2.1049525330442131
 40
1.167768934980085
210
0.0000000000000002
220
1.0
230
0.0
  0
CIRCLE
  5
6DD
  8
0
 10
-4.6176405305316441
 20
-3.0
 30
2.5050855568442221
 40
1.1939048306230191
210
0.0000000000000002
220
1.0
230
0.0
  0
CIRCLE
  5
6DE
  8
0
 10
-4.617640530531645
 20
-3.0
 30
2.1549525330442099
 40
1.167768934980085
210
0.0000000000000002
220
1.0
230
0.0
  0
CIRCLE
  5
6DF
  8
0
 10
-4.6176405305316441
 20
-3.0
 30
4.1274932608186816
 40
1.3396133221926121
210
0.0000000000000002
220
1.0
230
0.0
  0
CIRCLE
  5
6E0
  8
0
 10
-4.6176405305316441
 20
-3.0
 30
2.5050855568442221
 40
1.1939048306230191
210
0.0000000000000002
220
1.0
230
0.0
  0
CIRCLE
  5
6E1
  8
0
 10
-4.6176405305316441
 20
-3.0
 30
4.1527647067908413
 40
1.3872193387574889
210
0.0000000000000002
220
1.0
230
0.0
  0
CIRCLE
  5
6E2
  8
0
 10
-4.6176405305316441
 20
-3.0
 30
4.1274932608186816
 40
1.3396133221926121
210
0.0000000000000002
220
1.0
230
0.0
  0
CIRCLE
  5
6E3
  8
0
 10
-4.6176405305316441
 20
-3.0
 30
4.1828140920862751
 40
1.3872193387574889
210
0.0000000000000002
220
1.0
230
0.0
  0
CIRCLE
  5
6E4
  8
0
 10
-4.6176405305316441
 20
-3.0
 30
4.1527647067908413
 40
1.3872193387574889
210
0.0000000000000002
220
1.0
230
0.0
  0
CIRCLE
  5
6E5
  8
0
 10
-4.6176405305316441
 20
-3.0
 30
4.9995206307278162
 40
1.4245421473279261
210
0.0000000000000002
220
1.0
230
0.0
  0
CIRCLE
  5
6E6
  8
0
 10
-4.6176405305316441
 20
-3.0
 30
4.1828140920862751
 40
1.3872193387574889
210
0.0000000000000002
220
1.0
230
0.0
  0
CIRCLE
  5
6E7
  8
0
 10
-4.6176405305316441
 20
-3.0
 30
5.0295700160232499
 40
1.4245421473279261
210
0.0000000000000002
220
1.0
230
0.0
  0
CIRCLE
  5
6E8
  8
0
 10
-4.6176405305316441
 20
-3.0
 30
4.9995206307278162
 40
1.4245421473279261
210
0.0000000000000002
220
1.0
230
0.0
  0
CIRCLE
  5
6E9
  8
0
 10
-4.6176405305316441
 20
-3.0
 30
5.05273880320361
 40
1.3808970916587171
210
0.0000000000000002
220
1.0
230
0.0
  0
CIRCLE
  5
6EA
  8
0
 10
-4.6176405305316441
 20
-3.0
 30
5.0295700160232499
 40
1.4245421473279261
210
0.0000000000000002
220
1.0
230
0.0
  0
CIRCLE
  5
6EB
  8
0
 10
-4.6176405305316441
 20
-3.0
 30
5.1027388032036081
 40
1.3808970916587171
210
0.0000000000000002
220
1.0
230
0.0
  0
CIRCLE
  5
6EC
  8
0
 10
-4.6176405305316441
 20
-3.0
 30
5.05273880320361
 40
1.3808970916587171
210
0.0000000000000002
220
1.0
230
0.0
  0
CIRCLE
  5
6ED
  8
0
 10
-4.6176405305316441
 20
-3.0
 30
5.4528718270036203
 40
1.4070329873016509
210
0.0000000000000002
220
1.0
230
0.0
  0
CIRCLE
  5
6EE
  8
0
 10
-4.6176405305316441
 20
-3.0
 30
5.1027388032036081
 40
1.3808970916587171
210
0.0000000000000002
220
1.0
230
0.0
  0
CIRCLE
  5
6EF
  8
0
 10
-4.6176405305316441
 20
-3.0
 30
6.721520013832766
 40
1.4656295043273311
210
0.0000000000000002
220
1.0
230
0.0
  0
CIRCLE
  5
6F0
  8
0
 10
-4.6176405305316441
 20
-3.0
 30
5.4528718270036203
 40
1.4070329873016509
210
0.0000000000000002
220
1.0
230
0.0
  0
POLYLINE
  8
0
  5
8A5
  66
     1
 10
0.000000
 20
0.000000
 30
0.000000
  70
     8
  0
VERTEX
  8
0
  5
8A6
 10
7.61764
 20
24.4694
 30
0.000000
  70
    32
  0
VERTEX
  8
0
  5
8A7
 10
7.52936
 20
24.4365
 30
2.90976e-018
  70
    32
  0
VERTEX
  8
0
  5
8A8
 10
7.44308
 20
24.4048
 30
5.68779e-018
  70
    32
  0
VERTEX
  8
0
  5
8A9
 10
7.35872
 20
24.3744
 30
8.33883e-018
  70
    32
  0
VERTEX
  8
0
  5
8AA
 10
7.27618
 20
24.3451
 30
1.08673e-017
  70
    32
  0
VERTEX
  8
0
  5
8AB
 10
7.19537
 20
24.3169
 30
1.32775e-017
  70
    32
  0
VERTEX
  8
0
  5
8AC
 10
7.11622
 20
24.2897
 30
1.55733e-017
  70
    32
  0
VERTEX
  8
0
  5
8AD
 10
7.03864
 20
24.2636
 30
1.77583e-017
  70
    32
  0
VERTEX
  8
0
  5
8AE
 10
6.96257
 20
24.2385
 30
1.98362e-017
  70
    32
  0
VERTEX
  8
0
  5
8AF
 10
6.88792
 20
24.2143
 30
2.18100e-017
  70
    32
  0
VERTEX
  8
0
  5
8B0
 10
6.81464
 20
24.1911
 30
2.36831e-017
  70
    32
  0
VERTEX
  8
0
  5
8B1
 10
6.74267
 20
24.1688
 30
2.54581e-017
  70
    32
  0
VERTEX
  8
0
  5
8B2
 10
6.67193
 20
24.1473
 30
2.71379e-017
  70
    32
  0
VERTEX
  8
0
  5
8B3
 10
6.60238
 20
24.1267
 30
2.87250e-017
  70
    32
  0
VERTEX
  8
0
  5
8B4
 10
6.53396
 20
24.1069
 30
3.02218e-017
  70
    32
  0
VERTEX
  8
0
  5
8B5
 10
6.46661
 20
24.0879
 30
3.16307e-017
  70
    32
  0
VERTEX
  8
0
  5
8B6
 10
6.40028
 20
24.0697
 30
3.29536e-017
  70
    32
  0
VERTEX
  8
0
  5
8B7
 10
6.33493
 20
24.0522
 30
3.41927e-017
  70
    32
  0
VERTEX
  8
0
  5
8B8
 10
6.27051
 20
24.0354
 30
3.53497e-017
  70
    32
  0
VERTEX
  8
0
  5
8B9
 10
6.20698
 20
24.0194
 30
3.64266e-017
  70
    32
  0
VERTEX
  8
0
  5
8BA
 10
6.14428
 20
24.0041
 30
3.74248e-017
  70
    32
  0
VERTEX
  8
0
  5
8BB
 10
6.08239
 20
23.9894
 30
3.83459e-017
  70
    32
  0
VERTEX
  8
0
  5
8BC
 10
6.02125
 20
23.9754
 30
3.91915e-017
  70
    32
  0
VERTEX
  8
0
  5
8BD
 10
5.96083
 20
23.9621
 30
3.99627e-017
  70
    32
  0
VERTEX
  8
0
  5
8BE
 10
5.90110
 20
23.9493
 30
4.06610e-017
  70
    32
  0
VERTEX
  8
0
  5
8BF
 10
5.84201
 20
23.9373
 30
4.12874e-017
  70
    32
  0
VERTEX
  8
0
  5
8C0
 10
5.78354
 20
23.9258
 30
4.18430e-017
  70
    32
  0
VERTEX
  8
0
  5
8C1
 10
5.72564
 20
23.9149
 30
4.23288e-017
  70
    32
  0
VERTEX
  8
0
  5
8C2
 10
5.66829
 20
23.9046
 30
4.27458e-017
  70
    32
  0
VERTEX
  8
0
  5
8C3
 10
5.61146
 20
23.8948
 30
4.30947e-017
  70
    32
  0
VERTEX
  8
0
  5
8C4
 10
5.55510
 20
23.8857
 30
4.33764e-017
  70
    32
  0
VERTEX
  8
0
  5
8C5
 10
5.49920
 20
23.8771
 30
4.35915e-017
  70
    32
  0
VERTEX
  8
0
  5
8C6
 10
5.44372
 20
23.8690
 30
4.37406e-017
  70
    32
  0
VERTEX
  8
0
  5
8C7
 10
5.38863
 20
23.8615
 30
4.38244e-017
  70
    32
  0
VERTEX
  8
0
  5
8C8
 10
5.33391
 20
23.8545
 30
4.38433e-017
  70
    32
  0
VERTEX
  8
0
  5
8C9
 10
5.27953
 20
23.8480
 30
4.37978e-017
  70
    32
  0
VERTEX
  8
0
  5
8CA
 10
5.22545
 20
23.8421
 30
4.36881e-017
  70
    32
  0
VERTEX
  8
0
  5
8CB
 10
5.17166
 20
23.8367
 30
4.35147e-017
  70
    32
  0
VERTEX
  8
0
  5
8CC
 10
5.11813
 20
23.8317
 30
4.32777e-017
  70
    32
  0
VERTEX
  8
0
  5
8CD
 10
5.06483
 20
23.8273
 30
4.29773e-017
  70
    32
  0
VERTEX
  8
0
  5
8CE
 10
5.01174
 20
23.8234
 30
4.26137e-017
  70
    32
  0
VERTEX
  8
0
  5
8CF
 10
4.95883
 20
23.8200
 30
4.21869e-017
  70
    32
  0
VERTEX
  8
0
  5
8D0
 10
4.90607
 20
23.8171
 30
4.16970e-017
  70
    32
  0
VERTEX
  8
0
  5
8D1
 10
4.85345
 20
23.8146
 30
4.11438e-017
  70
    32
  0
VERTEX
  8
0
  5
8D2
 10
4.80094
 20
23.8127
 30
4.05273e-017
  70
    32
  0
VERTEX
  8
0
  5
8D3
 10
4.74851
 20
23.8112
 30
3.98473e-017
  70
    32
  0
VERTEX
  8
0
  5
8D4
 10
4.69614
 20
23.8103
 30
3.91036e-017
  70
    32
  0
VERTEX
  8
0
  5
8D5
 10
4.64380
 20
23.8098
 30
3.82959e-017
  70
    32
  0
VERTEX
  8
0
  5
8D6
 10
4.59148
 20
23.8098
 30
3.74239e-017
  70
    32
  0
VERTEX
  8
0
  5
8D7
 10
4.53914
 20
23.8103
 30
3.64871e-017
  70
    32
  0
VERTEX
  8
0
  5
8D8
 10
4.48677
 20
23.8112
 30
3.54851e-017
  70
    32
  0
VERTEX
  8
0
  5
8D9
 10
4.43434
 20
23.8127
 30
3.44174e-017
  70
    32
  0
VERTEX
  8
0
  5
8DA
 10
4.38183
 20
23.8146
 30
3.32835e-017
  70
    32
  0
VERTEX
  8
0
  5
8DB
 10
4.32921
 20
23.8171
 30
3.20826e-017
  70
    32
  0
VERTEX
  8
0
  5
8DC
 10
4.27645
 20
23.8200
 30
3.08140e-017
  70
    32
  0
VERTEX
  8
0
  5
8DD
 10
4.22354
 20
23.8234
 30
2.94771e-017
  70
    32
  0
VERTEX
  8
0
  5
8DE
 10
4.17045
 20
23.8273
 30
2.80709e-017
  70
    32
  0
VERTEX
  8
0
  5
8DF
 10
4.11715
 20
23.8317
 30
2.65946e-017
  70
    32
  0
VERTEX
  8
0
  5
8E0
 10
4.06362
 20
23.8367
 30
2.50472e-017
  70
    32
  0
VERTEX
  8
0
  5
8E1
 10
4.00983
 20
23.8421
 30
2.34277e-017
  70
    32
  0
VERTEX
  8
0
  5
8E2
 10
3.95575
 20
23.8480
 30
2.17349e-017
  70
    32
  0
VERTEX
  8
0
  5
8E3
 10
3.90137
 20
23.8545
 30
1.99677e-017
  70
    32
  0
VERTEX
  8
0
  5
8E4
 10
3.84665
 20
23.8615
 30
1.81247e-017
  70
    32
  0
VERTEX
  8
0
  5
8E5
 10
3.79156
 20
23.8690
 30
1.62047e-017
  70
    32
  0
VERTEX
  8
0
  5
8E6
 10
3.73608
 20
23.8771
 30
1.42062e-017
  70
    32
  0
VERTEX
  8
0
  5
8E7
 10
3.68018
 20
23.8857
 30
1.21276e-017
  70
    32
  0
VERTEX
  8
0
  5
8E8
 10
3.62382
 20
23.8948
 30
9.96747e-018
  70
    32
  0
VERTEX
  8
0
  5
8E9
 10
3.56699
 20
23.9046
 30
7.72397e-018
  70
    32
  0
VERTEX
  8
0
  5
8EA
 10
3.50964
 20
23.9149
 30
5.39534e-018
  70
    32
  0
VERTEX
  8
0
  5
8EB
 10
3.45174
 20
23.9258
 30
2.97966e-018
  70
    32
  0
VERTEX
  8
0
  5
8EC
 10
3.39327
 20
23.9373
 30
4.74928e-019
  70
    32
  0
VERTEX
  8
0
  5
8ED
 10
3.33418
 20
23.9493
 30
-2.12099e-018
  70
    32
  0
VERTEX
  8
0
  5
8EE
 10
3.27445
 20
23.9621
 30
-4.81034e-018
  70
    32
  0
VERTEX
  8
0
  5
8EF
 10
3.21403
 20
23.9754
 30
-7.59548e-018
  70
    32
  0
VERTEX
  8
0
  5
8F0
 10
3.15290
 20
23.9894
 30
-1.04789e-017
  70
    32
  0
VERTEX
  8
0
  5
8F1
 10
3.09100
 20
24.0041
 30
-1.34633e-017
  70
    32
  0
VERTEX
  8
0
  5
8F2
 10
3.02830
 20
24.0194
 30
-1.65513e-017
  70
    32
  0
VERTEX
  8
0
  5
8F3
 10
2.96477
 20
24.0354
 30
-1.97460e-017
  70
    32
  0
VERTEX
  8
0
  5
8F4
 10
2.90035
 20
24.0522
 30
-2.30504e-017
  70
    32
  0
VERTEX
  8
0
  5
8F5
 10
2.83500
 20
24.0697
 30
-2.64678e-017
  70
    32
  0
VERTEX
  8
0
  5
8F6
 10
2.76867
 20
24.0879
 30
-3.00015e-017
  70
    32
  0
VERTEX
  8
0
  5
8F7
 10
2.70133
 20
24.1069
 30
-3.36553e-017
  70
    32
  0
VERTEX
  8
0
  5
8F8
 10
2.63290
 20
24.1267
 30
-3.74330e-017
  70
    32
  0
VERTEX
  8
0
  5
8F9
 10
2.56335
 20
24.1473
 30
-4.13385e-017
  70
    32
  0
VERTEX
  8
0
  5
8FA
 10
2.49261
 20
24.1688
 30
-4.53761e-017
  70
    32
  0
VERTEX
  8
0
  5
8FB
 10
2.42064
 20
24.1911
 30
-4.95504e-017
  70
    32
  0
VERTEX
  8
0
  5
8FC
 10
2.34736
 20
24.2143
 30
-5.38660e-017
  70
    32
  0
VERTEX
  8
0
  5
8FD
 10
2.27272
 20
24.2385
 30
-5.83280e-017
  70
    32
  0
VERTEX
  8
0
  5
8FE
 10
2.19664
 20
24.2636
 30
-6.29417e-017
  70
    32
  0
VERTEX
  8
0
  5
8FF
 10
2.11906
 20
24.2897
 30
-6.77127e-017
  70
    32
  0
VERTEX
  8
0
  5
900
 10
2.03991
 20
24.3169
 30
-7.26469e-017
  70
    32
  0
VERTEX
  8
0
  5
901
 10
1.95910
 20
24.3451
 30
-7.77507e-017
  70
    32
  0
VERTEX
  8
0
  5
902
 10
1.87656
 20
24.3744
 30
-8.30306e-017
  70
    32
  0
VERTEX
  8
0
  5
903
 10
1.79220
 20
24.4048
 30
-8.84937e-017
  70
    32
  0
VERTEX
  8
0
  5
904
 10
1.70592
 20
24.4365
 30
-9.41475e-017
  70
    32
  0
VERTEX
  8
0
  5
905
 10
1.61764
 20
24.4694
 30
-1.00000e-016
  70
    32
  0
SEQEND
  8
0
  5
906
  0
LINE
  5
6F2
  8
0
 10
7.6176405305316539
 20
24.469378280001791
 30
0.0
 11
7.6176405305316548
 21
28.999999938577009
 31
0.0
  0
LINE
  5
6F3
  8
0
 10
1.617640530531641
 20
28.99999993857702
 30
0.0
 11
1.6176405305316399
 21
24.469378280001791
 31
-0.0000000000000001
  0
LINE
  5
6F4
  8
0
 10
7.6176405305316548
 20
28.999999938577009
 30
0.0
 11
1.617640530531641
 21
28.99999993857702
 31
0.0
  0
POLYLINE
  8
0
  5
907
  66
     1
 10
0.000000
 20
0.000000
 30
0.000000
  70
     8
  0
VERTEX
  8
0
  5
908
 10
7.61764
 20
24.4694
 30
-6.00000
  70
    32
  0
VERTEX
  8
0
  5
909
 10
7.61764
 20
24.4365
 30
-5.91172
  70
    32
  0
VERTEX
  8
0
  5
90A
 10
7.61764
 20
24.4048
 30
-5.82544
  70
    32
  0
VERTEX
  8
0
  5
90B
 10
7.61764
 20
24.3744
 30
-5.74108
  70
    32
  0
VERTEX
  8
0
  5
90C
 10
7.61764
 20
24.3451
 30
-5.65854
  70
    32
  0
VERTEX
  8
0
  5
90D
 10
7.61764
 20
24.3169
 30
-5.57773
  70
    32
  0
VERTEX
  8
0
  5
90E
 10
7.61764
 20
24.2897
 30
-5.49858
  70
    32
  0
VERTEX
  8
0
  5
90F
 10
7.61764
 20
24.2636
 30
-5.42100
  70
    32
  0
VERTEX
  8
0
  5
910
 10
7.61764
 20
24.2385
 30
-5.34493
  70
    32
  0
VERTEX
  8
0
  5
911
 10
7.61764
 20
24.2143
 30
-5.27028
  70
    32
  0
VERTEX
  8
0
  5
912
 10
7.61764
 20
24.1911
 30
-5.19700
  70
    32
  0
VERTEX
  8
0
  5
913
 10
7.61764
 20
24.1688
 30
-5.12503
  70
    32
  0
VERTEX
  8
0
  5
914
 10
7.61764
 20
24.1473
 30
-5.05429
  70
    32
  0
VERTEX
  8
0
  5
915
 10
7.61764
 20
24.1267
 30
-4.98474
  70
    32
  0
VERTEX
  8
0
  5
916
 10
7.61764
 20
24.1069
 30
-4.91632
  70
    32
  0
VERTEX
  8
0
  5
917
 10
7.61764
 20
24.0879
 30
-4.84897
  70
    32
  0
VERTEX
  8
0
  5
918
 10
7.61764
 20
24.0697
 30
-4.78264
  70
    32
  0
VERTEX
  8
0
  5
919
 10
7.61764
 20
24.0522
 30
-4.71729
  70
    32
  0
VERTEX
  8
0
  5
91A
 10
7.61764
 20
24.0354
 30
-4.65287
  70
    32
  0
VERTEX
  8
0
  5
91B
 10
7.61764
 20
24.0194
 30
-4.58934
  70
    32
  0
VERTEX
  8
0
  5
91C
 10
7.61764
 20
24.0041
 30
-4.52664
  70
    32
  0
VERTEX
  8
0
  5
91D
 10
7.61764
 20
23.9894
 30
-4.46474
  70
    32
  0
VERTEX
  8
0
  5
91E
 10
7.61764
 20
23.9754
 30
-4.40361
  70
    32
  0
VERTEX
  8
0
  5
91F
 10
7.61764
 20
23.9621
 30
-4.34319
  70
    32
  0
VERTEX
  8
0
  5
920
 10
7.61764
 20
23.9493
 30
-4.28346
  70
    32
  0
VERTEX
  8
0
  5
921
 10
7.61764
 20
23.9373
 30
-4.22437
  70
    32
  0
VERTEX
  8
0
  5
922
 10
7.61764
 20
23.9258
 30
-4.16590
  70
    32
  0
VERTEX
  8
0
  5
923
 10
7.61764
 20
23.9149
 30
-4.10800
  70
    32
  0
VERTEX
  8
0
  5
924
 10
7.61764
 20
23.9046
 30
-4.05065
  70
    32
  0
VERTEX
  8
0
  5
925
 10
7.61764
 20
23.8948
 30
-3.99382
  70
    32
  0
VERTEX
  8
0
  5
926
 10
7.61764
 20
23.8857
 30
-3.93746
  70
    32
  0
VERTEX
  8
0
  5
927
 10
7.61764
 20
23.8771
 30
-3.88156
  70
    32
  0
VERTEX
  8
0
  5
928
 10
7.61764
 20
23.8690
 30
-3.82608
  70
    32
  0
VERTEX
  8
0
  5
929
 10
7.61764
 20
23.8615
 30
-3.77099
  70
    32
  0
VERTEX
  8
0
  5
92A
 10
7.61764
 20
23.8545
 30
-3.71627
  70
    32
  0
VERTEX
  8
0
  5
92B
 10
7.61764
 20
23.8480
 30
-3.66189
  70
    32
  0
VERTEX
  8
0
  5
92C
 10
7.61764
 20
23.8421
 30
-3.60781
  70
    32
  0
VERTEX
  8
0
  5
92D
 10
7.61764
 20
23.8367
 30
-3.55402
  70
    32
  0
VERTEX
  8
0
  5
92E
 10
7.61764
 20
23.8317
 30
-3.50049
  70
    32
  0
VERTEX
  8
0
  5
92F
 10
7.61764
 20
23.8273
 30
-3.44719
  70
    32
  0
VERTEX
  8
0
  5
930
 10
7.61764
 20
23.8234
 30
-3.39410
  70
    32
  0
VERTEX
  8
0
  5
931
 10
7.61764
 20
23.8200
 30
-3.34119
  70
    32
  0
VERTEX
  8
0
  5
932
 10
7.61764
 20
23.8171
 30
-3.28843
  70
    32
  0
VERTEX
  8
0
  5
933
 10
7.61764
 20
23.8146
 30
-3.23581
  70
    32
  0
VERTEX
  8
0
  5
934
 10
7.61764
 20
23.8127
 30
-3.18330
  70
    32
  0
VERTEX
  8
0
  5
935
 10
7.61764
 20
23.8112
 30
-3.13087
  70
    32
  0
VERTEX
  8
0
  5
936
 10
7.61764
 20
23.8103
 30
-3.07850
  70
    32
  0
VERTEX
  8
0
  5
937
 10
7.61764
 20
23.8098
 30
-3.02616
  70
    32
  0
VERTEX
  8
0
  5
938
 10
7.61764
 20
23.8098
 30
-2.97384
  70
    32
  0
VERTEX
  8
0
  5
939
 10
7.61764
 20
23.8103
 30
-2.92150
  70
    32
  0
VERTEX
  8
0
  5
93A
 10
7.61764
 20
23.8112
 30
-2.86913
  70
    32
  0
VERTEX
  8
0
  5
93B
 10
7.61764
 20
23.8127
 30
-2.81670
  70
    32
  0
VERTEX
  8
0
  5
93C
 10
7.61764
 20
23.8146
 30
-2.76419
  70
    32
  0
VERTEX
  8
0
  5
93D
 10
7.61764
 20
23.8171
 30
-2.71157
  70
    32
  0
VERTEX
  8
0
  5
93E
 10
7.61764
 20
23.8200
 30
-2.65881
  70
    32
  0
VERTEX
  8
0
  5
93F
 10
7.61764
 20
23.8234
 30
-2.60590
  70
    32
  0
VERTEX
  8
0
  5
940
 10
7.61764
 20
23.8273
 30
-2.55281
  70
    32
  0
VERTEX
  8
0
  5
941
 10
7.61764
 20
23.8317
 30
-2.49951
  70
    32
  0
VERTEX
  8
0
  5
942
 10
7.61764
 20
23.8367
 30
-2.44598
  70
    32
  0
VERTEX
  8
0
  5
943
 10
7.61764
 20
23.8421
 30
-2.39219
  70
    32
  0
VERTEX
  8
0
  5
944
 10
7.61764
 20
23.8480
 30
-2.33811
  70
    32
  0
VERTEX
  8
0
  5
945
 10
7.61764
 20
23.8545
 30
-2.28373
  70
    32
  0
VERTEX
  8
0
  5
946
 10
7.61764
 20
23.8615
 30
-2.22901
  70
    32
  0
VERTEX
  8
0
  5
947
 10
7.61764
 20
23.8690
 30
-2.17392
  70
    32
  0
VERTEX
  8
0
  5
948
 10
7.61764
 20
23.8771
 30
-2.11844
  70
    32
  0
VERTEX
  8
0
  5
949
 10
7.61764
 20
23.8857
 30
-2.06254
  70
    32
  0
VERTEX
  8
0
  5
94A
 10
7.61764
 20
23.8948
 30
-2.00618
  70
    32
  0
VERTEX
  8
0
  5
94B
 10
7.61764
 20
23.9046
 30
-1.94935
  70
    32
  0
VERTEX
  8
0
  5
94C
 10
7.61764
 20
23.9149
 30
-1.89200
  70
    32
  0
VERTEX
  8
0
  5
94D
 10
7.61764
 20
23.9258
 30
-1.83410
  70
    32
  0
VERTEX
  8
0
  5
94E
 10
7.61764
 20
23.9373
 30
-1.77563
  70
    32
  0
VERTEX
  8
0
  5
94F
 10
7.61764
 20
23.9493
 30
-1.71654
  70
    32
  0
VERTEX
  8
0
  5
950
 10
7.61764
 20
23.9621
 30
-1.65681
  70
    32
  0
VERTEX
  8
0
  5
951
 10
7.61764
 20
23.9754
 30
-1.59639
  70
    32
  0
VERTEX
  8
0
  5
952
 10
7.61764
 20
23.9894
 30
-1.53526
  70
    32
  0
VERTEX
  8
0
  5
953
 10
7.61764
 20
24.0041
 30
-1.47336
  70
    32
  0
VERTEX
  8
0
  5
954
 10
7.61764
 20
24.0194
 30
-1.41066
  70
    32
  0
VERTEX
  8
0
  5
955
 10
7.61764
 20
24.0354
 30
-1.34713
  70
    32
  0
VERTEX
  8
0
  5
956
 10
7.61764
 20
24.0522
 30
-1.28271
  70
    32
  0
VERTEX
  8
0
  5
957
 10
7.61764
 20
24.0697
 30
-1.21736
  70
    32
  0
VERTEX
  8
0
  5
958
 10
7.61764
 20
24.0879
 30
-1.15103
  70
    32
  0
VERTEX
  8
0
  5
959
 10
7.61764
 20
24.1069
 30
-1.08368
  70
    32
  0
VERTEX
  8
0
  5
95A
 10
7.61764
 20
24.1267
 30
-1.01526
  70
    32
  0
VERTEX
  8
0
  5
95B
 10
7.61764
 20
24.1473
 30
-0.945709
  70
    32
  0
VERTEX
  8
0
  5
95C
 10
7.61764
 20
24.1688
 30
-0.874974
  70
    32
  0
VERTEX
  8
0
  5
95D
 10
7.61764
 20
24.1911
 30
-0.802997
  70
    32
  0
VERTEX
  8
0
  5
95E
 10
7.61764
 20
24.2143
 30
-0.729719
  70
    32
  0
VERTEX
  8
0
  5
95F
 10
7.61764
 20
24.2385
 30
-0.655075
  70
    32
  0
VERTEX
  8
0
  5
960
 10
7.61764
 20
24.2636
 30
-0.578999
  70
    32
  0
VERTEX
  8
0
  5
961
 10
7.61764
 20
24.2897
 30
-0.501421
  70
    32
  0
VERTEX
  8
0
  5
962
 10
7.61764
 20
24.3169
 30
-0.422267
  70
    32
  0
VERTEX
  8
0
  5
963
 10
7.61764
 20
24.3451
 30
-0.341460
  70
    32
  0
VERTEX
  8
0
  5
964
 10
7.61764
 20
24.3744
 30
-0.258918
  70
    32
  0
VERTEX
  8
0
  5
965
 10
7.61764
 20
24.4048
 30
-0.174556
  70
    32
  0
VERTEX
  8
0
  5
966
 10
7.61764
 20
24.4365
 30
-0.0882816
  70
    32
  0
VERTEX
  8
0
  5
967
 10
7.61764
 20
24.4694
 30
-1.30607e-011
  70
    32
  0
SEQEND
  8
0
  5
968
  0
LINE
  5
6F6
  8
0
 10
7.6176405305316539
 20
24.469378280001791
 30
-6.0
 11
7.6176405305316548
 21
28.999999938577009
 31
-6.0
210
1.0
220
-0.0000000000000006
230
0.0
  0
LINE
  5
6F7
  8
0
 10
7.6176405305316539
 20
24.469378280001791
 30
0.0
 11
7.6176405305316548
 21
28.999999938577009
 31
0.0
210
1.0
220
-0.0000000000000006
230
0.0
  0
LINE
  5
6F8
  8
0
 10
7.6176405305316548
 20
28.999999938577009
 30
0.0
 11
7.6176405305316548
 21
28.999999938577009
 31
-6.0
210
1.0
220
-0.0000000000000006
230
0.0
  0
CIRCLE
  5
6F9
  8
0
 10
4.617640530531645
 20
-3.0
 30
0.0000000614229873
 40
1.0000000000000011
210
-0.0000000000000002
220
-1.0
230
0.0
  0
POLYLINE
  8
0
  5
969
  66
     1
 10
0.000000
 20
0.000000
 30
0.000000
  70
     8
  0
VERTEX
  8
0
  5
96A
 10
1.61764
 20
24.4694
 30
-1.00000e-016
  70
    32
  0
VERTEX
  8
0
  5
96B
 10
1.61764
 20
24.4365
 30
-0.0882816
  70
    32
  0
VERTEX
  8
0
  5
96C
 10
1.61764
 20
24.4048
 30
-0.174556
  70
    32
  0
VERTEX
  8
0
  5
96D
 10
1.61764
 20
24.3744
 30
-0.258918
  70
    32
  0
VERTEX
  8
0
  5
96E
 10
1.61764
 20
24.3451
 30
-0.341460
  70
    32
  0
VERTEX
  8
0
  5
96F
 10
1.61764
 20
24.3169
 30
-0.422267
  70
    32
  0
VERTEX
  8
0
  5
970
 10
1.61764
 20
24.2897
 30
-0.501421
  70
    32
  0
VERTEX
  8
0
  5
971
 10
1.61764
 20
24.2636
 30
-0.578999
  70
    32
  0
VERTEX
  8
0
  5
972
 10
1.61764
 20
24.2385
 30
-0.655075
  70
    32
  0
VERTEX
  8
0
  5
973
 10
1.61764
 20
24.2143
 30
-0.729719
  70
    32
  0
VERTEX
  8
0
  5
974
 10
1.61764
 20
24.1911
 30
-0.802997
  70
    32
  0
VERTEX
  8
0
  5
975
 10
1.61764
 20
24.1688
 30
-0.874974
  70
    32
  0
VERTEX
  8
0
  5
976
 10
1.61764
 20
24.1473
 30
-0.945709
  70
    32
  0
VERTEX
  8
0
  5
977
 10
1.61764
 20
24.1267
 30
-1.01526
  70
    32
  0
VERTEX
  8
0
  5
978
 10
1.61764
 20
24.1069
 30
-1.08368
  70
    32
  0
VERTEX
  8
0
  5
979
 10
1.61764
 20
24.0879
 30
-1.15103
  70
    32
  0
VERTEX
  8
0
  5
97A
 10
1.61764
 20
24.0697
 30
-1.21736
  70
    32
  0
VERTEX
  8
0
  5
97B
 10
1.61764
 20
24.0522
 30
-1.28271
  70
    32
  0
VERTEX
  8
0
  5
97C
 10
1.61764
 20
24.0354
 30
-1.34713
  70
    32
  0
VERTEX
  8
0
  5
97D
 10
1.61764
 20
24.0194
 30
-1.41066
  70
    32
  0
VERTEX
  8
0
  5
97E
 10
1.61764
 20
24.0041
 30
-1.47336
  70
    32
  0
VERTEX
  8
0
  5
97F
 10
1.61764
 20
23.9894
 30
-1.53526
  70
    32
  0
VERTEX
  8
0
  5
980
 10
1.61764
 20
23.9754
 30
-1.59639
  70
    32
  0
VERTEX
  8
0
  5
981
 10
1.61764
 20
23.9621
 30
-1.65681
  70
    32
  0
VERTEX
  8
0
  5
982
 10
1.61764
 20
23.9493
 30
-1.71654
  70
    32
  0
VERTEX
  8
0
  5
983
 10
1.61764
 20
23.9373
 30
-1.77563
  70
    32
  0
VERTEX
  8
0
  5
984
 10
1.61764
 20
23.9258
 30
-1.83410
  70
    32
  0
VERTEX
  8
0
  5
985
 10
1.61764
 20
23.9149
 30
-1.89200
  70
    32
  0
VERTEX
  8
0
  5
986
 10
1.61764
 20
23.9046
 30
-1.94935
  70
    32
  0
VERTEX
  8
0
  5
987
 10
1.61764
 20
23.8948
 30
-2.00618
  70
    32
  0
VERTEX
  8
0
  5
988
 10
1.61764
 20
23.8857
 30
-2.06254
  70
    32
  0
VERTEX
  8
0
  5
989
 10
1.61764
 20
23.8771
 30
-2.11844
  70
    32
  0
VERTEX
  8
0
  5
98A
 10
1.61764
 20
23.8690
 30
-2.17392
  70
    32
  0
VERTEX
  8
0
  5
98B
 10
1.61764
 20
23.8615
 30
-2.22901
  70
    32
  0
VERTEX
  8
0
  5
98C
 10
1.61764
 20
23.8545
 30
-2.28373
  70
    32
  0
VERTEX
  8
0
  5
98D
 10
1.61764
 20
23.8480
 30
-2.33811
  70
    32
  0
VERTEX
  8
0
  5
98E
 10
1.61764
 20
23.8421
 30
-2.39219
  70
    32
  0
VERTEX
  8
0
  5
98F
 10
1.61764
 20
23.8367
 30
-2.44598
  70
    32
  0
VERTEX
  8
0
  5
990
 10
1.61764
 20
23.8317
 30
-2.49951
  70
    32
  0
VERTEX
  8
0
  5
991
 10
1.61764
 20
23.8273
 30
-2.55281
  70
    32
  0
VERTEX
  8
0
  5
992
 10
1.61764
 20
23.8234
 30
-2.60590
  70
    32
  0
VERTEX
  8
0
  5
993
 10
1.61764
 20
23.8200
 30
-2.65881
  70
    32
  0
VERTEX
  8
0
  5
994
 10
1.61764
 20
23.8171
 30
-2.71157
  70
    32
  0
VERTEX
  8
0
  5
995
 10
1.61764
 20
23.8146
 30
-2.76419
  70
    32
  0
VERTEX
  8
0
  5
996
 10
1.61764
 20
23.8127
 30
-2.81670
  70
    32
  0
VERTEX
  8
0
  5
997
 10
1.61764
 20
23.8112
 30
-2.86913
  70
    32
  0
VERTEX
  8
0
  5
998
 10
1.61764
 20
23.8103
 30
-2.92150
  70
    32
  0
VERTEX
  8
0
  5
999
 10
1.61764
 20
23.8098
 30
-2.97384
  70
    32
  0
VERTEX
  8
0
  5
99A
 10
1.61764
 20
23.8098
 30
-3.02616
  70
    32
  0
VERTEX
  8
0
  5
99B
 10
1.61764
 20
23.8103
 30
-3.07850
  70
    32
  0
VERTEX
  8
0
  5
99C
 10
1.61764
 20
23.8112
 30
-3.13087
  70
    32
  0
VERTEX
  8
0
  5
99D
 10
1.61764
 20
23.8127
 30
-3.18330
  70
    32
  0
VERTEX
  8
0
  5
99E
 10
1.61764
 20
23.8146
 30
-3.23581
  70
    32
  0
VERTEX
  8
0
  5
99F
 10
1.61764
 20
23.8171
 30
-3.28843
  70
    32
  0
VERTEX
  8
0
  5
9A0
 10
1.61764
 20
23.8200
 30
-3.34119
  70
    32
  0
VERTEX
  8
0
  5
9A1
 10
1.61764
 20
23.8234
 30
-3.39410
  70
    32
  0
VERTEX
  8
0
  5
9A2
 10
1.61764
 20
23.8273
 30
-3.44719
  70
    32
  0
VERTEX
  8
0
  5
9A3
 10
1.61764
 20
23.8317
 30
-3.50049
  70
    32
  0
VERTEX
  8
0
  5
9A4
 10
1.61764
 20
23.8367
 30
-3.55402
  70
    32
  0
VERTEX
  8
0
  5
9A5
 10
1.61764
 20
23.8421
 30
-3.60781
  70
    32
  0
VERTEX
  8
0
  5
9A6
 10
1.61764
 20
23.8480
 30
-3.66189
  70
    32
  0
VERTEX
  8
0
  5
9A7
 10
1.61764
 20
23.8545
 30
-3.71627
  70
    32
  0
VERTEX
  8
0
  5
9A8
 10
1.61764
 20
23.8615
 30
-3.77099
  70
    32
  0
VERTEX
  8
0
  5
9A9
 10
1.61764
 20
23.8690
 30
-3.82608
  70
    32
  0
VERTEX
  8
0
  5
9AA
 10
1.61764
 20
23.8771
 30
-3.88156
  70
    32
  0
VERTEX
  8
0
  5
9AB
 10
1.61764
 20
23.8857
 30
-3.93746
  70
    32
  0
VERTEX
  8
0
  5
9AC
 10
1.61764
 20
23.8948
 30
-3.99382
  70
    32
  0
VERTEX
  8
0
  5
9AD
 10
1.61764
 20
23.9046
 30
-4.05065
  70
    32
  0
VERTEX
  8
0
  5
9AE
 10
1.61764
 20
23.9149
 30
-4.10800
  70
    32
  0
VERTEX
  8
0
  5
9AF
 10
1.61764
 20
23.9258
 30
-4.16590
  70
    32
  0
VERTEX
  8
0
  5
9B0
 10
1.61764
 20
23.9373
 30
-4.22437
  70
    32
  0
VERTEX
  8
0
  5
9B1
 10
1.61764
 20
23.9493
 30
-4.28346
  70
    32
  0
VERTEX
  8
0
  5
9B2
 10
1.61764
 20
23.9621
 30
-4.34319
  70
    32
  0
VERTEX
  8
0
  5
9B3
 10
1.61764
 20
23.9754
 30
-4.40361
  70
    32
  0
VERTEX
  8
0
  5
9B4
 10
1.61764
 20
23.9894
 30
-4.46474
  70
    32
  0
VERTEX
  8
0
  5
9B5
 10
1.61764
 20
24.0041
 30
-4.52664
  70
    32
  0
VERTEX
  8
0
  5
9B6
 10
1.61764
 20
24.0194
 30
-4.58934
  70
    32
  0
VERTEX
  8
0
  5
9B7
 10
1.61764
 20
24.0354
 30
-4.65287
  70
    32
  0
VERTEX
  8
0
  5
9B8
 10
1.61764
 20
24.0522
 30
-4.71729
  70
    32
  0
VERTEX
  8
0
  5
9B9
 10
1.61764
 20
24.0697
 30
-4.78264
  70
    32
  0
VERTEX
  8
0
  5
9BA
 10
1.61764
 20
24.0879
 30
-4.84897
  70
    32
  0
VERTEX
  8
0
  5
9BB
 10
1.61764
 20
24.1069
 30
-4.91632
  70
    32
  0
VERTEX
  8
0
  5
9BC
 10
1.61764
 20
24.1267
 30
-4.98474
  70
    32
  0
VERTEX
  8
0
  5
9BD
 10
1.61764
 20
24.1473
 30
-5.05429
  70
    32
  0
VERTEX
  8
0
  5
9BE
 10
1.61764
 20
24.1688
 30
-5.12503
  70
    32
  0
VERTEX
  8
0
  5
9BF
 10
1.61764
 20
24.1911
 30
-5.19700
  70
    32
  0
VERTEX
  8
0
  5
9C0
 10
1.61764
 20
24.2143
 30
-5.27028
  70
    32
  0
VERTEX
  8
0
  5
9C1
 10
1.61764
 20
24.2385
 30
-5.34493
  70
    32
  0
VERTEX
  8
0
  5
9C2
 10
1.61764
 20
24.2636
 30
-5.42100
  70
    32
  0
VERTEX
  8
0
  5
9C3
 10
1.61764
 20
24.2897
 30
-5.49858
  70
    32
  0
VERTEX
  8
0
  5
9C4
 10
1.61764
 20
24.3169
 30
-5.57773
  70
    32
  0
VERTEX
  8
0
  5
9C5
 10
1.61764
 20
24.3451
 30
-5.65854
  70
    32
  0
VERTEX
  8
0
  5
9C6
 10
1.61764
 20
24.3744
 30
-5.74108
  70
    32
  0
VERTEX
  8
0
  5
9C7
 10
1.61764
 20
24.4048
 30
-5.82544
  70
    32
  0
VERTEX
  8
0
  5
9C8
 10
1.61764
 20
24.4365
 30
-5.91172
  70
    32
  0
VERTEX
  8
0
  5
9C9
 10
1.61764
 20
24.4694
 30
-6.00000
  70
    32
  0
SEQEND
  8
0
  5
9CA
  0
LINE
  5
6FB
  8
0
 10
1.617640530531641
 20
28.99999993857702
 30
0.0
 11
1.6176405305316399
 21
24.469378280001791
 31
-0.0000000000000001
210
-1.0
220
0.0000000000000002
230
0.0
  0
LINE
  5
6FC
  8
0
 10
1.617640530531641
 20
28.99999993857702
 30
-6.0
 11
1.6176405305316399
 21
24.469378280001791
 31
-6.0
210
-1.0
220
0.0000000000000002
230
0.0
  0
LINE
  5
6FD
  8
0
 10
1.617640530531641
 20
28.99999993857702
 30
0.0
 11
1.617640530531641
 21
28.99999993857702
 31
-6.0
210
-1.0
220
0.0000000000000002
230
0.0
  0
LINE
  5
6FE
  8
0
 10
7.6176405305316548
 20
28.999999938577009
 30
-6.0
 11
1.617640530531641
 21
28.99999993857702
 31
-6.0
210
0.0000000000000002
220
1.0
230
0.0
  0
LINE
  5
6FF
  8
0
 10
1.617640530531641
 20
28.99999993857702
 30
0.0
 11
1.617640530531641
 21
28.99999993857702
 31
-6.0
210
0.0000000000000002
220
1.0
230
0.0
  0
LINE
  5
700
  8
0
 10
7.6176405305316548
 20
28.999999938577009
 30
0.0
 11
7.6176405305316548
 21
28.999999938577009
 31
-6.0
210
0.0000000000000002
220
1.0
230
0.0
  0
LINE
  5
701
  8
0
 10
7.6176405305316548
 20
28.999999938577009
 30
0.0
 11
1.617640530531641
 21
28.99999993857702
 31
0.0
210
0.0000000000000002
220
1.0
230
0.0
  0
POLYLINE
  8
0
  5
9CB
  66
     1
 10
0.000000
 20
0.000000
 30
0.000000
  70
     8
  0
VERTEX
  8
0
  5
9CC
 10
1.61764
 20
24.4694
 30
-6.00000
  70
    32
  0
VERTEX
  8
0
  5
9CD
 10
1.70592
 20
24.4365
 30
-6.00000
  70
    32
  0
VERTEX
  8
0
  5
9CE
 10
1.79220
 20
24.4048
 30
-6.00000
  70
    32
  0
VERTEX
  8
0
  5
9CF
 10
1.87656
 20
24.3744
 30
-6.00000
  70
    32
  0
VERTEX
  8
0
  5
9D0
 10
1.95910
 20
24.3451
 30
-6.00000
  70
    32
  0
VERTEX
  8
0
  5
9D1
 10
2.03991
 20
24.3169
 30
-6.00000
  70
    32
  0
VERTEX
  8
0
  5
9D2
 10
2.11906
 20
24.2897
 30
-6.00000
  70
    32
  0
VERTEX
  8
0
  5
9D3
 10
2.19664
 20
24.2636
 30
-6.00000
  70
    32
  0
VERTEX
  8
0
  5
9D4
 10
2.27272
 20
24.2385
 30
-6.00000
  70
    32
  0
VERTEX
  8
0
  5
9D5
 10
2.34736
 20
24.2143
 30
-6.00000
  70
    32
  0
VERTEX
  8
0
  5
9D6
 10
2.42064
 20
24.1911
 30
-6.00000
  70
    32
  0
VERTEX
  8
0
  5
9D7
 10
2.49261
 20
24.1688
 30
-6.00000
  70
    32
  0
VERTEX
  8
0
  5
9D8
 10
2.56335
 20
24.1473
 30
-6.00000
  70
    32
  0
VERTEX
  8
0
  5
9D9
 10
2.63290
 20
24.1267
 30
-6.00000
  70
    32
  0
VERTEX
  8
0
  5
9DA
 10
2.70133
 20
24.1069
 30
-6.00000
  70
    32
  0
VERTEX
  8
0
  5
9DB
 10
2.76867
 20
24.0879
 30
-6.00000
  70
    32
  0
VERTEX
  8
0
  5
9DC
 10
2.83500
 20
24.0697
 30
-6.00000
  70
    32
  0
VERTEX
  8
0
  5
9DD
 10
2.90035
 20
24.0522
 30
-6.00000
  70
    32
  0
VERTEX
  8
0
  5
9DE
 10
2.96477
 20
24.0354
 30
-6.00000
  70
    32
  0
VERTEX
  8
0
  5
9DF
 10
3.02830
 20
24.0194
 30
-6.00000
  70
    32
  0
VERTEX
  8
0
  5
9E0
 10
3.09100
 20
24.0041
 30
-6.00000
  70
    32
  0
VERTEX
  8
0
  5
9E1
 10
3.15290
 20
23.9894
 30
-6.00000
  70
    32
  0
VERTEX
  8
0
  5
9E2
 10
3.21403
 20
23.9754
 30
-6.00000
  70
    32
  0
VERTEX
  8
0
  5
9E3
 10
3.27445
 20
23.9621
 30
-6.00000
  70
    32
  0
VERTEX
  8
0
  5
9E4
 10
3.33418
 20
23.9493
 30
-6.00000
  70
    32
  0
VERTEX
  8
0
  5
9E5
 10
3.39327
 20
23.9373
 30
-6.00000
  70
    32
  0
VERTEX
  8
0
  5
9E6
 10
3.45174
 20
23.9258
 30
-6.00000
  70
    32
  0
VERTEX
  8
0
  5
9E7
 10
3.50964
 20
23.9149
 30
-6.00000
  70
    32
  0
VERTEX
  8
0
  5
9E8
 10
3.56699
 20
23.9046
 30
-6.00000
  70
    32
  0
VERTEX
  8
0
  5
9E9
 10
3.62382
 20
23.8948
 30
-6.00000
  70
    32
  0
VERTEX
  8
0
  5
9EA
 10
3.68018
 20
23.8857
 30
-6.00000
  70
    32
  0
VERTEX
  8
0
  5
9EB
 10
3.73608
 20
23.8771
 30
-6.00000
  70
    32
  0
VERTEX
  8
0
  5
9EC
 10
3.79156
 20
23.8690
 30
-6.00000
  70
    32
  0
VERTEX
  8
0
  5
9ED
 10
3.84665
 20
23.8615
 30
-6.00000
  70
    32
  0
VERTEX
  8
0
  5
9EE
 10
3.90137
 20
23.8545
 30
-6.00000
  70
    32
  0
VERTEX
  8
0
  5
9EF
 10
3.95575
 20
23.8480
 30
-6.00000
  70
    32
  0
VERTEX
  8
0
  5
9F0
 10
4.00983
 20
23.8421
 30
-6.00000
  70
    32
  0
VERTEX
  8
0
  5
9F1
 10
4.06362
 20
23.8367
 30
-6.00000
  70
    32
  0
VERTEX
  8
0
  5
9F2
 10
4.11715
 20
23.8317
 30
-6.00000
  70
    32
  0
VERTEX
  8
0
  5
9F3
 10
4.17045
 20
23.8273
 30
-6.00000
  70
    32
  0
VERTEX
  8
0
  5
9F4
 10
4.22354
 20
23.8234
 30
-6.00000
  70
    32
  0
VERTEX
  8
0
  5
9F5
 10
4.27645
 20
23.8200
 30
-6.00000
  70
    32
  0
VERTEX
  8
0
  5
9F6
 10
4.32921
 20
23.8171
 30
-6.00000
  70
    32
  0
VERTEX
  8
0
  5
9F7
 10
4.38183
 20
23.8146
 30
-6.00000
  70
    32
  0
VERTEX
  8
0
  5
9F8
 10
4.43434
 20
23.8127
 30
-6.00000
  70
    32
  0
VERTEX
  8
0
  5
9F9
 10
4.48677
 20
23.8112
 30
-6.00000
  70
    32
  0
VERTEX
  8
0
  5
9FA
 10
4.53914
 20
23.8103
 30
-6.00000
  70
    32
  0
VERTEX
  8
0
  5
9FB
 10
4.59148
 20
23.8098
 30
-6.00000
  70
    32
  0
VERTEX
  8
0
  5
9FC
 10
4.64380
 20
23.8098
 30
-6.00000
  70
    32
  0
VERTEX
  8
0
  5
9FD
 10
4.69614
 20
23.8103
 30
-6.00000
  70
    32
  0
VERTEX
  8
0
  5
9FE
 10
4.74851
 20
23.8112
 30
-6.00000
  70
    32
  0
VERTEX
  8
0
  5
9FF
 10
4.80094
 20
23.8127
 30
-6.00000
  70
    32
  0
VERTEX
  8
0
  5
A00
 10
4.85345
 20
23.8146
 30
-6.00000
  70
    32
  0
VERTEX
  8
0
  5
A01
 10
4.90607
 20
23.8171
 30
-6.00000
  70
    32
  0
VERTEX
  8
0
  5
A02
 10
4.95883
 20
23.8200
 30
-6.00000
  70
    32
  0
VERTEX
  8
0
  5
A03
 10
5.01174
 20
23.8234
 30
-6.00000
  70
    32
  0
VERTEX
  8
0
  5
A04
 10
5.06483
 20
23.8273
 30
-6.00000
  70
    32
  0
VERTEX
  8
0
  5
A05
 10
5.11813
 20
23.8317
 30
-6.00000
  70
    32
  0
VERTEX
  8
0
  5
A06
 10
5.17166
 20
23.8367
 30
-6.00000
  70
    32
  0
VERTEX
  8
0
  5
A07
 10
5.22545
 20
23.8421
 30
-6.00000
  70
    32
  0
VERTEX
  8
0
  5
A08
 10
5.27953
 20
23.8480
 30
-6.00000
  70
    32
  0
VERTEX
  8
0
  5
A09
 10
5.33391
 20
23.8545
 30
-6.00000
  70
    32
  0
VERTEX
  8
0
  5
A0A
 10
5.38863
 20
23.8615
 30
-6.00000
  70
    32
  0
VERTEX
  8
0
  5
A0B
 10
5.44372
 20
23.8690
 30
-6.00000
  70
    32
  0
VERTEX
  8
0
  5
A0C
 10
5.49920
 20
23.8771
 30
-6.00000
  70
    32
  0
VERTEX
  8
0
  5
A0D
 10
5.55510
 20
23.8857
 30
-6.00000
  70
    32
  0
VERTEX
  8
0
  5
A0E
 10
5.61146
 20
23.8948
 30
-6.00000
  70
    32
  0
VERTEX
  8
0
  5
A0F
 10
5.66829
 20
23.9046
 30
-6.00000
  70
    32
  0
VERTEX
  8
0
  5
A10
 10
5.72564
 20
23.9149
 30
-6.00000
  70
    32
  0
VERTEX
  8
0
  5
A11
 10
5.78354
 20
23.9258
 30
-6.00000
  70
    32
  0
VERTEX
  8
0
  5
A12
 10
5.84201
 20
23.9373
 30
-6.00000
  70
    32
  0
VERTEX
  8
0
  5
A13
 10
5.90110
 20
23.9493
 30
-6.00000
  70
    32
  0
VERTEX
  8
0
  5
A14
 10
5.96083
 20
23.9621
 30
-6.00000
  70
    32
  0
VERTEX
  8
0
  5
A15
 10
6.02125
 20
23.9754
 30
-6.00000
  70
    32
  0
VERTEX
  8
0
  5
A16
 10
6.08239
 20
23.9894
 30
-6.00000
  70
    32
  0
VERTEX
  8
0
  5
A17
 10
6.14428
 20
24.0041
 30
-6.00000
  70
    32
  0
VERTEX
  8
0
  5
A18
 10
6.20698
 20
24.0194
 30
-6.00000
  70
    32
  0
VERTEX
  8
0
  5
A19
 10
6.27051
 20
24.0354
 30
-6.00000
  70
    32
  0
VERTEX
  8
0
  5
A1A
 10
6.33493
 20
24.0522
 30
-6.00000
  70
    32
  0
VERTEX
  8
0
  5
A1B
 10
6.40028
 20
24.0697
 30
-6.00000
  70
    32
  0
VERTEX
  8
0
  5
A1C
 10
6.46661
 20
24.0879
 30
-6.00000
  70
    32
  0
VERTEX
  8
0
  5
A1D
 10
6.53396
 20
24.1069
 30
-6.00000
  70
    32
  0
VERTEX
  8
0
  5
A1E
 10
6.60238
 20
24.1267
 30
-6.00000
  70
    32
  0
VERTEX
  8
0
  5
A1F
 10
6.67193
 20
24.1473
 30
-6.00000
  70
    32
  0
VERTEX
  8
0
  5
A20
 10
6.74267
 20
24.1688
 30
-6.00000
  70
    32
  0
VERTEX
  8
0
  5
A21
 10
6.81464
 20
24.1911
 30
-6.00000
  70
    32
  0
VERTEX
  8
0
  5
A22
 10
6.88792
 20
24.2143
 30
-6.00000
  70
    32
  0
VERTEX
  8
0
  5
A23
 10
6.96257
 20
24.2385
 30
-6.00000
  70
    32
  0
VERTEX
  8
0
  5
A24
 10
7.03864
 20
24.2636
 30
-6.00000
  70
    32
  0
VERTEX
  8
0
  5
A25
 10
7.11622
 20
24.2897
 30
-6.00000
  70
    32
  0
VERTEX
  8
0
  5
A26
 10
7.19537
 20
24.3169
 30
-6.00000
  70
    32
  0
VERTEX
  8
0
  5
A27
 10
7.27618
 20
24.3451
 30
-6.00000
  70
    32
  0
VERTEX
  8
0
  5
A28
 10
7.35872
 20
24.3744
 30
-6.00000
  70
    32
  0
VERTEX
  8
0
  5
A29
 10
7.44308
 20
24.4048
 30
-6.00000
  70
    32
  0
VERTEX
  8
0
  5
A2A
 10
7.52936
 20
24.4365
 30
-6.00000
  70
    32
  0
VERTEX
  8
0
  5
A2B
 10
7.61764
 20
24.4694
 30
-6.00000
  70
    32
  0
SEQEND
  8
0
  5
A2C
  0
LINE
  5
703
  8
0
 10
1.617640530531641
 20
28.99999993857702
 30
-6.0
 11
1.6176405305316399
 21
24.469378280001791
 31
-6.0
210
0.0
220
0.0
230
-1.0
  0
LINE
  5
704
  8
0
 10
7.6176405305316539
 20
24.469378280001791
 30
-6.0
 11
7.6176405305316548
 21
28.999999938577009
 31
-6.0
210
0.0
220
0.0
230
-1.0
  0
LINE
  5
705
  8
0
 10
7.6176405305316548
 20
28.999999938577009
 30
-6.0
 11
1.617640530531641
 21
28.99999993857702
 31
-6.0
210
0.0
220
0.0
230
-1.0
  0
ENDBLK
  5
707
  8
0
  0
ENDSEC
  0
SECTION
  2
ENTITIES
  0
INSERT
  5
323
  8
ASHADE
 62
     1
  2
AVE_RENDER
 10
0.0
 20
0.0
 30
0.0
1001
AVE_RENDER
1002
{
1070
     7
1000
Pref
1070
    50
1070
    20
1070
     1
1070
     0
1000

1070
    10
1070
     1
1070
    10
1040
1.0
1070
     1
1040
0.699999988079071
1040
1.0
1040
0.2000000029802322
1040
2.0
1010
-1.0
1020
-1.0
1030
-1.0
1040
0.3000000119209289
1070
    49
1070
     0
1070
     0
1010
1.0
1020
1.0
1030
1.0
1040
45.0
1070
     1
1070
     0
1000
WCS
1040
0.0
1070
     0
1040
10.0
1002
}
  0
INSERT
  5
324
  8
ASHADE
 62
     3
  2
AVE_RENDER
 10
0.0
 20
0.0
 30
0.0
1001
AVE_RENDER
1002
{
1070
     0
1000
Full Opt
1070
     0
1070
     1
1070
     1
1070
     1
1070
     0
1070
     0
1070
     0
1070
     1
1070
     1
1040
0.0001
1040
0.0001
1002
}
  0
INSERT
  5
325
  8
ASHADE
 62
     4
  2
AVE_RENDER
 10
0.0
 20
0.0
 30
0.0
1001
AVE_RENDER
1002
{
1070
     0
1000
Quick Opt
1070
     0
1070
     1
1070
     1
1070
     1
1070
     0
1070
     0
1070
     1
1002
}
  0
INSERT
  5
326
  8
ASHADE
 62
     5
  2
AVE_RENDER
 10
0.0
 20
0.0
 30
0.0
1001
AVE_RENDER
1002
{
1070
     1
1000
Scanl Opt
1070
     2
1070
     0
1070
     2
1040
2.0
1040
4.0
1070
     0
1070
     1
1070
     0
1040
0.03
1002
}
  0
INSERT
  5
327
  8
ASHADE
 62
     6
  2
AVE_RENDER
 10
0.0
 20
0.0
 30
0.0
1001
AVE_RENDER
1002
{
1070
     2
1000
Raytr Opt
1070
     2
1070
     0
1070
     2
1040
2.0
1040
4.0
1070
     0
1070
     1
1070
     1
1040
0.03
1070
     3
1040
0.03
1002
}
  0
INSERT
  5
328
  8
ASHADE
 62
     7
  2
AVE_RENDER
 10
0.0
 20
0.0
 30
0.0
1001
AVE_RENDER
1002
{
1070
     0
1000
RFile Opt
1070
     1
1070
   640
1070
   480
1070
 10000
1070
     1
1070
     8
1070
     8
1070
     0
1070
     0
1070
     0
1070
     0
1070
     0
1070
     0
1070
     0
1002
}
  0
INSERT
  5
329
  8
ASHADE
 62
     8
  2
AVE_RENDER
 10
0.0
 20
0.0
 30
0.0
1001
AVE_RENDER
1002
{
1070
     0
1000
Fog Opt
1070
     0
1070
     0
1040
0.0
1040
1.0
1040
0.0
1040
1.0
1010
0.5
1020
0.5
1030
0.5
1002
}
  0
INSERT
  5
32A
  8
ASHADE
 62
     9
  2
AVE_RENDER
 10
0.0
 20
0.0
 30
0.0
1001
AVE_RENDER
1002
{
1070
     0
1000
BG Opt
1070
     0
1070
     0
1010
0.0
1020
0.0
1030
0.0
1010
1.0
1020
0.0
1030
0.0
1010
0.0
1020
1.0
1030
0.0
1010
0.0
1020
0.0
1030
1.0
1040
0.5
1040
0.5
1040
0.0
1000

1070
     1
1000

1070
     1
1070
     1
1040
1.0
1040
1.0
1040
0.0
1040
0.0
1070
     0
1002
}
  0
INSERT
  5
331
  8
ASHADE
 62
     1
  2
AVE_GLOBAL
 10
0.0
 20
0.0
 30
0.0
1001
AVE_MATERIAL
1002
{
1000
*GLOBAL*
1000
2
1000
Global finish.
1002
{
1002
}
1002
{
1070
    63
1002
{
1002
{
1010
-1.0
1020
-1.0
1030
-1.0
1002
}
1040
0.699999988079071
1000

1040
0.0
1002
{
1002
}
1040
0.0
1002
{
1002
}
1040
0.0
1002
}
1002
{
1002
{
1010
-1.0
1020
-1.0
1030
-1.0
1002
}
1040
1.0
1000

1040
0.0
1002
{
1002
}
1040
0.0
1002
{
1002
}
1040
0.0
1002
}
1002
{
1002
{
1010
-1.0
1020
-1.0
1030
-1.0
1002
}
1040
0.2000000029802322
1000

1040
0.0
1002
{
1002
}
1040
0.0
1002
{
1002
}
1040
0.0
1002
}
1002
{
1070
     0
1002
{
1070
     1
1002
{
1040
1.0
1040
1.0
1000

1040
0.0
1002
{
1002
}
1040
0.0
1002
{
1002
}
1040
0.0
1002
}
1002
}
1040
1.0
1040
0.0
1040
0.0
1002
}
1002
{
1040
1.0
1040
1.0
1000

1040
0.0
1002
{
1002
}
1040
0.0
1002
{
1002
}
1040
0.0
1002
}
1002
{
1040
0.5
1040
1.0
1000

1040
0.0
1002
{
1002
}
1040
0.0
1002
{
1002
}
1040
0.0
1002
}
1002
{
1070
     0
1040
0.0
1002
{
1002
}
1040
1.0
1002
{
1002
}
1040
0.0
1002
}
1002
{
1040
0.0
1002
{
1002
{
1010
0.0
1020
0.0
1030
0.0
1002
}
1040
1.0
1000

1040
0.0
1002
{
1002
}
1040
0.0
1002
{
1002
}
1040
0.0
1002
}
1002
}
1002
{
1002
{
1070
     1
1002
{
1040
0.0
1040
1.0
1000

1040
0.0
1002
{
1002
}
1040
0.0
1002
{
1002
}
1040
0.0
1002
}
1002
}
1040
0.0
1002
{
1002
}
1010
1.0
1020
0.0
1030
0.0
1010
0.0
1020
1.0
1030
0.0
1010
0.0
1020
0.0
1030
1.0
1070
     0
1002
}
1002
{
1002
{
1040
1.0
1040
1.0
1002
{
1070
     1
1002
{
1040
1.0
1040
1.0
1000

1040
0.0
1002
{
1002
}
1040
0.0
1002
{
1002
}
1040
0.0
1002
}
1002
}
1002
}
1070
     0
1040
0.0
1002
{
1002
}
1002
}
1002
{
1002
}
1002
}
1002
{
1071
        3
1070
     3
1070
     0
1002
{
1070
     2
1070
     0
1070
     0
1040
0.0
1002
}
1070
     0
1070
     2
1002
{
1002
}
1002
}
1002
{
1040
8030.0
1040
190.30000305175781
1040
0.3050000071525574
1040
228.0
1040
545.0
1040
14.0
1040
17.39999961853027
1040
0.4560000002384186
1002
}
1000

1002
}
  0
POLYLINE
  5
33C
  8
0
 62
     7
 66
     1
 10
0.0
 20
0.0
 30
0.0
 70
    64
 71
   160
 72
   316
1001
AVE_ENTITY_MATERIAL
1002
{
1000

1002
{
1071
        0
1070
     0
1070
     0
1002
{
1070
     0
1070
     0
1070
     0
1040
0.0
1002
}
1070
     0
1070
     0
1002
{
1002
}
1002
}
1002
{
1002
}
1002
{
1002
}
1011
0.0
1021
0.0
1031
0.0
1021
0.0
1031
0.0
1011
1.0
1021
0.0
1031
0.0
1021
0.0
1031
0.0
1011
0.0
1021
0.0
1031
0.0
1021
1.0
1031
0.0
1011
0.0
1021
0.0
1031
0.0
1021
0.0
1031
1.0
1002
}
  0
VERTEX
  5
33D
  8
0
 62
     7
 10
29.729291915893558
 20
24.911701202392582
 30
3.767501354217528
 70
   192
  0
VERTEX
  5
33E
  8
0
 62
     7
 10
32.479293823242187
 20
24.911701202392582
 30
3.767501354217528
 70
   192
  0
VERTEX
  5
33F
  8
0
 62
     7
 10
32.479293823242187
 20
24.911701202392582
 30
3.517501354217528
 70
   192
  0
VERTEX
  5
340
  8
0
 62
     7
 10
29.729291915893558
 20
24.911701202392582
 30
3.517501354217528
 70
   192
  0
VERTEX
  5
341
  8
0
 62
     7
 10
32.479293823242187
 20
30.69451904296875
 30
3.767501354217528
 70
   192
  0
VERTEX
  5
342
  8
0
 62
     7
 10
32.479293823242187
 20
30.69451904296875
 30
3.517501354217528
 70
   192
  0
VERTEX
  5
343
  8
0
 62
     7
 10
29.729291915893558
 20
30.69451904296875
 30
3.767501354217528
 70
   192
  0
VERTEX
  5
344
  8
0
 62
     7
 10
29.729291915893558
 20
30.69451904296875
 30
3.517501354217528
 70
   192
  0
VERTEX
  5
345
  8
0
 62
     7
 10
32.904293060302741
 20
24.907354354858398
 30
3.442501306533813
 70
   192
  0
VERTEX
  5
346
  8
0
 62
     7
 10
32.904293060302741
 20
24.907354354858398
 30
0.6925012469291687
 70
   192
  0
VERTEX
  5
347
  8
0
 62
     7
 10
32.654293060302741
 20
24.907354354858398
 30
0.6925012469291687
 70
   192
  0
VERTEX
  5
348
  8
0
 62
     7
 10
32.654293060302741
 20
24.907354354858398
 30
3.442501306533813
 70
   192
  0
VERTEX
  5
349
  8
0
 62
     7
 10
32.904293060302741
 20
30.69017219543457
 30
0.6925012469291687
 70
   192
  0
VERTEX
  5
34A
  8
0
 62
     7
 10
32.654293060302741
 20
30.69017219543457
 30
0.6925012469291687
 70
   192
  0
VERTEX
  5
34B
  8
0
 62
     7
 10
32.904293060302741
 20
30.69017219543457
 30
3.442501306533813
 70
   192
  0
VERTEX
  5
34C
  8
0
 62
     7
 10
32.654293060302741
 20
30.69017219543457
 30
3.442501306533813
 70
   192
  0
VERTEX
  5
34D
  8
0
 62
     7
 10
29.667280197143558
 20
23.02440071105957
 30
0.6556429862976075
 70
   192
  0
VERTEX
  5
34E
  8
0
 62
     7
 10
29.667280197143558
 20
23.02440071105957
 30
3.4056429862976061
 70
   192
  0
VERTEX
  5
34F
  8
0
 62
     7
 10
29.417434692382809
 20
23.015634536743171
 30
3.4056429862976061
 70
   192
  0
VERTEX
  5
350
  8
0
 62
     7
 10
29.417434692382809
 20
23.015634536743171
 30
0.6556429862976075
 70
   192
  0
VERTEX
  5
351
  8
0
 62
     7
 10
30.26719856262207
 20
5.9267349243164062
 30
2.8057248592376691
 70
   192
  0
VERTEX
  5
352
  8
0
 62
     7
 10
30.017351150512699
 20
5.91796827316284
 30
2.8057248592376691
 70
   192
  0
VERTEX
  5
353
  8
0
 62
     7
 10
30.26719856262207
 20
5.9267349243164062
 30
1.2555611133575419
 70
   192
  0
VERTEX
  5
354
  8
0
 62
     7
 10
30.017351150512699
 20
5.91796827316284
 30
1.2555611133575419
 70
   192
  0
VERTEX
  5
355
  8
0
 62
     7
 10
29.792434692382809
 20
23.02440071105957
 30
3.5045132637023921
 70
   192
  0
VERTEX
  5
356
  8
0
 62
     7
 10
32.542434692382812
 20
23.02440071105957
 30
3.5045132637023921
 70
   192
  0
VERTEX
  5
357
  8
0
 62
     7
 10
32.542434692382812
 20
23.015634536743171
 30
3.7543594837188721
 70
   192
  0
VERTEX
  5
358
  8
0
 62
     7
 10
29.792434692382809
 20
23.015634536743171
 30
3.7543594837188721
 70
   192
  0
VERTEX
  5
359
  8
0
 62
     7
 10
31.9425163269043
 20
5.9267349243164062
 30
2.9045951366424561
 70
   192
  0
VERTEX
  5
35A
  8
0
 62
     7
 10
31.9425163269043
 20
5.91796827316284
 30
3.1544413566589351
 70
   192
  0
VERTEX
  5
35B
  8
0
 62
     7
 10
30.392351150512692
 20
5.9267349243164062
 30
2.9045951366424561
 70
   192
  0
VERTEX
  5
35C
  8
0
 62
     7
 10
30.392351150512692
 20
5.91796827316284
 30
3.1544413566589351
 70
   192
  0
VERTEX
  5
35D
  8
0
 62
     7
 10
32.641304016113281
 20
23.02440071105957
 30
3.3793594837188721
 70
   192
  0
VERTEX
  5
35E
  8
0
 62
     7
 10
32.641304016113281
 20
23.02440071105957
 30
0.6293595433235169
 70
   192
  0
VERTEX
  5
35F
  8
0
 62
     7
 10
32.89115142822267
 20
23.015634536743171
 30
0.6293595433235169
 70
   192
  0
VERTEX
  5
360
  8
0
 62
     7
 10
32.89115142822267
 20
23.015634536743171
 30
3.3793594837188721
 70
   192
  0
VERTEX
  5
361
  8
0
 62
     7
 10
32.041385650634773
 20
5.9267349243164062
 30
1.229277610778807
 70
   192
  0
VERTEX
  5
362
  8
0
 62
     7
 10
32.291233062744141
 20
5.91796827316284
 30
1.229277610778807
 70
   192
  0
VERTEX
  5
363
  8
0
 62
     7
 10
32.041385650634773
 20
5.9267349243164062
 30
2.7794413566589351
 70
   192
  0
VERTEX
  5
364
  8
0
 62
     7
 10
32.291233062744141
 20
5.91796827316284
 30
2.7794413566589351
 70
   192
  0
VERTEX
  5
365
  8
0
 62
     7
 10
32.51615142822267
 20
23.02440071105957
 30
0.530489206314087
 70
   192
  0
VERTEX
  5
366
  8
0
 62
     7
 10
29.76614952087402
 20
23.02440071105957
 30
0.530489206314087
 70
   192
  0
VERTEX
  5
367
  8
0
 62
     7
 10
29.76614952087402
 20
23.015634536743171
 30
0.2806429862976074
 70
   192
  0
VERTEX
  5
368
  8
0
 62
     7
 10
32.51615142822267
 20
23.015634536743171
 30
0.2806429862976074
 70
   192
  0
VERTEX
  5
369
  8
0
 62
     7
 10
30.366067886352539
 20
5.9267349243164062
 30
1.1304073333740221
 70
   192
  0
VERTEX
  5
36A
  8
0
 62
     7
 10
30.366067886352539
 20
5.91796827316284
 30
0.880561053752899
 70
   192
  0
VERTEX
  5
36B
  8
0
 62
     7
 10
31.916233062744141
 20
5.9267349243164062
 30
1.1304073333740221
 70
   192
  0
VERTEX
  5
36C
  8
0
 62
     7
 10
31.916233062744141
 20
5.91796827316284
 30
0.880561053752899
 70
   192
  0
VERTEX
  5
36D
  8
0
 62
     7
 10
30.154293060302741
 20
2.0151729583740221
 30
3.017501354217528
 70
   192
  0
VERTEX
  5
36E
  8
0
 62
     7
 10
30.068815231323239
 20
4.4512481689453107
 30
3.102977514266966
 70
   192
  0
VERTEX
  5
36F
  8
0
 62
     7
 10
30.068815231323239
 20
4.4512481689453107
 30
0.9320249557495115
 70
   192
  0
VERTEX
  5
370
  8
0
 62
     7
 10
30.154293060302741
 20
2.0151729583740221
 30
1.0175012350082391
 70
   192
  0
VERTEX
  5
371
  8
0
 62
     7
 10
29.74920654296875
 20
24.258625030517582
 30
0.6124147772789002
 70
   192
  0
VERTEX
  5
372
  8
0
 62
     7
 10
29.74920654296875
 20
24.258625030517582
 30
3.4225878715515128
 70
   192
  0
VERTEX
  5
373
  8
0
 62
     7
 10
29.563600540161129
 20
24.482353210449219
 30
3.608192920684814
 70
   192
  0
VERTEX
  5
374
  8
0
 62
     7
 10
29.563600540161129
 20
24.482353210449219
 30
0.4268094599246979
 70
   192
  0
VERTEX
  5
375
  8
0
 62
     7
 10
31.863605499267582
 20
4.6749768257141113
 30
1.3081884384155269
 70
   192
  0
VERTEX
  5
376
  8
0
 62
     7
 10
31.863605499267582
 20
4.6749768257141113
 30
2.7268140316009508
 70
   192
  0
VERTEX
  5
377
  8
0
 62
     7
 10
32.049209594726548
 20
4.4512481689453107
 30
2.912419319152832
 70
   192
  0
VERTEX
  5
378
  8
0
 62
     7
 10
32.049209594726548
 20
4.4512481689453107
 30
1.122583150863647
 70
   192
  0
VERTEX
  5
379
  8
0
 62
     7
 10
29.74920654296875
 20
24.196125030517582
 30
3.4225878715515128
 70
   192
  0
VERTEX
  5
37A
  8
0
 62
     7
 10
29.74920654296875
 20
24.196125030517582
 30
0.6124147772789002
 70
   192
  0
VERTEX
  5
37B
  8
0
 62
     7
 10
31.863605499267582
 20
4.7374768257141113
 30
2.7268140316009508
 70
   192
  0
VERTEX
  5
37C
  8
0
 62
     7
 10
31.863605499267582
 20
4.7374768257141113
 30
1.3081884384155269
 70
   192
  0
VERTEX
  5
37D
  8
0
 62
     7
 10
29.82477951049805
 20
24.076406478881839
 30
3.3470146656036359
 70
   192
  0
VERTEX
  5
37E
  8
0
 62
     7
 10
29.82477951049805
 20
24.076406478881839
 30
0.6879878640174866
 70
   192
  0
VERTEX
  5
37F
  8
0
 62
     7
 10
29.84222412109375
 20
24.007394790649428
 30
3.3295695781707759
 70
   192
  0
VERTEX
  5
380
  8
0
 62
     7
 10
29.844877243041989
 20
23.936264038085941
 30
0.7080856561660767
 70
   192
  0
VERTEX
  5
381
  8
0
 62
     7
 10
29.844877243041989
 20
23.936264038085941
 30
3.3269169330596911
 70
   192
  0
VERTEX
  5
382
  8
0
 62
     7
 10
29.84222412109375
 20
24.007394790649428
 30
0.7054328918457034
 70
   192
  0
VERTEX
  5
383
  8
0
 62
     7
 10
31.788032531738281
 20
4.8571958541870108
 30
2.6512408256530762
 70
   192
  0
VERTEX
  5
384
  8
0
 62
     7
 10
31.788032531738281
 20
4.8571958541870108
 30
1.3837615251541131
 70
   192
  0
VERTEX
  5
385
  8
0
 62
     7
 10
31.770586013793949
 20
4.9262065887451172
 30
2.6337959766387931
 70
   192
  0
VERTEX
  5
386
  8
0
 62
     7
 10
31.767934799194339
 20
4.9973382949829102
 30
1.4038593769073471
 70
   192
  0
VERTEX
  5
387
  8
0
 62
     7
 10
31.767934799194339
 20
4.9973382949829102
 30
2.6311430931091291
 70
   192
  0
VERTEX
  5
388
  8
0
 62
     7
 10
31.770586013793949
 20
4.9262065887451172
 30
1.4012066125869751
 70
   192
  0
VERTEX
  5
389
  8
0
 62
     7
 10
29.84222412109375
 20
23.865131378173832
 30
3.3295695781707759
 70
   192
  0
VERTEX
  5
38A
  8
0
 62
     7
 10
29.84222412109375
 20
23.865131378173832
 30
0.7054328918457034
 70
   192
  0
VERTEX
  5
38B
  8
0
 62
     7
 10
29.82477951049805
 20
23.796121597290039
 30
3.3470146656036359
 70
   192
  0
VERTEX
  5
38C
  8
0
 62
     7
 10
29.74920654296875
 20
23.676401138305661
 30
0.6124147772789002
 70
   192
  0
VERTEX
  5
38D
  8
0
 62
     7
 10
29.74920654296875
 20
23.676401138305661
 30
3.4225878715515128
 70
   192
  0
VERTEX
  5
38E
  8
0
 62
     7
 10
29.82477951049805
 20
23.796121597290039
 30
0.6879878640174866
 70
   192
  0
VERTEX
  5
38F
  8
0
 62
     7
 10
31.770586013793949
 20
5.0684704780578613
 30
2.6337959766387931
 70
   192
  0
VERTEX
  5
390
  8
0
 62
     7
 10
31.770586013793949
 20
5.0684704780578613
 30
1.4012066125869751
 70
   192
  0
VERTEX
  5
391
  8
0
 62
     7
 10
31.788032531738281
 20
5.137481212615965
 30
2.6512408256530762
 70
   192
  0
VERTEX
  5
392
  8
0
 62
     7
 10
31.863605499267582
 20
5.2572002410888672
 30
1.3081884384155269
 70
   192
  0
VERTEX
  5
393
  8
0
 62
     7
 10
31.863605499267582
 20
5.2572002410888672
 30
2.7268140316009508
 70
   192
  0
VERTEX
  5
394
  8
0
 62
     7
 10
31.788032531738281
 20
5.137481212615965
 30
1.3837615251541131
 70
   192
  0
VERTEX
  5
395
  8
0
 62
     7
 10
29.74920654296875
 20
23.613901138305661
 30
3.4225878715515128
 70
   192
  0
VERTEX
  5
396
  8
0
 62
     7
 10
29.74920654296875
 20
23.613901138305661
 30
0.6124147772789002
 70
   192
  0
VERTEX
  5
397
  8
0
 62
     7
 10
31.863605499267582
 20
5.3197002410888672
 30
2.7268140316009508
 70
   192
  0
VERTEX
  5
398
  8
0
 62
     7
 10
31.863605499267582
 20
5.3197002410888672
 30
1.3081884384155269
 70
   192
  0
VERTEX
  5
399
  8
0
 62
     7
 10
29.563600540161129
 20
23.39017295837402
 30
0.4268094599246979
 70
   192
  0
VERTEX
  5
39A
  8
0
 62
     7
 10
29.563600540161129
 20
23.39017295837402
 30
3.608192920684814
 70
   192
  0
VERTEX
  5
39B
  8
0
 62
     7
 10
32.049209594726548
 20
5.543428897857666
 30
1.122583150863647
 70
   192
  0
VERTEX
  5
39C
  8
0
 62
     7
 10
32.049209594726548
 20
5.543428897857666
 30
2.912419319152832
 70
   192
  0
VERTEX
  5
39D
  8
0
 62
     7
 10
32.278091430664048
 20
5.543428897857666
 30
0.8937028050422669
 70
   192
  0
VERTEX
  5
39E
  8
0
 62
     7
 10
32.278091430664048
 20
5.543428897857666
 30
3.1412997245788561
 70
   192
  0
VERTEX
  5
39F
  8
0
 62
     7
 10
32.904293060302741
 20
23.39017295837402
 30
3.767501354217528
 70
   192
  0
VERTEX
  5
3A0
  8
0
 62
     7
 10
32.904293060302741
 20
23.39017295837402
 30
0.2675012648105621
 70
   192
  0
VERTEX
  5
3A1
  8
0
 62
     7
 10
32.559379577636719
 20
23.613901138305661
 30
0.6124147772789002
 70
   192
  0
VERTEX
  5
3A2
  8
0
 62
     7
 10
32.559379577636719
 20
23.613901138305661
 30
3.4225878715515128
 70
   192
  0
VERTEX
  5
3A3
  8
0
 62
     7
 10
32.74498367309571
 20
23.39017295837402
 30
3.608192920684814
 70
   192
  0
VERTEX
  5
3A4
  8
0
 62
     7
 10
32.74498367309571
 20
23.39017295837402
 30
0.4268094599246979
 70
   192
  0
VERTEX
  5
3A5
  8
0
 62
     7
 10
32.559379577636719
 20
23.676401138305661
 30
3.4225878715515128
 70
   192
  0
VERTEX
  5
3A6
  8
0
 62
     7
 10
32.559379577636719
 20
23.676401138305661
 30
0.6124147772789002
 70
   192
  0
VERTEX
  5
3A7
  8
0
 62
     7
 10
32.483806610107422
 20
23.796121597290039
 30
3.3470146656036359
 70
   192
  0
VERTEX
  5
3A8
  8
0
 62
     7
 10
32.483806610107422
 20
23.796121597290039
 30
0.6879878640174866
 70
   192
  0
VERTEX
  5
3A9
  8
0
 62
     7
 10
32.466361999511719
 20
23.865131378173832
 30
3.3295695781707759
 70
   192
  0
VERTEX
  5
3AA
  8
0
 62
     7
 10
32.463706970214851
 20
23.936264038085941
 30
0.7080856561660767
 70
   192
  0
VERTEX
  5
3AB
  8
0
 62
     7
 10
32.463706970214851
 20
23.936264038085941
 30
3.3269169330596911
 70
   192
  0
VERTEX
  5
3AC
  8
0
 62
     7
 10
32.466361999511719
 20
23.865131378173832
 30
0.7054328918457034
 70
   192
  0
VERTEX
  5
3AD
  8
0
 62
     7
 10
32.466361999511719
 20
24.007394790649428
 30
3.3295695781707759
 70
   192
  0
VERTEX
  5
3AE
  8
0
 62
     7
 10
32.466361999511719
 20
24.007394790649428
 30
0.7054328918457034
 70
   192
  0
VERTEX
  5
3AF
  8
0
 62
     7
 10
32.483806610107422
 20
24.076406478881839
 30
3.3470146656036359
 70
   192
  0
VERTEX
  5
3B0
  8
0
 62
     7
 10
32.559379577636719
 20
24.196125030517582
 30
0.6124147772789002
 70
   192
  0
VERTEX
  5
3B1
  8
0
 62
     7
 10
32.559379577636719
 20
24.196125030517582
 30
3.4225878715515128
 70
   192
  0
VERTEX
  5
3B2
  8
0
 62
     7
 10
32.483806610107422
 20
24.076406478881839
 30
0.6879878640174866
 70
   192
  0
VERTEX
  5
3B3
  8
0
 62
     7
 10
32.559379577636719
 20
24.258625030517582
 30
3.4225878715515128
 70
   192
  0
VERTEX
  5
3B4
  8
0
 62
     7
 10
32.559379577636719
 20
24.258625030517582
 30
0.6124147772789002
 70
   192
  0
VERTEX
  5
3B5
  8
0
 62
     7
 10
32.74498367309571
 20
24.482353210449219
 30
0.4268094599246979
 70
   192
  0
VERTEX
  5
3B6
  8
0
 62
     7
 10
32.74498367309571
 20
24.482353210449219
 30
3.608192920684814
 70
   192
  0
VERTEX
  5
3B7
  8
0
 62
     7
 10
30.030492782592791
 20
5.543428897857666
 30
3.1412997245788561
 70
   192
  0
VERTEX
  5
3B8
  8
0
 62
     7
 10
29.404293060302731
 20
23.39017295837402
 30
0.2675012648105621
 70
   192
  0
VERTEX
  5
3B9
  8
0
 62
     7
 10
30.030492782592791
 20
5.543428897857666
 30
0.8937028050422669
 70
   192
  0
VERTEX
  5
3BA
  8
0
 62
     7
 10
29.404293060302731
 20
23.39017295837402
 30
3.767501354217528
 70
   192
  0
VERTEX
  5
3BB
  8
0
 62
     7
 10
30.444978713989261
 20
5.3197002410888672
 30
1.3081884384155269
 70
   192
  0
VERTEX
  5
3BC
  8
0
 62
     7
 10
30.444978713989261
 20
5.3197002410888672
 30
2.7268140316009508
 70
   192
  0
VERTEX
  5
3BD
  8
0
 62
     7
 10
30.259374618530291
 20
5.543428897857666
 30
2.912419319152832
 70
   192
  0
VERTEX
  5
3BE
  8
0
 62
     7
 10
30.259374618530291
 20
5.543428897857666
 30
1.122583150863647
 70
   192
  0
VERTEX
  5
3BF
  8
0
 62
     7
 10
30.444978713989261
 20
5.2572002410888672
 30
2.7268140316009508
 70
   192
  0
VERTEX
  5
3C0
  8
0
 62
     7
 10
30.444978713989261
 20
5.2572002410888672
 30
1.3081884384155269
 70
   192
  0
VERTEX
  5
3C1
  8
0
 62
     7
 10
30.520551681518558
 20
5.137481212615965
 30
2.6512408256530762
 70
   192
  0
VERTEX
  5
3C2
  8
0
 62
     7
 10
30.520551681518558
 20
5.137481212615965
 30
1.3837615251541131
 70
   192
  0
VERTEX
  5
3C3
  8
0
 62
     7
 10
30.537998199462891
 20
5.0684704780578613
 30
2.6337959766387931
 70
   192
  0
VERTEX
  5
3C4
  8
0
 62
     7
 10
30.5406494140625
 20
4.9973382949829102
 30
1.4038593769073471
 70
   192
  0
VERTEX
  5
3C5
  8
0
 62
     7
 10
30.5406494140625
 20
4.9973382949829102
 30
2.6311430931091291
 70
   192
  0
VERTEX
  5
3C6
  8
0
 62
     7
 10
30.537998199462891
 20
5.0684704780578613
 30
1.4012066125869751
 70
   192
  0
VERTEX
  5
3C7
  8
0
 62
     7
 10
30.537998199462891
 20
4.9262065887451172
 30
2.6337959766387931
 70
   192
  0
VERTEX
  5
3C8
  8
0
 62
     7
 10
30.537998199462891
 20
4.9262065887451172
 30
1.4012066125869751
 70
   192
  0
VERTEX
  5
3C9
  8
0
 62
     7
 10
30.520551681518558
 20
4.8571958541870108
 30
2.6512408256530762
 70
   192
  0
VERTEX
  5
3CA
  8
0
 62
     7
 10
30.444978713989261
 20
4.7374768257141113
 30
1.3081884384155269
 70
   192
  0
VERTEX
  5
3CB
  8
0
 62
     7
 10
30.444978713989261
 20
4.7374768257141113
 30
2.7268140316009508
 70
   192
  0
VERTEX
  5
3CC
  8
0
 62
     7
 10
30.520551681518558
 20
4.8571958541870108
 30
1.3837615251541131
 70
   192
  0
VERTEX
  5
3CD
  8
0
 62
     7
 10
30.444978713989261
 20
4.6749768257141113
 30
2.7268140316009508
 70
   192
  0
VERTEX
  5
3CE
  8
0
 62
     7
 10
30.444978713989261
 20
4.6749768257141113
 30
1.3081884384155269
 70
   192
  0
VERTEX
  5
3CF
  8
0
 62
     7
 10
30.259374618530291
 20
4.4512481689453107
 30
1.122583150863647
 70
   192
  0
VERTEX
  5
3D0
  8
0
 62
     7
 10
30.259374618530291
 20
4.4512481689453107
 30
2.912419319152832
 70
   192
  0
VERTEX
  5
3D1
  8
0
 62
     7
 10
32.239768981933601
 20
4.4512481689453107
 30
3.102977514266966
 70
   192
  0
VERTEX
  5
3D2
  8
0
 62
     7
 10
32.154293060302727
 20
2.0151729583740221
 30
3.017501354217528
 70
   192
  0
VERTEX
  5
3D3
  8
0
 62
     7
 10
32.154293060302727
 20
2.0151729583740221
 30
1.0175012350082391
 70
   192
  0
VERTEX
  5
3D4
  8
0
 62
     7
 10
32.239768981933601
 20
4.4512481689453107
 30
0.9320249557495115
 70
   192
  0
VERTEX
  5
3D5
  8
0
 62
     7
 10
29.404293060302731
 20
31.01517295837402
 30
3.767501354217528
 70
   192
  0
VERTEX
  5
3D6
  8
0
 62
     7
 10
29.404293060302731
 20
31.01517295837402
 30
0.2675012648105621
 70
   192
  0
VERTEX
  5
3D7
  8
0
 62
     7
 10
29.404293060302731
 20
24.482353210449219
 30
0.2675012648105621
 70
   192
  0
VERTEX
  5
3D8
  8
0
 62
     7
 10
29.404293060302731
 20
24.482353210449219
 30
3.767501354217528
 70
   192
  0
VERTEX
  5
3D9
  8
0
 62
     7
 10
32.904293060302741
 20
24.482353210449219
 30
0.2675012648105621
 70
   192
  0
VERTEX
  5
3DA
  8
0
 62
     7
 10
32.904293060302741
 20
24.482353210449219
 30
3.767501354217528
 70
   192
  0
VERTEX
  5
3DB
  8
0
 62
     7
 10
32.904293060302741
 20
31.01517295837402
 30
0.2675012648105621
 70
   192
  0
VERTEX
  5
3DC
  8
0
 62
     7
 10
32.904293060302741
 20
31.01517295837402
 30
3.767501354217528
 70
   192
  0
VERTEX
  5
3DD
  8
0
 62
     7
 10
0.0
 20
0.0
 30
0.0
 70
   128
 71
     1
 72
     2
 73
     3
  0
VERTEX
  5
3DE
  8
0
 62
     7
 10
0.0
 20
0.0
 30
0.0
 70
   128
 71
     4
 72
     1
 73
     3
  0
VERTEX
  5
3DF
  8
0
 62
     7
 10
0.0
 20
0.0
 30
0.0
 70
   128
 71
     2
 72
     5
 73
     6
  0
VERTEX
  5
3E0
  8
0
 62
     7
 10
0.0
 20
0.0
 30
0.0
 70
   128
 71
     3
 72
     2
 73
     6
  0
VERTEX
  5
3E1
  8
0
 62
     7
 10
0.0
 20
0.0
 30
0.0
 70
   128
 71
     5
 72
     7
 73
     8
  0
VERTEX
  5
3E2
  8
0
 62
     7
 10
0.0
 20
0.0
 30
0.0
 70
   128
 71
     6
 72
     5
 73
     8
  0
VERTEX
  5
3E3
  8
0
 62
     7
 10
0.0
 20
0.0
 30
0.0
 70
   128
 71
     7
 72
     1
 73
     4
  0
VERTEX
  5
3E4
  8
0
 62
     7
 10
0.0
 20
0.0
 30
0.0
 70
   128
 71
     8
 72
     7
 73
     4
  0
VERTEX
  5
3E5
  8
0
 62
     7
 10
0.0
 20
0.0
 30
0.0
 70
   128
 71
     6
 72
     8
 73
     4
  0
VERTEX
  5
3E6
  8
0
 62
     7
 10
0.0
 20
0.0
 30
0.0
 70
   128
 71
     3
 72
     6
 73
     4
  0
VERTEX
  5
3E7
  8
0
 62
     7
 10
0.0
 20
0.0
 30
0.0
 70
   128
 71
     9
 72
    10
 73
    11
  0
VERTEX
  5
3E8
  8
0
 62
     7
 10
0.0
 20
0.0
 30
0.0
 70
   128
 71
    12
 72
     9
 73
    11
  0
VERTEX
  5
3E9
  8
0
 62
     7
 10
0.0
 20
0.0
 30
0.0
 70
   128
 71
    10
 72
    13
 73
    14
  0
VERTEX
  5
3EA
  8
0
 62
     7
 10
0.0
 20
0.0
 30
0.0
 70
   128
 71
    11
 72
    10
 73
    14
  0
VERTEX
  5
3EB
  8
0
 62
     7
 10
0.0
 20
0.0
 30
0.0
 70
   128
 71
    13
 72
    15
 73
    16
  0
VERTEX
  5
3EC
  8
0
 62
     7
 10
0.0
 20
0.0
 30
0.0
 70
   128
 71
    14
 72
    13
 73
    16
  0
VERTEX
  5
3ED
  8
0
 62
     7
 10
0.0
 20
0.0
 30
0.0
 70
   128
 71
    15
 72
     9
 73
    12
  0
VERTEX
  5
3EE
  8
0
 62
     7
 10
0.0
 20
0.0
 30
0.0
 70
   128
 71
    16
 72
    15
 73
    12
  0
VERTEX
  5
3EF
  8
0
 62
     7
 10
0.0
 20
0.0
 30
0.0
 70
   128
 71
    14
 72
    16
 73
    12
  0
VERTEX
  5
3F0
  8
0
 62
     7
 10
0.0
 20
0.0
 30
0.0
 70
   128
 71
    11
 72
    14
 73
    12
  0
VERTEX
  5
3F1
  8
0
 62
     7
 10
0.0
 20
0.0
 30
0.0
 70
   128
 71
    17
 72
    18
 73
    19
  0
VERTEX
  5
3F2
  8
0
 62
     7
 10
0.0
 20
0.0
 30
0.0
 70
   128
 71
    20
 72
    17
 73
    19
  0
VERTEX
  5
3F3
  8
0
 62
     7
 10
0.0
 20
0.0
 30
0.0
 70
   128
 71
    18
 72
    21
 73
    22
  0
VERTEX
  5
3F4
  8
0
 62
     7
 10
0.0
 20
0.0
 30
0.0
 70
   128
 71
    19
 72
    18
 73
    22
  0
VERTEX
  5
3F5
  8
0
 62
     7
 10
0.0
 20
0.0
 30
0.0
 70
   128
 71
    21
 72
    23
 73
    24
  0
VERTEX
  5
3F6
  8
0
 62
     7
 10
0.0
 20
0.0
 30
0.0
 70
   128
 71
    22
 72
    21
 73
    24
  0
VERTEX
  5
3F7
  8
0
 62
     7
 10
0.0
 20
0.0
 30
0.0
 70
   128
 71
    24
 72
    23
 73
    17
  0
VERTEX
  5
3F8
  8
0
 62
     7
 10
0.0
 20
0.0
 30
0.0
 70
   128
 71
    20
 72
    24
 73
    17
  0
VERTEX
  5
3F9
  8
0
 62
     7
 10
0.0
 20
0.0
 30
0.0
 70
   128
 71
    21
 72
    18
 73
    17
  0
VERTEX
  5
3FA
  8
0
 62
     7
 10
0.0
 20
0.0
 30
0.0
 70
   128
 71
    23
 72
    21
 73
    17
  0
VERTEX
  5
3FB
  8
0
 62
     7
 10
0.0
 20
0.0
 30
0.0
 70
   128
 71
    25
 72
    26
 73
    27
  0
VERTEX
  5
3FC
  8
0
 62
     7
 10
0.0
 20
0.0
 30
0.0
 70
   128
 71
    28
 72
    25
 73
    27
  0
VERTEX
  5
3FD
  8
0
 62
     7
 10
0.0
 20
0.0
 30
0.0
 70
   128
 71
    26
 72
    29
 73
    30
  0
VERTEX
  5
3FE
  8
0
 62
     7
 10
0.0
 20
0.0
 30
0.0
 70
   128
 71
    27
 72
    26
 73
    30
  0
VERTEX
  5
3FF
  8
0
 62
     7
 10
0.0
 20
0.0
 30
0.0
 70
   128
 71
    29
 72
    31
 73
    32
  0
VERTEX
  5
400
  8
0
 62
     7
 10
0.0
 20
0.0
 30
0.0
 70
   128
 71
    30
 72
    29
 73
    32
  0
VERTEX
  5
401
  8
0
 62
     7
 10
0.0
 20
0.0
 30
0.0
 70
   128
 71
    32
 72
    31
 73
    25
  0
VERTEX
  5
402
  8
0
 62
     7
 10
0.0
 20
0.0
 30
0.0
 70
   128
 71
    28
 72
    32
 73
    25
  0
VERTEX
  5
403
  8
0
 62
     7
 10
0.0
 20
0.0
 30
0.0
 70
   128
 71
    29
 72
    26
 73
    25
  0
VERTEX
  5
404
  8
0
 62
     7
 10
0.0
 20
0.0
 30
0.0
 70
   128
 71
    31
 72
    29
 73
    25
  0
VERTEX
  5
405
  8
0
 62
     7
 10
0.0
 20
0.0
 30
0.0
 70
   128
 71
    33
 72
    34
 73
    35
  0
VERTEX
  5
406
  8
0
 62
     7
 10
0.0
 20
0.0
 30
0.0
 70
   128
 71
    36
 72
    33
 73
    35
  0
VERTEX
  5
407
  8
0
 62
     7
 10
0.0
 20
0.0
 30
0.0
 70
   128
 71
    34
 72
    37
 73
    38
  0
VERTEX
  5
408
  8
0
 62
     7
 10
0.0
 20
0.0
 30
0.0
 70
   128
 71
    35
 72
    34
 73
    38
  0
VERTEX
  5
409
  8
0
 62
     7
 10
0.0
 20
0.0
 30
0.0
 70
   128
 71
    37
 72
    39
 73
    40
  0
VERTEX
  5
40A
  8
0
 62
     7
 10
0.0
 20
0.0
 30
0.0
 70
   128
 71
    38
 72
    37
 73
    40
  0
VERTEX
  5
40B
  8
0
 62
     7
 10
0.0
 20
0.0
 30
0.0
 70
   128
 71
    40
 72
    39
 73
    33
  0
VERTEX
  5
40C
  8
0
 62
     7
 10
0.0
 20
0.0
 30
0.0
 70
   128
 71
    36
 72
    40
 73
    33
  0
VERTEX
  5
40D
  8
0
 62
     7
 10
0.0
 20
0.0
 30
0.0
 70
   128
 71
    37
 72
    34
 73
    33
  0
VERTEX
  5
40E
  8
0
 62
     7
 10
0.0
 20
0.0
 30
0.0
 70
   128
 71
    39
 72
    37
 73
    33
  0
VERTEX
  5
40F
  8
0
 62
     7
 10
0.0
 20
0.0
 30
0.0
 70
   128
 71
    41
 72
    42
 73
    43
  0
VERTEX
  5
410
  8
0
 62
     7
 10
0.0
 20
0.0
 30
0.0
 70
   128
 71
    44
 72
    41
 73
    43
  0
VERTEX
  5
411
  8
0
 62
     7
 10
0.0
 20
0.0
 30
0.0
 70
   128
 71
    42
 72
    45
 73
    46
  0
VERTEX
  5
412
  8
0
 62
     7
 10
0.0
 20
0.0
 30
0.0
 70
   128
 71
    43
 72
    42
 73
    46
  0
VERTEX
  5
413
  8
0
 62
     7
 10
0.0
 20
0.0
 30
0.0
 70
   128
 71
    45
 72
    47
 73
    48
  0
VERTEX
  5
414
  8
0
 62
     7
 10
0.0
 20
0.0
 30
0.0
 70
   128
 71
    46
 72
    45
 73
    48
  0
VERTEX
  5
415
  8
0
 62
     7
 10
0.0
 20
0.0
 30
0.0
 70
   128
 71
    48
 72
    47
 73
    41
  0
VERTEX
  5
416
  8
0
 62
     7
 10
0.0
 20
0.0
 30
0.0
 70
   128
 71
    44
 72
    48
 73
    41
  0
VERTEX
  5
417
  8
0
 62
     7
 10
0.0
 20
0.0
 30
0.0
 70
   128
 71
    45
 72
    42
 73
    41
  0
VERTEX
  5
418
  8
0
 62
     7
 10
0.0
 20
0.0
 30
0.0
 70
   128
 71
    47
 72
    45
 73
    41
  0
VERTEX
  5
419
  8
0
 62
     7
 10
0.0
 20
0.0
 30
0.0
 70
   128
 71
    49
 72
    50
 73
    51
  0
VERTEX
  5
41A
  8
0
 62
     7
 10
0.0
 20
0.0
 30
0.0
 70
   128
 71
    52
 72
    49
 73
    51
  0
VERTEX
  5
41B
  8
0
 62
     7
 10
0.0
 20
0.0
 30
0.0
 70
   128
 71
    53
 72
    54
 73
    55
  0
VERTEX
  5
41C
  8
0
 62
     7
 10
0.0
 20
0.0
 30
0.0
 70
   128
 71
    56
 72
    53
 73
    55
  0
VERTEX
  5
41D
  8
0
 62
     7
 10
0.0
 20
0.0
 30
0.0
 70
   128
 71
    57
 72
    58
 73
    59
  0
VERTEX
  5
41E
  8
0
 62
     7
 10
0.0
 20
0.0
 30
0.0
 70
   128
 71
    60
 72
    57
 73
    59
  0
VERTEX
  5
41F
  8
0
 62
     7
 10
0.0
 20
0.0
 30
0.0
 70
   128
 71
    61
 72
    54
 73
    53
  0
VERTEX
  5
420
  8
0
 62
     7
 10
0.0
 20
0.0
 30
0.0
 70
   128
 71
    62
 72
    61
 73
    53
  0
VERTEX
  5
421
  8
0
 62
     7
 10
0.0
 20
0.0
 30
0.0
 70
   128
 71
    63
 72
    58
 73
    57
  0
VERTEX
  5
422
  8
0
 62
     7
 10
0.0
 20
0.0
 30
0.0
 70
   128
 71
    64
 72
    63
 73
    57
  0
VERTEX
  5
423
  8
0
 62
     7
 10
0.0
 20
0.0
 30
0.0
 70
   128
 71
    65
 72
    61
 73
    66
  0
VERTEX
  5
424
  8
0
 62
     7
 10
0.0
 20
0.0
 30
0.0
 70
   128
 71
    67
 72
    65
 73
    66
  0
VERTEX
  5
425
  8
0
 62
     7
 10
0.0
 20
0.0
 30
0.0
 70
   128
 71
    68
 72
    69
 73
    67
  0
VERTEX
  5
426
  8
0
 62
     7
 10
0.0
 20
0.0
 30
0.0
 70
   128
 71
    70
 72
    68
 73
    67
  0
VERTEX
  5
427
  8
0
 62
     7
 10
0.0
 20
0.0
 30
0.0
 70
   128
 71
    70
 72
    67
 73
    66
  0
VERTEX
  5
428
  8
0
 62
     7
 10
0.0
 20
0.0
 30
0.0
 70
   128
 71
    62
 72
    66
 73
    61
  0
VERTEX
  5
429
  8
0
 62
     7
 10
0.0
 20
0.0
 30
0.0
 70
   128
 71
    71
 72
    63
 73
    72
  0
VERTEX
  5
42A
  8
0
 62
     7
 10
0.0
 20
0.0
 30
0.0
 70
   128
 71
    73
 72
    71
 73
    72
  0
VERTEX
  5
42B
  8
0
 62
     7
 10
0.0
 20
0.0
 30
0.0
 70
   128
 71
    74
 72
    75
 73
    73
  0
VERTEX
  5
42C
  8
0
 62
     7
 10
0.0
 20
0.0
 30
0.0
 70
   128
 71
    76
 72
    74
 73
    73
  0
VERTEX
  5
42D
  8
0
 62
     7
 10
0.0
 20
0.0
 30
0.0
 70
   128
 71
    76
 72
    73
 73
    72
  0
VERTEX
  5
42E
  8
0
 62
     7
 10
0.0
 20
0.0
 30
0.0
 70
   128
 71
    64
 72
    72
 73
    63
  0
VERTEX
  5
42F
  8
0
 62
     7
 10
0.0
 20
0.0
 30
0.0
 70
   128
 71
    77
 72
    69
 73
    78
  0
VERTEX
  5
430
  8
0
 62
     7
 10
0.0
 20
0.0
 30
0.0
 70
   128
 71
    79
 72
    77
 73
    78
  0
VERTEX
  5
431
  8
0
 62
     7
 10
0.0
 20
0.0
 30
0.0
 70
   128
 71
    80
 72
    81
 73
    79
  0
VERTEX
  5
432
  8
0
 62
     7
 10
0.0
 20
0.0
 30
0.0
 70
   128
 71
    82
 72
    80
 73
    79
  0
VERTEX
  5
433
  8
0
 62
     7
 10
0.0
 20
0.0
 30
0.0
 70
   128
 71
    82
 72
    79
 73
    78
  0
VERTEX
  5
434
  8
0
 62
     7
 10
0.0
 20
0.0
 30
0.0
 70
   128
 71
    68
 72
    78
 73
    69
  0
VERTEX
  5
435
  8
0
 62
     7
 10
0.0
 20
0.0
 30
0.0
 70
   128
 71
    83
 72
    75
 73
    84
  0
VERTEX
  5
436
  8
0
 62
     7
 10
0.0
 20
0.0
 30
0.0
 70
   128
 71
    85
 72
    83
 73
    84
  0
VERTEX
  5
437
  8
0
 62
     7
 10
0.0
 20
0.0
 30
0.0
 70
   128
 71
    86
 72
    87
 73
    85
  0
VERTEX
  5
438
  8
0
 62
     7
 10
0.0
 20
0.0
 30
0.0
 70
   128
 71
    88
 72
    86
 73
    85
  0
VERTEX
  5
439
  8
0
 62
     7
 10
0.0
 20
0.0
 30
0.0
 70
   128
 71
    88
 72
    85
 73
    84
  0
VERTEX
  5
43A
  8
0
 62
     7
 10
0.0
 20
0.0
 30
0.0
 70
   128
 71
    74
 72
    84
 73
    75
  0
VERTEX
  5
43B
  8
0
 62
     7
 10
0.0
 20
0.0
 30
0.0
 70
   128
 71
    89
 72
    81
 73
    80
  0
VERTEX
  5
43C
  8
0
 62
     7
 10
0.0
 20
0.0
 30
0.0
 70
   128
 71
    90
 72
    89
 73
    80
  0
VERTEX
  5
43D
  8
0
 62
     7
 10
0.0
 20
0.0
 30
0.0
 70
   128
 71
    91
 72
    87
 73
    86
  0
VERTEX
  5
43E
  8
0
 62
     7
 10
0.0
 20
0.0
 30
0.0
 70
   128
 71
    92
 72
    91
 73
    86
  0
VERTEX
  5
43F
  8
0
 62
     7
 10
0.0
 20
0.0
 30
0.0
 70
   128
 71
    93
 72
    94
 73
    89
  0
VERTEX
  5
440
  8
0
 62
     7
 10
0.0
 20
0.0
 30
0.0
 70
   128
 71
    90
 72
    93
 73
    89
  0
VERTEX
  5
441
  8
0
 62
     7
 10
0.0
 20
0.0
 30
0.0
 70
   128
 71
    95
 72
    96
 73
    91
  0
VERTEX
  5
442
  8
0
 62
     7
 10
0.0
 20
0.0
 30
0.0
 70
   128
 71
    92
 72
    95
 73
    91
  0
VERTEX
  5
443
  8
0
 62
     7
 10
0.0
 20
0.0
 30
0.0
 70
   128
 71
    97
 72
    38
 73
    40
  0
VERTEX
  5
444
  8
0
 62
     7
 10
0.0
 20
0.0
 30
0.0
 70
   128
 71
    98
 72
    97
 73
    40
  0
VERTEX
  5
445
  8
0
 62
     7
 10
0.0
 20
0.0
 30
0.0
 70
   128
 71
    99
 72
    98
 73
    36
  0
VERTEX
  5
446
  8
0
 62
     7
 10
0.0
 20
0.0
 30
0.0
 70
   128
 71
   100
 72
    99
 73
    36
  0
VERTEX
  5
447
  8
0
 62
     7
 10
0.0
 20
0.0
 30
0.0
 70
   128
 71
    36
 72
    98
 73
    40
  0
VERTEX
  5
448
  8
0
 62
     7
 10
0.0
 20
0.0
 30
0.0
 70
   128
 71
    35
 72
    38
 73
    97
  0
VERTEX
  5
449
  8
0
 62
     7
 10
0.0
 20
0.0
 30
0.0
 70
   128
 71
   100
 72
    35
 73
    97
  0
VERTEX
  5
44A
  8
0
 62
     7
 10
0.0
 20
0.0
 30
0.0
 70
   128
 71
    35
 72
   100
 73
    36
  0
VERTEX
  5
44B
  8
0
 62
     7
 10
0.0
 20
0.0
 30
0.0
 70
   128
 71
   101
 72
   102
 73
   103
  0
VERTEX
  5
44C
  8
0
 62
     7
 10
0.0
 20
0.0
 30
0.0
 70
   128
 71
   104
 72
   101
 73
   103
  0
VERTEX
  5
44D
  8
0
 62
     7
 10
0.0
 20
0.0
 30
0.0
 70
   128
 71
   105
 72
   102
 73
   101
  0
VERTEX
  5
44E
  8
0
 62
     7
 10
0.0
 20
0.0
 30
0.0
 70
   128
 71
   106
 72
   105
 73
   101
  0
VERTEX
  5
44F
  8
0
 62
     7
 10
0.0
 20
0.0
 30
0.0
 70
   128
 71
   107
 72
   105
 73
   108
  0
VERTEX
  5
450
  8
0
 62
     7
 10
0.0
 20
0.0
 30
0.0
 70
   128
 71
   109
 72
   107
 73
   108
  0
VERTEX
  5
451
  8
0
 62
     7
 10
0.0
 20
0.0
 30
0.0
 70
   128
 71
   110
 72
   111
 73
   109
  0
VERTEX
  5
452
  8
0
 62
     7
 10
0.0
 20
0.0
 30
0.0
 70
   128
 71
   112
 72
   110
 73
   109
  0
VERTEX
  5
453
  8
0
 62
     7
 10
0.0
 20
0.0
 30
0.0
 70
   128
 71
   112
 72
   109
 73
   108
  0
VERTEX
  5
454
  8
0
 62
     7
 10
0.0
 20
0.0
 30
0.0
 70
   128
 71
   106
 72
   108
 73
   105
  0
VERTEX
  5
455
  8
0
 62
     7
 10
0.0
 20
0.0
 30
0.0
 70
   128
 71
   113
 72
   111
 73
   114
  0
VERTEX
  5
456
  8
0
 62
     7
 10
0.0
 20
0.0
 30
0.0
 70
   128
 71
   115
 72
   113
 73
   114
  0
VERTEX
  5
457
  8
0
 62
     7
 10
0.0
 20
0.0
 30
0.0
 70
   128
 71
   116
 72
   117
 73
   115
  0
VERTEX
  5
458
  8
0
 62
     7
 10
0.0
 20
0.0
 30
0.0
 70
   128
 71
   118
 72
   116
 73
   115
  0
VERTEX
  5
459
  8
0
 62
     7
 10
0.0
 20
0.0
 30
0.0
 70
   128
 71
   118
 72
   115
 73
   114
  0
VERTEX
  5
45A
  8
0
 62
     7
 10
0.0
 20
0.0
 30
0.0
 70
   128
 71
   110
 72
   114
 73
   111
  0
VERTEX
  5
45B
  8
0
 62
     7
 10
0.0
 20
0.0
 30
0.0
 70
   128
 71
   119
 72
   117
 73
   116
  0
VERTEX
  5
45C
  8
0
 62
     7
 10
0.0
 20
0.0
 30
0.0
 70
   128
 71
   120
 72
   119
 73
   116
  0
VERTEX
  5
45D
  8
0
 62
     7
 10
0.0
 20
0.0
 30
0.0
 70
   128
 71
   121
 72
   122
 73
   119
  0
VERTEX
  5
45E
  8
0
 62
     7
 10
0.0
 20
0.0
 30
0.0
 70
   128
 71
   120
 72
   121
 73
   119
  0
VERTEX
  5
45F
  8
0
 62
     7
 10
0.0
 20
0.0
 30
0.0
 70
   128
 71
   123
 72
    22
 73
    24
  0
VERTEX
  5
460
  8
0
 62
     7
 10
0.0
 20
0.0
 30
0.0
 70
   128
 71
    20
 72
   124
 73
   125
  0
VERTEX
  5
461
  8
0
 62
     7
 10
0.0
 20
0.0
 30
0.0
 70
   128
 71
   125
 72
   123
 73
    24
  0
VERTEX
  5
462
  8
0
 62
     7
 10
0.0
 20
0.0
 30
0.0
 70
   128
 71
   126
 72
   124
 73
    20
  0
VERTEX
  5
463
  8
0
 62
     7
 10
0.0
 20
0.0
 30
0.0
 70
   128
 71
    20
 72
   125
 73
    24
  0
VERTEX
  5
464
  8
0
 62
     7
 10
0.0
 20
0.0
 30
0.0
 70
   128
 71
    19
 72
    22
 73
   123
  0
VERTEX
  5
465
  8
0
 62
     7
 10
0.0
 20
0.0
 30
0.0
 70
   128
 71
   126
 72
    19
 73
   123
  0
VERTEX
  5
466
  8
0
 62
     7
 10
0.0
 20
0.0
 30
0.0
 70
   128
 71
    19
 72
   126
 73
    20
  0
VERTEX
  5
467
  8
0
 62
     7
 10
0.0
 20
0.0
 30
0.0
 70
   128
 71
   127
 72
   128
 73
   129
  0
VERTEX
  5
468
  8
0
 62
     7
 10
0.0
 20
0.0
 30
0.0
 70
   128
 71
   130
 72
   127
 73
   129
  0
VERTEX
  5
469
  8
0
 62
     7
 10
0.0
 20
0.0
 30
0.0
 70
   128
 71
   131
 72
   128
 73
   127
  0
VERTEX
  5
46A
  8
0
 62
     7
 10
0.0
 20
0.0
 30
0.0
 70
   128
 71
   132
 72
   131
 73
   127
  0
VERTEX
  5
46B
  8
0
 62
     7
 10
0.0
 20
0.0
 30
0.0
 70
   128
 71
   133
 72
   131
 73
   134
  0
VERTEX
  5
46C
  8
0
 62
     7
 10
0.0
 20
0.0
 30
0.0
 70
   128
 71
   135
 72
   133
 73
   134
  0
VERTEX
  5
46D
  8
0
 62
     7
 10
0.0
 20
0.0
 30
0.0
 70
   128
 71
   136
 72
   137
 73
   135
  0
VERTEX
  5
46E
  8
0
 62
     7
 10
0.0
 20
0.0
 30
0.0
 70
   128
 71
   138
 72
   136
 73
   135
  0
VERTEX
  5
46F
  8
0
 62
     7
 10
0.0
 20
0.0
 30
0.0
 70
   128
 71
   138
 72
   135
 73
   134
  0
VERTEX
  5
470
  8
0
 62
     7
 10
0.0
 20
0.0
 30
0.0
 70
   128
 71
   132
 72
   134
 73
   131
  0
VERTEX
  5
471
  8
0
 62
     7
 10
0.0
 20
0.0
 30
0.0
 70
   128
 71
   139
 72
   137
 73
   140
  0
VERTEX
  5
472
  8
0
 62
     7
 10
0.0
 20
0.0
 30
0.0
 70
   128
 71
   141
 72
   139
 73
   140
  0
VERTEX
  5
473
  8
0
 62
     7
 10
0.0
 20
0.0
 30
0.0
 70
   128
 71
   142
 72
   143
 73
   141
  0
VERTEX
  5
474
  8
0
 62
     7
 10
0.0
 20
0.0
 30
0.0
 70
   128
 71
   144
 72
   142
 73
   141
  0
VERTEX
  5
475
  8
0
 62
     7
 10
0.0
 20
0.0
 30
0.0
 70
   128
 71
   144
 72
   141
 73
   140
  0
VERTEX
  5
476
  8
0
 62
     7
 10
0.0
 20
0.0
 30
0.0
 70
   128
 71
   136
 72
   140
 73
   137
  0
VERTEX
  5
477
  8
0
 62
     7
 10
0.0
 20
0.0
 30
0.0
 70
   128
 71
   145
 72
   143
 73
   142
  0
VERTEX
  5
478
  8
0
 62
     7
 10
0.0
 20
0.0
 30
0.0
 70
   128
 71
   146
 72
   145
 73
   142
  0
VERTEX
  5
479
  8
0
 62
     7
 10
0.0
 20
0.0
 30
0.0
 70
   128
 71
   147
 72
   148
 73
   145
  0
VERTEX
  5
47A
  8
0
 62
     7
 10
0.0
 20
0.0
 30
0.0
 70
   128
 71
   146
 72
   147
 73
   145
  0
VERTEX
  5
47B
  8
0
 62
     7
 10
0.0
 20
0.0
 30
0.0
 70
   128
 71
   149
 72
   150
 73
   151
  0
VERTEX
  5
47C
  8
0
 62
     7
 10
0.0
 20
0.0
 30
0.0
 70
   128
 71
   152
 72
   149
 73
   151
  0
VERTEX
  5
47D
  8
0
 62
     7
 10
0.0
 20
0.0
 30
0.0
 70
   128
 71
   150
 72
   149
 73
    50
  0
VERTEX
  5
47E
  8
0
 62
     7
 10
0.0
 20
0.0
 30
0.0
 70
   128
 71
    49
 72
   150
 73
    50
  0
VERTEX
  5
47F
  8
0
 62
     7
 10
0.0
 20
0.0
 30
0.0
 70
   128
 71
   146
 72
    57
 73
    60
  0
VERTEX
  5
480
  8
0
 62
     7
 10
0.0
 20
0.0
 30
0.0
 70
   128
 71
   147
 72
   146
 73
    60
  0
VERTEX
  5
481
  8
0
 62
     7
 10
0.0
 20
0.0
 30
0.0
 70
   128
 71
    64
 72
    57
 73
   146
  0
VERTEX
  5
482
  8
0
 62
     7
 10
0.0
 20
0.0
 30
0.0
 70
   128
 71
   142
 72
    64
 73
   146
  0
VERTEX
  5
483
  8
0
 62
     7
 10
0.0
 20
0.0
 30
0.0
 70
   128
 71
    72
 72
    64
 73
   144
  0
VERTEX
  5
484
  8
0
 62
     7
 10
0.0
 20
0.0
 30
0.0
 70
   128
 71
    76
 72
    72
 73
   144
  0
VERTEX
  5
485
  8
0
 62
     7
 10
0.0
 20
0.0
 30
0.0
 70
   128
 71
   136
 72
    74
 73
    76
  0
VERTEX
  5
486
  8
0
 62
     7
 10
0.0
 20
0.0
 30
0.0
 70
   128
 71
   140
 72
   136
 73
    76
  0
VERTEX
  5
487
  8
0
 62
     7
 10
0.0
 20
0.0
 30
0.0
 70
   128
 71
   140
 72
    76
 73
   144
  0
VERTEX
  5
488
  8
0
 62
     7
 10
0.0
 20
0.0
 30
0.0
 70
   128
 71
   142
 72
   144
 73
    64
  0
VERTEX
  5
489
  8
0
 62
     7
 10
0.0
 20
0.0
 30
0.0
 70
   128
 71
    84
 72
    74
 73
   138
  0
VERTEX
  5
48A
  8
0
 62
     7
 10
0.0
 20
0.0
 30
0.0
 70
   128
 71
    88
 72
    84
 73
   138
  0
VERTEX
  5
48B
  8
0
 62
     7
 10
0.0
 20
0.0
 30
0.0
 70
   128
 71
   132
 72
    86
 73
    88
  0
VERTEX
  5
48C
  8
0
 62
     7
 10
0.0
 20
0.0
 30
0.0
 70
   128
 71
   134
 72
   132
 73
    88
  0
VERTEX
  5
48D
  8
0
 62
     7
 10
0.0
 20
0.0
 30
0.0
 70
   128
 71
   134
 72
    88
 73
   138
  0
VERTEX
  5
48E
  8
0
 62
     7
 10
0.0
 20
0.0
 30
0.0
 70
   128
 71
   136
 72
   138
 73
    74
  0
VERTEX
  5
48F
  8
0
 62
     7
 10
0.0
 20
0.0
 30
0.0
 70
   128
 71
    92
 72
    86
 73
   132
  0
VERTEX
  5
490
  8
0
 62
     7
 10
0.0
 20
0.0
 30
0.0
 70
   128
 71
   127
 72
    92
 73
   132
  0
VERTEX
  5
491
  8
0
 62
     7
 10
0.0
 20
0.0
 30
0.0
 70
   128
 71
    54
 72
   119
 73
   122
  0
VERTEX
  5
492
  8
0
 62
     7
 10
0.0
 20
0.0
 30
0.0
 70
   128
 71
    55
 72
    54
 73
   122
  0
VERTEX
  5
493
  8
0
 62
     7
 10
0.0
 20
0.0
 30
0.0
 70
   128
 71
   130
 72
    95
 73
    92
  0
VERTEX
  5
494
  8
0
 62
     7
 10
0.0
 20
0.0
 30
0.0
 70
   128
 71
   127
 72
   130
 73
    92
  0
VERTEX
  5
495
  8
0
 62
     7
 10
0.0
 20
0.0
 30
0.0
 70
   128
 71
   117
 72
   119
 73
    54
  0
VERTEX
  5
496
  8
0
 62
     7
 10
0.0
 20
0.0
 30
0.0
 70
   128
 71
    61
 72
   117
 73
    54
  0
VERTEX
  5
497
  8
0
 62
     7
 10
0.0
 20
0.0
 30
0.0
 70
   128
 71
   153
 72
   154
 73
   155
  0
VERTEX
  5
498
  8
0
 62
     7
 10
0.0
 20
0.0
 30
0.0
 70
   128
 71
   156
 72
   153
 73
   155
  0
VERTEX
  5
499
  8
0
 62
     7
 10
0.0
 20
0.0
 30
0.0
 70
   128
 71
   115
 72
   117
 73
    65
  0
VERTEX
  5
49A
  8
0
 62
     7
 10
0.0
 20
0.0
 30
0.0
 70
   128
 71
   113
 72
   115
 73
    65
  0
VERTEX
  5
49B
  8
0
 62
     7
 10
0.0
 20
0.0
 30
0.0
 70
   128
 71
    69
 72
   111
 73
   113
  0
VERTEX
  5
49C
  8
0
 62
     7
 10
0.0
 20
0.0
 30
0.0
 70
   128
 71
    67
 72
    69
 73
   113
  0
VERTEX
  5
49D
  8
0
 62
     7
 10
0.0
 20
0.0
 30
0.0
 70
   128
 71
    67
 72
   113
 73
    65
  0
VERTEX
  5
49E
  8
0
 62
     7
 10
0.0
 20
0.0
 30
0.0
 70
   128
 71
    61
 72
    65
 73
   117
  0
VERTEX
  5
49F
  8
0
 62
     7
 10
0.0
 20
0.0
 30
0.0
 70
   128
 71
   109
 72
   111
 73
    77
  0
VERTEX
  5
4A0
  8
0
 62
     7
 10
0.0
 20
0.0
 30
0.0
 70
   128
 71
   107
 72
   109
 73
    77
  0
VERTEX
  5
4A1
  8
0
 62
     7
 10
0.0
 20
0.0
 30
0.0
 70
   128
 71
    81
 72
   105
 73
   107
  0
VERTEX
  5
4A2
  8
0
 62
     7
 10
0.0
 20
0.0
 30
0.0
 70
   128
 71
    79
 72
    81
 73
   107
  0
VERTEX
  5
4A3
  8
0
 62
     7
 10
0.0
 20
0.0
 30
0.0
 70
   128
 71
    79
 72
   107
 73
    77
  0
VERTEX
  5
4A4
  8
0
 62
     7
 10
0.0
 20
0.0
 30
0.0
 70
   128
 71
    69
 72
    77
 73
   111
  0
VERTEX
  5
4A5
  8
0
 62
     7
 10
0.0
 20
0.0
 30
0.0
 70
   128
 71
   125
 72
    46
 73
    48
  0
VERTEX
  5
4A6
  8
0
 62
     7
 10
0.0
 20
0.0
 30
0.0
 70
   128
 71
    97
 72
   125
 73
    48
  0
VERTEX
  5
4A7
  8
0
 62
     7
 10
0.0
 20
0.0
 30
0.0
 70
   128
 71
   100
 72
    97
 73
    44
  0
VERTEX
  5
4A8
  8
0
 62
     7
 10
0.0
 20
0.0
 30
0.0
 70
   128
 71
   124
 72
   100
 73
    44
  0
VERTEX
  5
4A9
  8
0
 62
     7
 10
0.0
 20
0.0
 30
0.0
 70
   128
 71
    44
 72
    97
 73
    48
  0
VERTEX
  5
4AA
  8
0
 62
     7
 10
0.0
 20
0.0
 30
0.0
 70
   128
 71
    43
 72
    46
 73
   125
  0
VERTEX
  5
4AB
  8
0
 62
     7
 10
0.0
 20
0.0
 30
0.0
 70
   128
 71
   124
 72
    43
 73
   125
  0
VERTEX
  5
4AC
  8
0
 62
     7
 10
0.0
 20
0.0
 30
0.0
 70
   128
 71
    43
 72
   124
 73
    44
  0
VERTEX
  5
4AD
  8
0
 62
     7
 10
0.0
 20
0.0
 30
0.0
 70
   128
 71
   104
 72
   124
 73
    93
  0
VERTEX
  5
4AE
  8
0
 62
     7
 10
0.0
 20
0.0
 30
0.0
 70
   128
 71
   100
 72
   124
 73
   104
  0
VERTEX
  5
4AF
  8
0
 62
     7
 10
0.0
 20
0.0
 30
0.0
 70
   128
 71
   100
 72
   103
 73
    99
  0
VERTEX
  5
4B0
  8
0
 62
     7
 10
0.0
 20
0.0
 30
0.0
 70
   128
 71
   103
 72
   100
 73
   104
  0
VERTEX
  5
4B1
  8
0
 62
     7
 10
0.0
 20
0.0
 30
0.0
 70
   128
 71
    94
 72
    99
 73
   103
  0
VERTEX
  5
4B2
  8
0
 62
     7
 10
0.0
 20
0.0
 30
0.0
 70
   128
 71
    94
 72
   126
 73
    99
  0
VERTEX
  5
4B3
  8
0
 62
     7
 10
0.0
 20
0.0
 30
0.0
 70
   128
 71
    94
 72
   124
 73
   126
  0
VERTEX
  5
4B4
  8
0
 62
     7
 10
0.0
 20
0.0
 30
0.0
 70
   128
 71
    94
 72
    93
 73
   124
  0
VERTEX
  5
4B5
  8
0
 62
     7
 10
0.0
 20
0.0
 30
0.0
 70
   128
 71
   102
 72
   105
 73
    81
  0
VERTEX
  5
4B6
  8
0
 62
     7
 10
0.0
 20
0.0
 30
0.0
 70
   128
 71
    89
 72
   102
 73
    81
  0
VERTEX
  5
4B7
  8
0
 62
     7
 10
0.0
 20
0.0
 30
0.0
 70
   128
 71
    94
 72
   103
 73
   102
  0
VERTEX
  5
4B8
  8
0
 62
     7
 10
0.0
 20
0.0
 30
0.0
 70
   128
 71
    89
 72
    94
 73
   102
  0
VERTEX
  5
4B9
  8
0
 62
     7
 10
0.0
 20
0.0
 30
0.0
 70
   128
 71
    90
 72
   101
 73
   104
  0
VERTEX
  5
4BA
  8
0
 62
     7
 10
0.0
 20
0.0
 30
0.0
 70
   128
 71
    93
 72
    90
 73
   104
  0
VERTEX
  5
4BB
  8
0
 62
     7
 10
0.0
 20
0.0
 30
0.0
 70
   128
 71
   106
 72
   101
 73
    90
  0
VERTEX
  5
4BC
  8
0
 62
     7
 10
0.0
 20
0.0
 30
0.0
 70
   128
 71
    80
 72
   106
 73
    90
  0
VERTEX
  5
4BD
  8
0
 62
     7
 10
0.0
 20
0.0
 30
0.0
 70
   128
 71
   108
 72
   106
 73
    82
  0
VERTEX
  5
4BE
  8
0
 62
     7
 10
0.0
 20
0.0
 30
0.0
 70
   128
 71
   112
 72
   108
 73
    82
  0
VERTEX
  5
4BF
  8
0
 62
     7
 10
0.0
 20
0.0
 30
0.0
 70
   128
 71
    68
 72
   110
 73
   112
  0
VERTEX
  5
4C0
  8
0
 62
     7
 10
0.0
 20
0.0
 30
0.0
 70
   128
 71
    78
 72
    68
 73
   112
  0
VERTEX
  5
4C1
  8
0
 62
     7
 10
0.0
 20
0.0
 30
0.0
 70
   128
 71
    78
 72
   112
 73
    82
  0
VERTEX
  5
4C2
  8
0
 62
     7
 10
0.0
 20
0.0
 30
0.0
 70
   128
 71
    80
 72
    82
 73
   106
  0
VERTEX
  5
4C3
  8
0
 62
     7
 10
0.0
 20
0.0
 30
0.0
 70
   128
 71
   114
 72
   110
 73
    70
  0
VERTEX
  5
4C4
  8
0
 62
     7
 10
0.0
 20
0.0
 30
0.0
 70
   128
 71
   118
 72
   114
 73
    70
  0
VERTEX
  5
4C5
  8
0
 62
     7
 10
0.0
 20
0.0
 30
0.0
 70
   128
 71
    62
 72
   116
 73
   118
  0
VERTEX
  5
4C6
  8
0
 62
     7
 10
0.0
 20
0.0
 30
0.0
 70
   128
 71
    66
 72
    62
 73
   118
  0
VERTEX
  5
4C7
  8
0
 62
     7
 10
0.0
 20
0.0
 30
0.0
 70
   128
 71
    66
 72
   118
 73
    70
  0
VERTEX
  5
4C8
  8
0
 62
     7
 10
0.0
 20
0.0
 30
0.0
 70
   128
 71
    68
 72
    70
 73
   110
  0
VERTEX
  5
4C9
  8
0
 62
     7
 10
0.0
 20
0.0
 30
0.0
 70
   128
 71
   120
 72
   116
 73
    62
  0
VERTEX
  5
4CA
  8
0
 62
     7
 10
0.0
 20
0.0
 30
0.0
 70
   128
 71
    53
 72
   120
 73
    62
  0
VERTEX
  5
4CB
  8
0
 62
     7
 10
0.0
 20
0.0
 30
0.0
 70
   128
 71
    56
 72
   121
 73
   120
  0
VERTEX
  5
4CC
  8
0
 62
     7
 10
0.0
 20
0.0
 30
0.0
 70
   128
 71
    53
 72
    56
 73
   120
  0
VERTEX
  5
4CD
  8
0
 62
     7
 10
0.0
 20
0.0
 30
0.0
 70
   128
 71
    56
 72
   155
 73
   157
  0
VERTEX
  5
4CE
  8
0
 62
     7
 10
0.0
 20
0.0
 30
0.0
 70
   128
 71
   121
 72
    56
 73
   157
  0
VERTEX
  5
4CF
  8
0
 62
     7
 10
0.0
 20
0.0
 30
0.0
 70
   128
 71
   122
 72
   121
 73
   157
  0
VERTEX
  5
4D0
  8
0
 62
     7
 10
0.0
 20
0.0
 30
0.0
 70
   128
 71
    55
 72
   122
 73
   156
  0
VERTEX
  5
4D1
  8
0
 62
     7
 10
0.0
 20
0.0
 30
0.0
 70
   128
 71
   158
 72
   156
 73
   122
  0
VERTEX
  5
4D2
  8
0
 62
     7
 10
0.0
 20
0.0
 30
0.0
 70
   128
 71
   158
 72
   122
 73
   157
  0
VERTEX
  5
4D3
  8
0
 62
     7
 10
0.0
 20
0.0
 30
0.0
 70
   128
 71
    55
 72
   155
 73
    56
  0
VERTEX
  5
4D4
  8
0
 62
     7
 10
0.0
 20
0.0
 30
0.0
 70
   128
 71
   155
 72
    55
 73
   156
  0
VERTEX
  5
4D5
  8
0
 62
     7
 10
0.0
 20
0.0
 30
0.0
 70
   128
 71
   159
 72
   157
 73
   155
  0
VERTEX
  5
4D6
  8
0
 62
     7
 10
0.0
 20
0.0
 30
0.0
 70
   128
 71
   154
 72
   159
 73
   155
  0
VERTEX
  5
4D7
  8
0
 62
     7
 10
0.0
 20
0.0
 30
0.0
 70
   128
 71
   160
 72
   159
 73
   154
  0
VERTEX
  5
4D8
  8
0
 62
     7
 10
0.0
 20
0.0
 30
0.0
 70
   128
 71
   153
 72
   160
 73
   154
  0
VERTEX
  5
4D9
  8
0
 62
     7
 10
0.0
 20
0.0
 30
0.0
 70
   128
 71
     5
 72
   153
 73
     7
  0
VERTEX
  5
4DA
  8
0
 62
     7
 10
0.0
 20
0.0
 30
0.0
 70
   128
 71
   160
 72
   153
 73
     5
  0
VERTEX
  5
4DB
  8
0
 62
     7
 10
0.0
 20
0.0
 30
0.0
 70
   128
 71
   158
 72
   160
 73
     2
  0
VERTEX
  5
4DC
  8
0
 62
     7
 10
0.0
 20
0.0
 30
0.0
 70
   128
 71
   156
 72
   158
 73
     2
  0
VERTEX
  5
4DD
  8
0
 62
     7
 10
0.0
 20
0.0
 30
0.0
 70
   128
 71
     2
 72
   160
 73
     5
  0
VERTEX
  5
4DE
  8
0
 62
     7
 10
0.0
 20
0.0
 30
0.0
 70
   128
 71
     1
 72
     7
 73
   153
  0
VERTEX
  5
4DF
  8
0
 62
     7
 10
0.0
 20
0.0
 30
0.0
 70
   128
 71
   156
 72
     1
 73
   153
  0
VERTEX
  5
4E0
  8
0
 62
     7
 10
0.0
 20
0.0
 30
0.0
 70
   128
 71
     1
 72
   156
 73
     2
  0
VERTEX
  5
4E1
  8
0
 62
     7
 10
0.0
 20
0.0
 30
0.0
 70
   128
 71
    98
 72
    30
 73
    32
  0
VERTEX
  5
4E2
  8
0
 62
     7
 10
0.0
 20
0.0
 30
0.0
 70
   128
 71
    28
 72
   126
 73
   123
  0
VERTEX
  5
4E3
  8
0
 62
     7
 10
0.0
 20
0.0
 30
0.0
 70
   128
 71
   123
 72
    98
 73
    32
  0
VERTEX
  5
4E4
  8
0
 62
     7
 10
0.0
 20
0.0
 30
0.0
 70
   128
 71
    99
 72
   126
 73
    28
  0
VERTEX
  5
4E5
  8
0
 62
     7
 10
0.0
 20
0.0
 30
0.0
 70
   128
 71
    28
 72
   123
 73
    32
  0
VERTEX
  5
4E6
  8
0
 62
     7
 10
0.0
 20
0.0
 30
0.0
 70
   128
 71
    27
 72
    30
 73
    98
  0
VERTEX
  5
4E7
  8
0
 62
     7
 10
0.0
 20
0.0
 30
0.0
 70
   128
 71
    99
 72
    27
 73
    98
  0
VERTEX
  5
4E8
  8
0
 62
     7
 10
0.0
 20
0.0
 30
0.0
 70
   128
 71
    27
 72
    99
 73
    28
  0
VERTEX
  5
4E9
  8
0
 62
     7
 10
0.0
 20
0.0
 30
0.0
 70
   128
 71
   128
 72
    91
 73
    96
  0
VERTEX
  5
4EA
  8
0
 62
     7
 10
0.0
 20
0.0
 30
0.0
 70
   128
 71
   129
 72
   128
 73
    96
  0
VERTEX
  5
4EB
  8
0
 62
     7
 10
0.0
 20
0.0
 30
0.0
 70
   128
 71
    87
 72
    91
 73
   128
  0
VERTEX
  5
4EC
  8
0
 62
     7
 10
0.0
 20
0.0
 30
0.0
 70
   128
 71
   131
 72
    87
 73
   128
  0
VERTEX
  5
4ED
  8
0
 62
     7
 10
0.0
 20
0.0
 30
0.0
 70
   128
 71
    85
 72
    87
 73
   133
  0
VERTEX
  5
4EE
  8
0
 62
     7
 10
0.0
 20
0.0
 30
0.0
 70
   128
 71
    83
 72
    85
 73
   133
  0
VERTEX
  5
4EF
  8
0
 62
     7
 10
0.0
 20
0.0
 30
0.0
 70
   128
 71
   137
 72
    75
 73
    83
  0
VERTEX
  5
4F0
  8
0
 62
     7
 10
0.0
 20
0.0
 30
0.0
 70
   128
 71
   135
 72
   137
 73
    83
  0
VERTEX
  5
4F1
  8
0
 62
     7
 10
0.0
 20
0.0
 30
0.0
 70
   128
 71
   135
 72
    83
 73
   133
  0
VERTEX
  5
4F2
  8
0
 62
     7
 10
0.0
 20
0.0
 30
0.0
 70
   128
 71
   131
 72
   133
 73
    87
  0
VERTEX
  5
4F3
  8
0
 62
     7
 10
0.0
 20
0.0
 30
0.0
 70
   128
 71
    73
 72
    75
 73
   139
  0
VERTEX
  5
4F4
  8
0
 62
     7
 10
0.0
 20
0.0
 30
0.0
 70
   128
 71
    71
 72
    73
 73
   139
  0
VERTEX
  5
4F5
  8
0
 62
     7
 10
0.0
 20
0.0
 30
0.0
 70
   128
 71
   143
 72
    63
 73
    71
  0
VERTEX
  5
4F6
  8
0
 62
     7
 10
0.0
 20
0.0
 30
0.0
 70
   128
 71
   141
 72
   143
 73
    71
  0
VERTEX
  5
4F7
  8
0
 62
     7
 10
0.0
 20
0.0
 30
0.0
 70
   128
 71
   141
 72
    71
 73
   139
  0
VERTEX
  5
4F8
  8
0
 62
     7
 10
0.0
 20
0.0
 30
0.0
 70
   128
 71
   137
 72
   139
 73
    75
  0
VERTEX
  5
4F9
  8
0
 62
     7
 10
0.0
 20
0.0
 30
0.0
 70
   128
 71
    58
 72
    63
 73
   143
  0
VERTEX
  5
4FA
  8
0
 62
     7
 10
0.0
 20
0.0
 30
0.0
 70
   128
 71
   145
 72
    58
 73
   143
  0
VERTEX
  5
4FB
  8
0
 62
     7
 10
0.0
 20
0.0
 30
0.0
 70
   128
 71
   148
 72
    59
 73
    58
  0
VERTEX
  5
4FC
  8
0
 62
     7
 10
0.0
 20
0.0
 30
0.0
 70
   128
 71
   145
 72
   148
 73
    58
  0
VERTEX
  5
4FD
  8
0
 62
     7
 10
0.0
 20
0.0
 30
0.0
 70
   128
 71
   151
 72
   150
 73
    49
  0
VERTEX
  5
4FE
  8
0
 62
     7
 10
0.0
 20
0.0
 30
0.0
 70
   128
 71
    52
 72
   151
 73
    49
  0
VERTEX
  5
4FF
  8
0
 62
     7
 10
0.0
 20
0.0
 30
0.0
 70
   128
 71
   152
 72
   151
 73
    52
  0
VERTEX
  5
500
  8
0
 62
     7
 10
0.0
 20
0.0
 30
0.0
 70
   128
 71
    51
 72
   152
 73
    52
  0
VERTEX
  5
501
  8
0
 62
     7
 10
0.0
 20
0.0
 30
0.0
 70
   128
 71
    60
 72
    51
 73
   147
  0
VERTEX
  5
502
  8
0
 62
     7
 10
0.0
 20
0.0
 30
0.0
 70
   128
 71
   152
 72
    51
 73
    60
  0
VERTEX
  5
503
  8
0
 62
     7
 10
0.0
 20
0.0
 30
0.0
 70
   128
 71
   152
 72
    59
 73
   149
  0
VERTEX
  5
504
  8
0
 62
     7
 10
0.0
 20
0.0
 30
0.0
 70
   128
 71
    59
 72
   152
 73
    60
  0
VERTEX
  5
505
  8
0
 62
     7
 10
0.0
 20
0.0
 30
0.0
 70
   128
 71
   148
 72
   149
 73
    59
  0
VERTEX
  5
506
  8
0
 62
     7
 10
0.0
 20
0.0
 30
0.0
 70
   128
 71
   148
 72
    50
 73
   149
  0
VERTEX
  5
507
  8
0
 62
     7
 10
0.0
 20
0.0
 30
0.0
 70
   128
 71
   148
 72
    51
 73
    50
  0
VERTEX
  5
508
  8
0
 62
     7
 10
0.0
 20
0.0
 30
0.0
 70
   128
 71
   148
 72
   147
 73
    51
  0
VERTEX
  5
509
  8
0
 62
     7
 10
0.0
 20
0.0
 30
0.0
 70
   128
 71
   130
 72
   125
 73
    97
  0
VERTEX
  5
50A
  8
0
 62
     7
 10
0.0
 20
0.0
 30
0.0
 70
   128
 71
    95
 72
   130
 73
    97
  0
VERTEX
  5
50B
  8
0
 62
     7
 10
0.0
 20
0.0
 30
0.0
 70
   128
 71
    96
 72
    95
 73
    97
  0
VERTEX
  5
50C
  8
0
 62
     7
 10
0.0
 20
0.0
 30
0.0
 70
   128
 71
   129
 72
    96
 73
   123
  0
VERTEX
  5
50D
  8
0
 62
     7
 10
0.0
 20
0.0
 30
0.0
 70
   128
 71
    98
 72
   123
 73
    96
  0
VERTEX
  5
50E
  8
0
 62
     7
 10
0.0
 20
0.0
 30
0.0
 70
   128
 71
    98
 72
    96
 73
    97
  0
VERTEX
  5
50F
  8
0
 62
     7
 10
0.0
 20
0.0
 30
0.0
 70
   128
 71
   129
 72
   125
 73
   130
  0
VERTEX
  5
510
  8
0
 62
     7
 10
0.0
 20
0.0
 30
0.0
 70
   128
 71
   125
 72
   129
 73
   123
  0
VERTEX
  5
511
  8
0
 62
     7
 10
0.0
 20
0.0
 30
0.0
 70
   128
 71
   160
 72
    15
 73
    13
  0
VERTEX
  5
512
  8
0
 62
     7
 10
0.0
 20
0.0
 30
0.0
 70
   128
 71
   159
 72
   160
 73
    13
  0
VERTEX
  5
513
  8
0
 62
     7
 10
0.0
 20
0.0
 30
0.0
 70
   128
 71
   157
 72
   159
 73
    10
  0
VERTEX
  5
514
  8
0
 62
     7
 10
0.0
 20
0.0
 30
0.0
 70
   128
 71
   158
 72
   157
 73
    10
  0
VERTEX
  5
515
  8
0
 62
     7
 10
0.0
 20
0.0
 30
0.0
 70
   128
 71
    10
 72
   159
 73
    13
  0
VERTEX
  5
516
  8
0
 62
     7
 10
0.0
 20
0.0
 30
0.0
 70
   128
 71
     9
 72
    15
 73
   160
  0
VERTEX
  5
517
  8
0
 62
     7
 10
0.0
 20
0.0
 30
0.0
 70
   128
 71
   158
 72
     9
 73
   160
  0
VERTEX
  5
518
  8
0
 62
     7
 10
0.0
 20
0.0
 30
0.0
 70
   128
 71
     9
 72
   158
 73
    10
  0
SEQEND
  5
519
  8
0
 62
     7
  0
INSERT
  5
534
  8
0
 66
     1
  2
RM_SDB
 10
0.0
 20
0.0
 30
0.0
1001
AVE_MATERIAL
1002
{
1000
*GLOBAL*01
1000
2
1000

1002
{
1002
}
1002
{
1070
    39
1002
{
1002
{
1010
1.428571462631224
1020
1.428571462631224
1030
1.428571462631224
1002
}
1040
0.699999988079071
1000

1040
0.0
1002
{
1002
}
1040
0.0
1002
{
1002
}
1040
0.0
1002
}
1002
{
1002
{
1010
1.0
1020
1.0
1030
1.0
1002
}
1040
1.0
1000

1040
0.0
1002
{
1002
}
1040
0.0
1002
{
1002
}
1040
0.0
1002
}
1002
{
1002
{
1010
5.0
1020
5.0
1030
5.0
1002
}
1040
0.2000000029802322
1000

1040
0.0
1002
{
1002
}
1040
0.0
1002
{
1002
}
1040
0.0
1002
}
1002
{
1070
     0
1002
{
1070
     1
1002
{
1040
1.0
1040
1.0
1000

1040
0.0
1002
{
1002
}
1040
0.0
1002
{
1002
}
1040
0.0
1002
}
1002
}
1040
0.0
1040
0.0
1040
0.0
1002
}
1002
{
1040
0.0
1040
0.0
1000

1040
0.0
1002
{
1002
}
1040
0.0
1002
{
1002
}
1040
0.0
1002
}
1002
{
1040
0.5
1040
1.0
1000

1040
0.0
1002
{
1002
}
1040
0.0
1002
{
1002
}
1040
0.0
1002
}
1002
{
1070
     0
1040
0.0
1002
{
1002
}
1040
0.0
1002
{
1002
}
1040
0.0
1002
}
1002
{
1040
0.0
1002
{
1002
{
1010
0.0
1020
0.0
1030
0.0
1002
}
1040
0.0
1000

1040
0.0
1002
{
1002
}
1040
0.0
1002
{
1002
}
1040
0.0
1002
}
1002
}
1002
{
1002
{
1070
     1
1002
{
1040
0.0
1040
1.0
1000

1040
0.0
1002
{
1002
}
1040
0.0
1002
{
1002
}
1040
0.0
1002
}
1002
}
1040
0.0
1002
{
1002
}
1010
0.0
1020
0.0
1030
0.0
1010
0.0
1020
0.0
1030
0.0
1010
0.0
1020
0.0
1030
0.0
1070
     0
1002
}
1002
{
1002
{
1040
0.0
1040
0.0
1002
{
1070
     0
1002
}
1002
}
1070
     0
1040
0.0
1002
{
1002
}
1002
}
1002
{
1002
}
1002
}
1002
{
1071
        3
1070
     3
1070
     0
1002
{
1070
     2
1070
     1
1070
     0
1040
0.0
1002
}
1070
     0
1070
     2
1002
{
1002
}
1002
}
1002
{
1040
8030.0
1040
190.30000305175781
1040
0.3050000071525574
1040
228.0
1040
545.0
1040
14.0
1040
17.39999961853027
1040
0.4560000002384186
1002
}
1000
54D
1002
}
  0
ATTRIB
  5
535
  8
0
 10
0.0
 20
0.0
 30
0.0
 40
0.2
  1
*GLOBAL*01
  2
NAME
 70
     1
  0
ATTRIB
  5
536
  8
0
 10
0.0
 20
0.0
 30
0.0
 40
0.2
  1

  2
ACADCOLOR
 70
     1
  0
ATTRIB
  5
537
  8
0
 10
0.0
 20
0.0
 30
0.0
 40
0.2
  1
1.0000,1.0000,1.0000
  2
COLOR
 70
     1
  0
ATTRIB
  5
538
  8
0
 10
0.0
 20
0.0
 30
0.0
 40
0.2
  1
1.0,1.0,1.0
  2
OPACITY
 70
     1
  0
ATTRIB
  5
539
  8
0
 10
0.0
 20
0.0
 30
0.0
 40
0.2
  1
("nullsurf" "")
  2
SURFACE
 70
     1
  0
ATTRIB
  5
53A
  8
0
 10
0.0
 20
0.0
 30
0.0
 40
0.2
  1
(11 "Ka" "0.7")(11 "Kd" "1")(11 "Ks" "0.2")(11 "roughness" "0.5")
  2
SURF1
 70
     1
  0
ATTRIB
  5
53B
  8
0
 10
0.0
 20
0.0
 30
0.0
 40
0.2
  1

  2
SURF2
 70
     1
  0
ATTRIB
  5
53C
  8
0
 10
0.0
 20
0.0
 30
0.0
 40
0.2
  1

  2
SURF3
 70
     1
  0
ATTRIB
  5
53D
  8
0
 10
0.0
 20
0.0
 30
0.0
 40
0.2
  1

  2
SURF4
 70
     1
  0
ATTRIB
  5
53E
  8
0
 10
0.0
 20
0.0
 30
0.0
 40
0.2
  1
-1.0
  2
SHADINGRATE
 70
     1
  0
ATTRIB
  5
53F
  8
0
 10
0.0
 20
0.0
 30
0.0
 40
0.2
  1
("nulldisp" "")
  2
DISPLACEMENT
 70
     1
  0
ATTRIB
  5
540
  8
0
 10
0.0
 20
0.0
 30
0.0
 40
0.2
  1

  2
DISP1
 70
     1
  0
ATTRIB
  5
541
  8
0
 10
0.0
 20
0.0
 30
0.0
 40
0.2
  1

  2
DISP2
 70
     1
  0
ATTRIB
  5
542
  8
0
 10
0.0
 20
0.0
 30
0.0
 40
0.2
  1

  2
DISP3
 70
     1
  0
ATTRIB
  5
543
  8
0
 10
0.0
 20
0.0
 30
0.0
 40
0.2
  1

  2
DISP4
 70
     1
  0
ATTRIB
  5
544
  8
0
 10
0.0
 20
0.0
 30
0.0
 40
0.2
  1
0.0
  2
DBOUND
 70
     1
  0
ATTRIB
  5
545
  8
0
 10
0.0
 20
0.0
 30
0.0
 40
0.2
  1
0
  2
SMOOTH
 70
     1
  0
ATTRIB
  5
546
  8
0
 10
0.0
 20
0.0
 30
0.0
 40
0.2
  1
("" "")
  2
ATMOSHPERE
 70
     1
  0
ATTRIB
  5
547
  8
0
 10
0.0
 20
0.0
 30
0.0
 40
0.2
  1

  2
ATMO1
 70
     1
  0
ATTRIB
  5
548
  8
0
 10
0.0
 20
0.0
 30
0.0
 40
0.2
  1

  2
ATMO2
 70
     1
  0
ATTRIB
  5
549
  8
0
 10
0.0
 20
0.0
 30
0.0
 40
0.2
  1

  2
ATMO3
 70
     1
  0
ATTRIB
  5
54A
  8
0
 10
0.0
 20
0.0
 30
0.0
 40
0.2
  1

  2
ATMO4
 70
     1
  0
ATTRIB
  5
54B
  8
0
 10
0.0
 20
0.0
 30
0.0
 40
0.2
  1
0.0 0.0 1.0 0.0 0.0 1.0 1.0 1.0
  2
TCCORD
 70
     1
  0
SEQEND
  5
54C
  8
0
  0
ENDSEC
  0
EOF
