  0
SECTION
  2
HEADER
  9
$ACADVER
  1
AC1018
  9
$ACADMAINTVER
 70
     0
  9
$DWGCODEPAGE
  3
ANSI_1252
  9
$INSBASE
 10
0.0
 20
0.0
 30
0.0
  9
$EXTMIN
 10
-9.086847415883314
 20
-32.16268600164661
 30
16.38223312382161
  9
$EXTMAX
 10
26.11352458740992
 20
3.037686001646634
 30
40.85882849053599
  9
$LIMMIN
 10
0.0
 20
0.0
  9
$LIMMAX
 10
12.0
 20
9.0
  9
$ORTHOMODE
 70
     0
  9
$REGENMODE
 70
     1
  9
$FILLMODE
 70
     1
  9
$QTEXTMODE
 70
     0
  9
$MIRRTEXT
 70
     1
  9
$LTSCALE
 40
1.0
  9
$ATTMODE
 70
     1
  9
$TEXTSIZE
 40
0.2
  9
$TRACEWID
 40
0.05
  9
$TEXTSTYLE
  7
Standard
  9
$CLAYER
  8
0
  9
$CELTYPE
  6
ByLayer
  9
$CECOLOR
 62
   256
  9
$CELTSCALE
 40
1.0
  9
$DISPSILH
 70
     0
  9
$DIMSCALE
 40
1.0
  9
$DIMASZ
 40
0.18
  9
$DIMEXO
 40
0.0625
  9
$DIMDLI
 40
0.38
  9
$DIMRND
 40
0.0
  9
$DIMDLE
 40
0.0
  9
$DIMEXE
 40
0.18
  9
$DIMTP
 40
0.0
  9
$DIMTM
 40
0.0
  9
$DIMTXT
 40
0.18
  9
$DIMCEN
 40
0.09
  9
$DIMTSZ
 40
0.0
  9
$DIMTOL
 70
     0
  9
$DIMLIM
 70
     0
  9
$DIMTIH
 70
     1
  9
$DIMTOH
 70
     1
  9
$DIMSE1
 70
     0
  9
$DIMSE2
 70
     0
  9
$DIMTAD
 70
     0
  9
$DIMZIN
 70
     0
  9
$DIMBLK
  1

  9
$DIMASO
 70
     1
  9
$DIMSHO
 70
     1
  9
$DIMPOST
  1

  9
$DIMAPOST
  1

  9
$DIMALT
 70
     0
  9
$DIMALTD
 70
     2
  9
$DIMALTF
 40
25.4
  9
$DIMLFAC
 40
1.0
  9
$DIMTOFL
 70
     0
  9
$DIMTVP
 40
0.0
  9
$DIMTIX
 70
     0
  9
$DIMSOXD
 70
     0
  9
$DIMSAH
 70
     0
  9
$DIMBLK1
  1

  9
$DIMBLK2
  1

  9
$DIMSTYLE
  2
Standard
  9
$DIMCLRD
 70
     0
  9
$DIMCLRE
 70
     0
  9
$DIMCLRT
 70
     0
  9
$DIMTFAC
 40
1.0
  9
$DIMGAP
 40
0.09
  9
$DIMJUST
 70
     0
  9
$DIMSD1
 70
     0
  9
$DIMSD2
 70
     0
  9
$DIMTOLJ
 70
     1
  9
$DIMTZIN
 70
     0
  9
$DIMALTZ
 70
     0
  9
$DIMALTTZ
 70
     0
  9
$DIMUPT
 70
     0
  9
$DIMDEC
 70
     4
  9
$DIMTDEC
 70
     4
  9
$DIMALTU
 70
     2
  9
$DIMALTTD
 70
     2
  9
$DIMTXSTY
  7
Standard
  9
$DIMAUNIT
 70
     0
  9
$DIMADEC
 70
     0
  9
$DIMALTRND
 40
0.0
  9
$DIMAZIN
 70
     0
  9
$DIMDSEP
 70
    46
  9
$DIMATFIT
 70
     3
  9
$DIMFRAC
 70
     0
  9
$DIMLDRBLK
  1

  9
$DIMLUNIT
 70
     2
  9
$DIMLWD
 70
    -2
  9
$DIMLWE
 70
    -2
  9
$DIMTMOVE
 70
     2
  9
$LUNITS
 70
     2
  9
$LUPREC
 70
     4
  9
$SKETCHINC
 40
0.1
  9
$FILLETRAD
 40
0.5
  9
$AUNITS
 70
     0
  9
$AUPREC
 70
     0
  9
$MENU
  1
.
  9
$ELEVATION
 40
0.0
  9
$PELEVATION
 40
0.0
  9
$THICKNESS
 40
0.0
  9
$LIMCHECK
 70
     0
  9
$CHAMFERA
 40
0.0
  9
$CHAMFERB
 40
0.0
  9
$CHAMFERC
 40
0.0
  9
$CHAMFERD
 40
0.0
  9
$SKPOLY
 70
     0
  9
$TDCREATE
 40
2457157.546670856
  9
$TDUCREATE
 40
2457157.713337523
  9
$TDUPDATE
 40
2457157.546695949
  9
$TDUUPDATE
 40
2457157.713362616
  9
$TDINDWG
 40
0.0000000116
  9
$TDUSRTIMER
 40
0.0000000116
  9
$USRTIMER
 70
     1
  9
$ANGBASE
 50
0.0
  9
$ANGDIR
 70
     0
  9
$PDMODE
 70
     0
  9
$PDSIZE
 40
0.0
  9
$PLINEWID
 40
0.0
  9
$SPLFRAME
 70
     0
  9
$SPLINETYPE
 70
     6
  9
$SPLINESEGS
 70
     8
  9
$HANDSEED
  5
28A
  9
$SURFTAB1
 70
     6
  9
$SURFTAB2
 70
     6
  9
$SURFTYPE
 70
     6
  9
$SURFU
 70
     6
  9
$SURFV
 70
     6
  9
$UCSBASE
  2

  9
$UCSNAME
  2

  9
$UCSORG
 10
0.0
 20
0.0
 30
0.0
  9
$UCSXDIR
 10
1.0
 20
0.0
 30
0.0
  9
$UCSYDIR
 10
0.0
 20
1.0
 30
0.0
  9
$UCSORTHOREF
  2

  9
$UCSORTHOVIEW
 70
     0
  9
$UCSORGTOP
 10
0.0
 20
0.0
 30
0.0
  9
$UCSORGBOTTOM
 10
0.0
 20
0.0
 30
0.0
  9
$UCSORGLEFT
 10
0.0
 20
0.0
 30
0.0
  9
$UCSORGRIGHT
 10
0.0
 20
0.0
 30
0.0
  9
$UCSORGFRONT
 10
0.0
 20
0.0
 30
0.0
  9
$UCSORGBACK
 10
0.0
 20
0.0
 30
0.0
  9
$PUCSBASE
  2

  9
$PUCSNAME
  2

  9
$PUCSORG
 10
0.0
 20
0.0
 30
0.0
  9
$PUCSXDIR
 10
1.0
 20
0.0
 30
0.0
  9
$PUCSYDIR
 10
0.0
 20
1.0
 30
0.0
  9
$PUCSORTHOREF
  2

  9
$PUCSORTHOVIEW
 70
     0
  9
$PUCSORGTOP
 10
0.0
 20
0.0
 30
0.0
  9
$PUCSORGBOTTOM
 10
0.0
 20
0.0
 30
0.0
  9
$PUCSORGLEFT
 10
0.0
 20
0.0
 30
0.0
  9
$PUCSORGRIGHT
 10
0.0
 20
0.0
 30
0.0
  9
$PUCSORGFRONT
 10
0.0
 20
0.0
 30
0.0
  9
$PUCSORGBACK
 10
0.0
 20
0.0
 30
0.0
  9
$USERI1
 70
     0
  9
$USERI2
 70
     0
  9
$USERI3
 70
     0
  9
$USERI4
 70
     0
  9
$USERI5
 70
     0
  9
$USERR1
 40
0.0
  9
$USERR2
 40
0.0
  9
$USERR3
 40
0.0
  9
$USERR4
 40
0.0
  9
$USERR5
 40
0.0
  9
$WORLDVIEW
 70
     1
  9
$SHADEDGE
 70
     3
  9
$SHADEDIF
 70
    70
  9
$TILEMODE
 70
     1
  9
$MAXACTVP
 70
    64
  9
$PINSBASE
 10
0.0
 20
0.0
 30
0.0
  9
$PLIMCHECK
 70
     0
  9
$PEXTMIN
 10
1.000000000000000E+20
 20
1.000000000000000E+20
 30
1.000000000000000E+20
  9
$PEXTMAX
 10
-1.000000000000000E+20
 20
-1.000000000000000E+20
 30
-1.000000000000000E+20
  9
$PLIMMIN
 10
0.0
 20
0.0
  9
$PLIMMAX
 10
12.0
 20
9.0
  9
$UNITMODE
 70
     0
  9
$VISRETAIN
 70
     1
  9
$PLINEGEN
 70
     0
  9
$PSLTSCALE
 70
     1
  9
$TREEDEPTH
 70
  3020
  9
$CMLSTYLE
  2
Standard
  9
$CMLJUST
 70
     0
  9
$CMLSCALE
 40
1.0
  9
$PROXYGRAPHICS
 70
     1
  9
$MEASUREMENT
 70
     0
  9
$CELWEIGHT
370
    -1
  9
$ENDCAPS
280
     0
  9
$JOINSTYLE
280
     0
  9
$LWDISPLAY
290
     0
  9
$INSUNITS
 70
     1
  9
$HYPERLINKBASE
  1

  9
$STYLESHEET
  1

  9
$XEDIT
290
     1
  9
$CEPSNTYPE
380
     0
  9
$PSTYLEMODE
290
     1
  9
$FINGERPRINTGUID
  2
{A2FBEC02-D6FF-4BAA-9573-56A53FDCF557}
  9
$VERSIONGUID
  2
{FAEB1C32-E019-11D5-929B-00C0DF256EC4}
  9
$EXTNAMES
290
     1
  9
$PSVPSCALE
 40
0.0
  9
$OLESTARTUP
290
     0
  9
$SORTENTS
280
   127
  9
$INDEXCTL
280
     0
  9
$HIDETEXT
280
     1
  9
$XCLIPFRAME
290
     0
  9
$HALOGAP
280
     0
  9
$OBSCOLOR
 70
   257
  9
$OBSLTYPE
280
     0
  9
$INTERSECTIONDISPLAY
280
     0
  9
$INTERSECTIONCOLOR
 70
   257
  9
$DIMASSOC
280
     2
  9
$PROJECTNAME
  1

  0
ENDSEC
  0
SECTION
  2
CLASSES
  0
CLASS
  1
ACDBDICTIONARYWDFLT
  2
AcDbDictionaryWithDefault
  3
ObjectDBX Classes
 90
        0
 91
        4
280
     0
281
     0
  0
CLASS
  1
VISUALSTYLE
  2
AcDbVisualStyle
  3
ObjectDBX Classes
 90
     4095
 91
        4
280
     0
281
     0
  0
CLASS
  1
MATERIAL
  2
AcDbMaterial
  3
ObjectDBX Classes
 90
     1153
 91
        4
280
     0
281
     0
  0
CLASS
  1
SCALE
  2
AcDbScale
  3
ObjectDBX Classes
 90
     1153
 91
        4
280
     0
281
     0
  0
CLASS
  1
TABLESTYLE
  2
AcDbTableStyle
  3
ObjectDBX Classes
 90
     4095
 91
        4
280
     0
281
     0
  0
CLASS
  1
MLEADERSTYLE
  2
AcDbMLeaderStyle
  3
ACDB_MLEADERSTYLE_CLASS
 90
     4095
 91
        4
280
     0
281
     0
  0
CLASS
  1
SUN
  2
AcDbSun
  3
SCENEOE
 90
     1153
 91
        4
280
     0
281
     0
  0
CLASS
  1
DICTIONARYVAR
  2
AcDbDictionaryVar
  3
ObjectDBX Classes
 90
        0
 91
        4
280
     0
281
     0
  0
CLASS
  1
CELLSTYLEMAP
  2
AcDbCellStyleMap
  3
ObjectDBX Classes
 90
     1152
 91
        4
280
     0
281
     0
  0
ENDSEC
  0
SECTION
  2
TABLES
  0
TABLE
  2
VPORT
  5
8
102
{ACAD_XDICTIONARY
360
243
102
}
330
0
100
AcDbSymbolTable
 70
     1
  0
VPORT
  5
29
330
8
100
AcDbSymbolTableRecord
100
AcDbViewportTableRecord
  2
*Active
 70
     0
 10
0.0
 20
0.0
 11
1.0
 21
1.0
 12
8.513338585763302
 22
-14.56249999999999
 13
0.0
 23
0.0
 14
0.5
 24
0.5
 15
0.5
 25
0.5
 16
0.0
 26
0.0
 36
1.0
 17
0.0
 27
0.0
 37
0.0
 40
35.9043794433591
 41
0.9999999999999998
 42
50.0
 43
0.0
 44
0.0
 50
0.0
 51
0.0
 71
     0
 72
   100
 73
     1
 74
     3
 75
     0
 76
     0
 77
     0
 78
     0
281
     0
 65
     1
110
0.0
120
0.0
130
0.0
111
1.0
121
0.0
131
0.0
112
0.0
122
1.0
132
0.0
 79
     0
146
0.0
  0
ENDTAB
  0
TABLE
  2
LTYPE
  5
5
330
0
100
AcDbSymbolTable
 70
     1
  0
LTYPE
  5
14
330
5
100
AcDbSymbolTableRecord
100
AcDbLinetypeTableRecord
  2
ByBlock
 70
     0
  3

 72
    65
 73
     0
 40
0.0
  0
LTYPE
  5
15
330
5
100
AcDbSymbolTableRecord
100
AcDbLinetypeTableRecord
  2
ByLayer
 70
     0
  3

 72
    65
 73
     0
 40
0.0
  0
LTYPE
  5
16
330
5
100
AcDbSymbolTableRecord
100
AcDbLinetypeTableRecord
  2
Continuous
 70
     0
  3
Solid line
 72
    65
 73
     0
 40
0.0
  0
ENDTAB
  0
TABLE
  2
LAYER
  5
2
330
0
100
AcDbSymbolTable
 70
     1
  0
LAYER
  5
10
330
2
100
AcDbSymbolTableRecord
100
AcDbLayerTableRecord
  2
0
 70
     0
 62
     7
  6
Continuous
370
    -3
390
F
  0
ENDTAB
  0
TABLE
  2
STYLE
  5
3
330
0
100
AcDbSymbolTable
 70
     1
  0
STYLE
  5
11
330
3
100
AcDbSymbolTableRecord
100
AcDbTextStyleTableRecord
  2
Standard
 70
     0
 40
0.0
 41
1.0
 50
0.0
 71
     0
 42
0.2
  3
txt
  4

  0
ENDTAB
  0
TABLE
  2
VIEW
  5
6
330
0
100
AcDbSymbolTable
 70
     0
  0
ENDTAB
  0
TABLE
  2
UCS
  5
7
330
0
100
AcDbSymbolTable
 70
     0
  0
ENDTAB
  0
TABLE
  2
APPID
  5
9
330
0
100
AcDbSymbolTable
 70
     2
  0
APPID
  5
12
330
9
100
AcDbSymbolTableRecord
100
AcDbRegAppTableRecord
  2
ACAD
 70
     0
  0
APPID
  5
282
330
9
100
AcDbSymbolTableRecord
100
AcDbRegAppTableRecord
  2
ACAD_MLEADERVER
 70
     0
  0
ENDTAB
  0
TABLE
  2
DIMSTYLE
  5
A
330
0
100
AcDbSymbolTable
 70
     1
100
AcDbDimStyleTable
  0
DIMSTYLE
105
27
330
A
100
AcDbSymbolTableRecord
100
AcDbDimStyleTableRecord
  2
Standard
 70
     0
178
     0
340
11
  0
ENDTAB
  0
TABLE
  2
BLOCK_RECORD
  5
1
330
0
100
AcDbSymbolTable
 70
     1
  0
BLOCK_RECORD
  5
1F
330
1
100
AcDbSymbolTableRecord
100
AcDbBlockTableRecord
  2
*Model_Space
340
22
  0
BLOCK_RECORD
  5
1B
330
1
100
AcDbSymbolTableRecord
100
AcDbBlockTableRecord
  2
*Paper_Space
340
1E
  0
BLOCK_RECORD
  5
23
330
1
100
AcDbSymbolTableRecord
100
AcDbBlockTableRecord
  2
*Paper_Space0
340
26
  0
ENDTAB
  0
ENDSEC
  0
SECTION
  2
BLOCKS
  0
BLOCK
  5
20
330
1F
100
AcDbEntity
  8
0
100
AcDbBlockBegin
  2
*Model_Space
 70
     0
 10
0.0
 20
0.0
 30
0.0
  3
*Model_Space
  1

  0
ENDBLK
  5
21
330
1F
100
AcDbEntity
  8
0
100
AcDbBlockEnd
  0
BLOCK
  5
1C
330
1B
100
AcDbEntity
 67
     1
  8
0
100
AcDbBlockBegin
  2
*Paper_Space
 70
     0
 10
0.0
 20
0.0
 30
0.0
  3
*Paper_Space
  1

  0
ENDBLK
  5
1D
330
1B
100
AcDbEntity
 67
     1
  8
0
100
AcDbBlockEnd
  0
BLOCK
  5
24
330
23
100
AcDbEntity
  8
0
100
AcDbBlockBegin
  2
*Paper_Space0
 70
     0
 10
0.0
 20
0.0
 30
0.0
  3
*Paper_Space0
  1

  0
ENDBLK
  5
25
330
23
100
AcDbEntity
  8
0
100
AcDbBlockEnd
  0
ENDSEC
  0
SECTION
  2
ENTITIES
  0
SPLINE
  5
6E
330
1F
100
AcDbEntity
  8
0
100
AcDbSpline
210
1.0
220
6.287394362782499E-16
230
-2.206909927269985E-15
 70
     8
 71
     3
 72
    32
 73
    28
 74
     0
 42
0.000000001
 43
0.0000000001
 40
-18.03839658274429
 40
-18.03839658274429
 40
-18.03839658274429
 40
-18.03839658274429
 40
-17.69217701953705
 40
-17.50173288061489
 40
-17.24415782674316
 40
-16.85484617056838
 40
-16.54839124790006
 40
-16.24378854905606
 40
-15.9384358215596
 40
-15.51048181885688
 40
-14.97350980751062
 40
-14.26158959582394
 40
-13.35498162473243
 40
-12.488735279651
 40
-11.76438918019911
 40
-11.17324885150065
 40
-10.65061677123976
 40
-9.799275567536675
 40
-8.465159286739164
 40
-7.158026751687945
 40
-6.122197907935758
 40
-5.045947962062792
 40
-3.933561444456823
 40
-2.852443959223192
 40
-2.00408722194998
 40
-0.8078171330329598
 40
0.0
 40
0.0
 40
0.0
 40
0.0
 10
9.388338585763261
 20
-32.16268600164661
 30
16.38223312382162
 10
9.388338585763261
 20
-32.1665826012276
 30
16.4989255956485
 10
9.388338585763261
 20
-32.17262259370372
 30
16.67980680686925
 10
9.388338585763261
 20
-32.08874120271769
 30
16.93271761598395
 10
9.388338585763261
 20
-32.03290070112678
 30
17.20727789152545
 10
9.388338585763261
 20
-31.88223203162805
 30
17.49035862318865
 10
9.388338585763261
 20
-31.72668622411055
 30
17.78585740322993
 10
9.388338585763261
 20
-31.52497325640724
 30
18.01850345909666
 10
9.388338585763265
 20
-31.26512273275933
 30
18.24744433539036
 10
9.388338585763268
 20
-30.90761636841389
 30
18.47976778901217
 10
9.388338585763268
 20
-30.37978944439
 30
18.67461856867297
 10
9.388338585763268
 20
-29.67820308869346
 30
18.82928462949517
 10
9.388338585763268
 20
-28.87393861871888
 30
19.0316829682401
 10
9.388338585763265
 20
-28.09553211947048
 30
19.33220574858707
 10
9.388338585763268
 20
-27.45040775823784
 30
19.67394110039449
 10
9.388338585763268
 20
-26.95817648551012
 30
20.04004654340644
 10
9.388338585763268
 20
-26.46136968526137
 30
20.47153946362214
 10
9.388338585763268
 20
-25.9527024100267
 30
21.227244178449
 10
9.388338585763268
 20
-25.38967051005543
 30
22.24316140541761
 10
9.388338585763275
 20
-24.7959945296969
 30
23.31717761081765
 10
9.388338585763275
 20
-24.14735094705132
 30
24.25685442286698
 10
9.388338585763275
 20
-23.45025972231278
 30
25.07603212338662
 10
9.388338585763275
 20
-22.6547402144086
 30
25.83066632649844
 10
9.388338585763275
 20
-21.76250358854161
 30
26.33342816363309
 10
9.388338585763275
 20
-20.78584791274481
 30
26.69312048429639
 10
9.388338585763275
 20
-19.85268896734674
 30
26.93355033341583
 10
9.388338585763275
 20
-19.1827344830072
 30
26.90733070348509
 10
9.388338585763275
 20
-18.91268600164661
 30
26.89676196872752
  0
SPLINE
  5
6F
330
1F
100
AcDbEntity
  8
0
100
AcDbSpline
210
0.0
220
0.0
230
1.0
 70
    24
 71
     2
 72
     6
 73
     3
 74
     0
 42
0.000000001
 43
0.0000000001
 40
0.0
 40
0.0
 40
0.0
 40
1.75
 40
1.75
 40
1.75
 10
9.388338585763275
 20
-18.91268600164661
 30
26.89676196872752
 10
8.513338585763275
 20
-18.91268600164661
 30
26.89676196872752
 10
7.638338585763276
 20
-18.91268600164661
 30
26.89676196872752
  0
SPLINE
  5
70
330
1F
100
AcDbEntity
  8
0
100
AcDbSpline
210
1.0
220
2.914393604260488E-16
230
-1.856081413117617E-15
 70
     8
 71
     3
 72
    32
 73
    28
 74
     0
 42
0.000000001
 43
0.0000000001
 40
0.0
 40
0.0
 40
0.0
 40
0.0
 40
0.8078171330329598
 40
2.00408722194998
 40
2.852443959223192
 40
3.933561444456823
 40
5.045947962062792
 40
6.122197907935758
 40
7.158026751687945
 40
8.465159286739164
 40
9.799275567536675
 40
10.65061677123976
 40
11.17324885150065
 40
11.76438918019911
 40
12.488735279651
 40
13.35498162473243
 40
14.26158959582394
 40
14.97350980751062
 40
15.51048181885688
 40
15.9384358215596
 40
16.24378854905606
 40
16.54839124790006
 40
16.85484617056838
 40
17.24415782674316
 40
17.50173288061489
 40
17.69217701953705
 40
18.03839658274429
 40
18.03839658274429
 40
18.03839658274429
 40
18.03839658274429
 10
7.638338585763276
 20
-18.91268600164661
 30
26.89676196872752
 10
7.638338585763276
 20
-19.18273448300719
 30
26.90733070348509
 10
7.638338585763276
 20
-19.85268896734674
 30
26.93355033341583
 10
7.638338585763276
 20
-20.78584791274481
 30
26.69312048429639
 10
7.638338585763276
 20
-21.7625035885416
 30
26.33342816363309
 10
7.638338585763275
 20
-22.6547402144086
 30
25.83066632649844
 10
7.638338585763276
 20
-23.45025972231278
 30
25.07603212338662
 10
7.638338585763276
 20
-24.14735094705132
 30
24.25685442286698
 10
7.638338585763276
 20
-24.79599452969689
 30
23.31717761081765
 10
7.638338585763269
 20
-25.38967051005543
 30
22.24316140541761
 10
7.638338585763268
 20
-25.9527024100267
 30
21.227244178449
 10
7.638338585763268
 20
-26.46136968526137
 30
20.47153946362214
 10
7.638338585763268
 20
-26.95817648551012
 30
20.04004654340644
 10
7.638338585763268
 20
-27.45040775823784
 30
19.67394110039449
 10
7.638338585763265
 20
-28.09553211947048
 30
19.33220574858707
 10
7.638338585763269
 20
-28.87393861871888
 30
19.0316829682401
 10
7.638338585763269
 20
-29.67820308869346
 30
18.82928462949517
 10
7.638338585763269
 20
-30.37978944439
 30
18.67461856867297
 10
7.638338585763268
 20
-30.90761636841389
 30
18.47976778901217
 10
7.638338585763265
 20
-31.26512273275933
 30
18.24744433539036
 10
7.638338585763261
 20
-31.52497325640724
 30
18.01850345909666
 10
7.638338585763261
 20
-31.72668622411055
 30
17.78585740322993
 10
7.638338585763261
 20
-31.88223203162805
 30
17.49035862318865
 10
7.638338585763261
 20
-32.03290070112678
 30
17.20727789152545
 10
7.638338585763261
 20
-32.08874120271769
 30
16.93271761598395
 10
7.638338585763261
 20
-32.17262259370372
 30
16.67980680686925
 10
7.638338585763261
 20
-32.1665826012276
 30
16.4989255956485
 10
7.638338585763261
 20
-32.16268600164661
 30
16.38223312382162
  0
SPLINE
  5
71
330
1F
100
AcDbEntity
  8
0
100
AcDbSpline
210
0.0
220
0.0
230
1.0
 70
    24
 71
     2
 72
     6
 73
     3
 74
     0
 42
0.000000001
 43
0.0000000001
 40
-1.75
 40
-1.75
 40
-1.75
 40
0.0
 40
0.0
 40
0.0
 10
7.638338585763261
 20
-32.16268600164661
 30
16.38223312382162
 10
8.513338585763261
 20
-32.16268600164661
 30
16.38223312382162
 10
9.388338585763261
 20
-32.16268600164661
 30
16.38223312382162
  0
SPLINE
  5
72
330
1F
100
AcDbEntity
  8
0
100
AcDbSpline
210
0.0
220
0.0
230
1.0
 70
    24
 71
     2
 72
     6
 73
     3
 74
     0
 42
0.000000001
 43
0.0000000001
 40
0.0
 40
0.0
 40
0.0
 40
2.934663019977116
 40
2.934663019977116
 40
2.934663019977116
 10
7.638338585763261
 20
-32.16268600164661
 30
16.38223312382162
 10
7.638338585763263
 20
-30.69535449165805
 30
16.38223312382162
 10
7.638338585763266
 20
-29.22802298166949
 30
16.38223312382162
  0
SPLINE
  5
73
330
1F
100
AcDbEntity
  8
0
100
AcDbSpline
210
0.0
220
0.0
230
1.0
 70
    24
 71
     2
 72
     6
 73
     3
 74
     0
 42
0.000000001
 43
0.0000000001
 40
-1.75
 40
-1.75
 40
-1.75
 40
0.0
 40
0.0
 40
0.0
 10
7.638338585763266
 20
-29.22802298166949
 30
16.38223312382162
 10
8.513338585763266
 20
-29.22802298166949
 30
16.38223312382162
 10
9.388338585763266
 20
-29.2280229816695
 30
16.38223312382162
  0
SPLINE
  5
74
330
1F
100
AcDbEntity
  8
0
100
AcDbSpline
210
0.0
220
0.0
230
1.0
 70
    24
 71
     2
 72
     6
 73
     3
 74
     0
 42
0.000000001
 43
0.0000000001
 40
-2.934663019977112
 40
-2.934663019977112
 40
-2.934663019977112
 40
0.0
 40
0.0
 40
0.0
 10
9.388338585763266
 20
-29.2280229816695
 30
16.38223312382162
 10
9.388338585763265
 20
-30.69535449165805
 30
16.38223312382162
 10
9.388338585763261
 20
-32.16268600164661
 30
16.38223312382162
  0
SPLINE
  5
75
330
1F
100
AcDbEntity
  8
0
100
AcDbSpline
210
-1.0
220
-1.002972535756052E-15
230
4.057046492890884E-15
 70
     8
 71
     3
 72
    24
 73
    20
 74
     0
 42
0.000000001
 43
0.0000000001
 40
0.4333124023105986
 40
0.4333124023105986
 40
0.4333124023105986
 40
0.4333124023105986
 40
1.887237099064775
 40
4.861575131712394
 40
7.959544911317729
 40
10.82505960183766
 40
13.43237100267127
 40
17.02718300901096
 40
18.92359569464653
 40
20.54864129392536
 40
21.94739410920529
 40
24.34888365059554
 40
26.36892058692199
 40
29.09627411585996
 40
30.93122250592336
 40
33.62280461490998
 40
35.65022308519314
 40
36.71146164613257
 40
38.06843589525378
 40
38.06843589525378
 40
38.06843589525378
 40
38.06843589525378
 10
9.388338585763275
 20
-18.91268600164575
 30
21.12158819868371
 10
9.388338585763275
 20
-19.05966701874907
 30
21.10089154836761
 10
9.388338585763275
 20
-19.50643240250115
 30
21.03262336225189
 10
9.388338585763275
 20
-20.24547808931834
 30
20.79864226620249
 10
9.388338585763275
 20
-21.04032708128468
 30
20.34367449943605
 10
9.388338585763275
 20
-21.76019158500748
 30
19.84703415287802
 10
9.388338585763275
 20
-22.50550580797068
 30
19.29836145764428
 10
9.388338585763275
 20
-23.16940756003912
 30
18.80639833371998
 10
9.388338585763275
 20
-23.74382854769925
 30
18.36144522426856
 10
9.388338585763274
 20
-24.16279926797179
 30
18.08445514208571
 10
9.38833858576327
 20
-24.62985016517572
 30
17.7863380819622
 10
9.388338585763266
 20
-25.16570962923178
 30
17.52790421546076
 10
9.388338585763266
 20
-25.82883626023814
 30
17.2225712691883
 10
9.388338585763266
 20
-26.46968560230809
 30
17.01750663258257
 10
9.388338585763266
 20
-27.17533790614702
 30
16.7937703460581
 10
9.388338585763263
 20
-27.83381462991724
 30
16.66331222298044
 10
9.388338585763266
 20
-28.42117052787982
 30
16.60891232737342
 10
9.388338585763266
 20
-28.8676839463603
 30
16.52073417149483
 10
9.388338585763266
 20
-29.09850071318256
 30
16.43201671128963
 10
9.388338585763266
 20
-29.2280229816695
 30
16.38223312382162
  0
SPLINE
  5
76
330
1F
100
AcDbEntity
  8
0
100
AcDbSpline
210
-1.0
220
-5.376114286477432E-16
230
3.231580125479524E-15
 70
     8
 71
     3
 72
    24
 73
    20
 74
     0
 42
0.000000001
 43
0.0000000001
 40
-38.06843589525378
 40
-38.06843589525378
 40
-38.06843589525378
 40
-38.06843589525378
 40
-36.71146164613257
 40
-35.65022308519314
 40
-33.62280461490998
 40
-30.93122250592336
 40
-29.09627411585996
 40
-26.36892058692199
 40
-24.34888365059554
 40
-21.94739410920529
 40
-20.54864129392536
 40
-18.92359569464653
 40
-17.02718300901096
 40
-13.43237100267127
 40
-10.82505960183766
 40
-7.959544911317729
 40
-4.861575131712394
 40
-1.887237099064775
 40
-0.4333124023105986
 40
-0.4333124023105986
 40
-0.4333124023105986
 40
-0.4333124023105986
 10
7.638338585763266
 20
-29.22802298166949
 30
16.38223312382162
 10
7.638338585763266
 20
-29.09850071318255
 30
16.43201671128963
 10
7.638338585763266
 20
-28.86768394636029
 30
16.52073417149483
 10
7.638338585763266
 20
-28.42117052787981
 30
16.60891232737342
 10
7.638338585763262
 20
-27.83381462991724
 30
16.66331222298044
 10
7.638338585763266
 20
-27.17533790614701
 30
16.7937703460581
 10
7.638338585763266
 20
-26.46968560230808
 30
17.01750663258257
 10
7.638338585763266
 20
-25.82883626023814
 30
17.2225712691883
 10
7.638338585763266
 20
-25.16570962923177
 30
17.52790421546076
 10
7.63833858576327
 20
-24.62985016517571
 30
17.7863380819622
 10
7.638338585763274
 20
-24.16279926797178
 30
18.08445514208571
 10
7.638338585763274
 20
-23.74382854769925
 30
18.36144522426856
 10
7.638338585763274
 20
-23.16940756003912
 30
18.80639833371998
 10
7.638338585763274
 20
-22.50550580797068
 30
19.29836145764428
 10
7.638338585763274
 20
-21.76019158500748
 30
19.84703415287802
 10
7.638338585763275
 20
-21.04032708128468
 30
20.34367449943605
 10
7.638338585763275
 20
-20.24547808931834
 30
20.79864226620249
 10
7.638338585763275
 20
-19.50643240250115
 30
21.03262336225189
 10
7.638338585763275
 20
-19.05966701874907
 30
21.10089154836761
 10
7.638338585763275
 20
-18.91268600164575
 30
21.12158819868371
  0
SPLINE
  5
77
330
1F
100
AcDbEntity
  8
0
100
AcDbSpline
210
0.0
220
0.0
230
1.0
 70
    24
 71
     2
 72
     6
 73
     3
 74
     0
 42
0.000000001
 43
0.0000000001
 40
-1.75
 40
-1.75
 40
-1.75
 40
0.0
 40
0.0
 40
0.0
 10
7.638338585763275
 20
-18.91268600164575
 30
21.12158819868371
 10
8.513338585763275
 20
-18.91268600164575
 30
21.12158819868371
 10
9.388338585763275
 20
-18.91268600164575
 30
21.12158819868371
  0
SPLINE
  5
78
330
1F
100
AcDbEntity
  8
0
100
AcDbSpline
210
0.0
220
0.0
230
1.0
 70
    24
 71
     2
 72
     6
 73
     3
 74
     0
 42
0.000000001
 43
0.0000000001
 40
-5.775173770037725
 40
-5.775173770037725
 40
-5.775173770037725
 40
0.0
 40
0.0
 40
0.0
 10
7.638338585763275
 20
-18.91268600164575
 30
21.12158819868371
 10
7.638338585763275
 20
-18.91268600164618
 30
24.00917508370561
 10
7.638338585763276
 20
-18.91268600164661
 30
26.89676196872752
  0
SPLINE
  5
79
330
1F
100
AcDbEntity
  8
0
100
AcDbSpline
210
0.0
220
0.0
230
1.0
 70
    24
 71
     2
 72
     6
 73
     3
 74
     0
 42
0.000000001
 43
0.0000000001
 40
0.0
 40
0.0
 40
0.0
 40
5.775173770037725
 40
5.775173770037725
 40
5.775173770037725
 10
9.388338585763275
 20
-18.91268600164661
 30
26.89676196872752
 10
9.388338585763275
 20
-18.91268600164618
 30
24.00917508370561
 10
9.388338585763275
 20
-18.91268600164575
 30
21.12158819868371
  0
SPLINE
  5
7A
330
1F
100
AcDbEntity
  8
0
100
AcDbSpline
210
1.0
220
6.287394362782499E-16
230
-2.206909927269985E-15
 70
     8
 71
     3
 72
    32
 73
    28
 74
     0
 42
0.000000001
 43
0.0000000001
 40
-18.03839658274429
 40
-18.03839658274429
 40
-18.03839658274429
 40
-18.03839658274429
 40
-17.69217701953705
 40
-17.50173288061489
 40
-17.24415782674316
 40
-16.85484617056838
 40
-16.54839124790006
 40
-16.24378854905606
 40
-15.9384358215596
 40
-15.51048181885688
 40
-14.97350980751062
 40
-14.26158959582394
 40
-13.35498162473243
 40
-12.488735279651
 40
-11.76438918019911
 40
-11.17324885150065
 40
-10.65061677123976
 40
-9.799275567536675
 40
-8.465159286739164
 40
-7.158026751687945
 40
-6.122197907935758
 40
-5.045947962062792
 40
-3.933561444456823
 40
-2.852443959223192
 40
-2.00408722194998
 40
-0.8078171330329598
 40
0.0
 40
0.0
 40
0.0
 40
0.0
 10
8.51333858576326
 20
-32.16268600164661
 30
16.38223312382162
 10
8.51333858576326
 20
-32.1665826012276
 30
16.4989255956485
 10
8.51333858576326
 20
-32.17262259370372
 30
16.67980680686925
 10
8.51333858576326
 20
-32.08874120271769
 30
16.93271761598395
 10
8.51333858576326
 20
-32.03290070112678
 30
17.20727789152545
 10
8.51333858576326
 20
-31.88223203162805
 30
17.49035862318865
 10
8.51333858576326
 20
-31.72668622411055
 30
17.78585740322993
 10
8.51333858576326
 20
-31.52497325640724
 30
18.01850345909666
 10
8.513338585763263
 20
-31.26512273275933
 30
18.24744433539036
 10
8.513338585763266
 20
-30.90761636841389
 30
18.47976778901217
 10
8.513338585763266
 20
-30.37978944439
 30
18.67461856867297
 10
8.513338585763266
 20
-29.67820308869346
 30
18.82928462949517
 10
8.513338585763266
 20
-28.87393861871888
 30
19.0316829682401
 10
8.513338585763263
 20
-28.09553211947048
 30
19.33220574858707
 10
8.513338585763266
 20
-27.45040775823784
 30
19.67394110039449
 10
8.513338585763266
 20
-26.95817648551012
 30
20.04004654340644
 10
8.513338585763266
 20
-26.46136968526137
 30
20.47153946362214
 10
8.513338585763266
 20
-25.9527024100267
 30
21.227244178449
 10
8.513338585763266
 20
-25.38967051005543
 30
22.24316140541761
 10
8.513338585763274
 20
-24.7959945296969
 30
23.31717761081765
 10
8.513338585763274
 20
-24.14735094705132
 30
24.25685442286699
 10
8.513338585763274
 20
-23.45025972231278
 30
25.07603212338663
 10
8.513338585763274
 20
-22.6547402144086
 30
25.83066632649845
 10
8.513338585763274
 20
-21.76250358854161
 30
26.33342816363309
 10
8.513338585763274
 20
-20.78584791274481
 30
26.69312048429639
 10
8.513338585763274
 20
-19.85268896734674
 30
26.93355033341583
 10
8.513338585763274
 20
-19.1827344830072
 30
26.90733070348509
 10
8.513338585763274
 20
-18.91268600164661
 30
26.89676196872752
  0
SPLINE
  5
7B
330
1F
100
AcDbEntity
  8
0
100
AcDbSpline
210
0.0
220
0.0
230
1.0
 70
    24
 71
     2
 72
     6
 73
     3
 74
     0
 42
0.000000001
 43
0.0000000001
 40
0.0
 40
0.0
 40
0.0
 40
1.75
 40
1.75
 40
1.75
 10
9.388338585763258
 20
-32.14827264857878
 30
16.72815253813767
 10
8.513338585763258
 20
-32.14827264857878
 30
16.72815253813767
 10
7.638338585763258
 20
-32.14827264857878
 30
16.72815253813767
  0
SPLINE
  5
7C
330
1F
100
AcDbEntity
  8
0
100
AcDbSpline
210
0.0
220
0.0
230
1.0
 70
    24
 71
     2
 72
     6
 73
     3
 74
     0
 42
0.000000001
 43
0.0000000001
 40
0.0
 40
0.0
 40
0.0
 40
1.75
 40
1.75
 40
1.75
 10
9.388338585763258
 20
-32.09898207839758
 30
16.91210745038797
 10
8.513338585763258
 20
-32.09898207839758
 30
16.91210745038797
 10
7.638338585763258
 20
-32.09898207839758
 30
16.91210745038797
  0
SPLINE
  5
7D
330
1F
100
AcDbEntity
  8
0
100
AcDbSpline
210
0.0
220
0.0
230
1.0
 70
    24
 71
     2
 72
     6
 73
     3
 74
     0
 42
0.000000001
 43
0.0000000001
 40
0.0
 40
0.0
 40
0.0
 40
1.75
 40
1.75
 40
1.75
 10
9.388338585763258
 20
-32.03231674891227
 30
17.16090584713047
 10
8.513338585763258
 20
-32.03231674891227
 30
17.16090584713047
 10
7.638338585763258
 20
-32.03231674891227
 30
17.16090584713047
  0
SPLINE
  5
7E
330
1F
100
AcDbEntity
  8
0
100
AcDbSpline
210
0.0
220
0.0
230
1.0
 70
    24
 71
     2
 72
     6
 73
     3
 74
     0
 42
0.000000001
 43
0.0000000001
 40
0.0
 40
0.0
 40
0.0
 40
1.75
 40
1.75
 40
1.75
 10
9.38833858576326
 20
-31.86969355037305
 30
17.51462503084889
 10
8.51333858576326
 20
-31.86969355037305
 30
17.51462503084889
 10
7.638338585763259
 20
-31.86969355037305
 30
17.51462503084889
  0
SPLINE
  5
7F
330
1F
100
AcDbEntity
  8
0
100
AcDbSpline
210
0.0
220
0.0
230
1.0
 70
    24
 71
     2
 72
     6
 73
     3
 74
     0
 42
0.000000001
 43
0.0000000001
 40
0.0
 40
0.0
 40
0.0
 40
1.75
 40
1.75
 40
1.75
 10
9.388338585763258
 20
-31.71646608903889
 30
17.78002277899444
 10
8.513338585763258
 20
-31.71646608903889
 30
17.78002277899444
 10
7.638338585763258
 20
-31.71646608903889
 30
17.78002277899444
  0
SPLINE
  5
80
330
1F
100
AcDbEntity
  8
0
100
AcDbSpline
210
0.0
220
0.0
230
1.0
 70
    24
 71
     2
 72
     6
 73
     3
 74
     0
 42
0.000000001
 43
0.0000000001
 40
0.0
 40
0.0
 40
0.0
 40
1.75
 40
1.75
 40
1.75
 10
9.388338585763261
 20
-31.52053727956919
 30
18.01324950508482
 10
8.513338585763261
 20
-31.52053727956919
 30
18.01324950508482
 10
7.638338585763259
 20
-31.52053727956919
 30
18.01324950508482
  0
SPLINE
  5
81
330
1F
100
AcDbEntity
  8
0
100
AcDbSpline
210
0.0
220
0.0
230
1.0
 70
    24
 71
     2
 72
     6
 73
     3
 74
     0
 42
0.000000001
 43
0.0000000001
 40
0.0
 40
0.0
 40
0.0
 40
1.75
 40
1.75
 40
1.75
 10
9.388338585763263
 20
-31.29186532452621
 30
18.21560914821147
 10
8.513338585763263
 20
-31.29186532452621
 30
18.21560914821147
 10
7.638338585763263
 20
-31.29186532452621
 30
18.21560914821147
  0
SPLINE
  5
82
330
1F
100
AcDbEntity
  8
0
100
AcDbSpline
210
0.0
220
0.0
230
1.0
 70
    24
 71
     2
 72
     6
 73
     3
 74
     0
 42
0.000000001
 43
0.0000000001
 40
0.0
 40
0.0
 40
0.0
 40
1.75
 40
1.75
 40
1.75
 10
9.388338585763266
 20
-30.93197141355002
 30
18.44717123766382
 10
8.513338585763266
 20
-30.93197141355002
 30
18.44717123766382
 10
7.638338585763266
 20
-30.93197141355002
 30
18.44717123766382
  0
SPLINE
  5
83
330
1F
100
AcDbEntity
  8
0
100
AcDbSpline
210
0.0
220
0.0
230
1.0
 70
    24
 71
     2
 72
     6
 73
     3
 74
     0
 42
0.000000001
 43
0.0000000001
 40
0.0
 40
0.0
 40
0.0
 40
1.75
 40
1.75
 40
1.75
 10
9.388338585763265
 20
-30.43238515533129
 30
18.64402781380051
 10
8.513338585763265
 20
-30.43238515533129
 30
18.64402781380051
 10
7.638338585763266
 20
-30.43238515533129
 30
18.64402781380051
  0
SPLINE
  5
84
330
1F
100
AcDbEntity
  8
0
100
AcDbSpline
210
0.0
220
0.0
230
1.0
 70
    24
 71
     2
 72
     6
 73
     3
 74
     0
 42
0.000000001
 43
0.0000000001
 40
0.0
 40
0.0
 40
0.0
 40
1.75
 40
1.75
 40
1.75
 10
9.388338585763266
 20
-29.74213797807629
 30
18.81835286105279
 10
8.513338585763266
 20
-29.74213797807629
 30
18.81835286105279
 10
7.638338585763266
 20
-29.74213797807629
 30
18.81835286105279
  0
SPLINE
  5
85
330
1F
100
AcDbEntity
  8
0
100
AcDbSpline
210
0.0
220
0.0
230
1.0
 70
    24
 71
     2
 72
     6
 73
     3
 74
     0
 42
0.000000001
 43
0.0000000001
 40
0.0
 40
0.0
 40
0.0
 40
1.75
 40
1.75
 40
1.75
 10
9.388338585763265
 20
-28.86642192447946
 30
19.05300027041303
 10
8.513338585763265
 20
-28.86642192447946
 30
19.05300027041303
 10
7.638338585763265
 20
-28.86642192447946
 30
19.05300027041303
  0
SPLINE
  5
86
330
1F
100
AcDbEntity
  8
0
100
AcDbSpline
210
0.0
220
0.0
230
1.0
 70
    24
 71
     2
 72
     6
 73
     3
 74
     0
 42
0.000000001
 43
0.0000000001
 40
0.0
 40
0.0
 40
0.0
 40
1.75
 40
1.75
 40
1.75
 10
9.388338585763265
 20
-28.05885690096039
 30
19.36640330670267
 10
8.513338585763265
 20
-28.05885690096039
 30
19.36640330670267
 10
7.638338585763265
 20
-28.05885690096039
 30
19.36640330670267
  0
SPLINE
  5
87
330
1F
100
AcDbEntity
  8
0
100
AcDbSpline
210
0.0
220
0.0
230
1.0
 70
    24
 71
     2
 72
     6
 73
     3
 74
     0
 42
0.000000001
 43
0.0000000001
 40
0.0
 40
0.0
 40
0.0
 40
1.75
 40
1.75
 40
1.75
 10
9.388338585763265
 20
-27.42214858380843
 30
19.71177237112607
 10
8.513338585763265
 20
-27.42214858380843
 30
19.71177237112607
 10
7.638338585763266
 20
-27.42214858380843
 30
19.71177237112607
  0
SPLINE
  5
88
330
1F
100
AcDbEntity
  8
0
100
AcDbSpline
210
0.0
220
0.0
230
1.0
 70
    24
 71
     2
 72
     6
 73
     3
 74
     0
 42
0.000000001
 43
0.0000000001
 40
0.0
 40
0.0
 40
0.0
 40
1.75
 40
1.75
 40
1.75
 10
9.388338585763266
 20
-26.94452982352929
 30
20.06009292470157
 10
8.513338585763266
 20
-26.94452982352929
 30
20.06009292470157
 10
7.638338585763266
 20
-26.94452982352929
 30
20.06009292470157
  0
SPLINE
  5
89
330
1F
100
AcDbEntity
  8
0
100
AcDbSpline
210
0.0
220
0.0
230
1.0
 70
    24
 71
     2
 72
     6
 73
     3
 74
     0
 42
0.000000001
 43
0.0000000001
 40
0.0
 40
0.0
 40
0.0
 40
1.75
 40
1.75
 40
1.75
 10
9.388338585763265
 20
-26.55738981258476
 30
20.41118679141487
 10
8.513338585763265
 20
-26.55738981258476
 30
20.41118679141487
 10
7.638338585763266
 20
-26.55738981258476
 30
20.41118679141487
  0
SPLINE
  5
8A
330
1F
100
AcDbEntity
  8
0
100
AcDbSpline
210
0.0
220
0.0
230
1.0
 70
    24
 71
     2
 72
     6
 73
     3
 74
     0
 42
0.000000001
 43
0.0000000001
 40
0.0
 40
0.0
 40
0.0
 40
1.75
 40
1.75
 40
1.75
 10
9.388338585763266
 20
-26.05221312898654
 30
21.09644467241393
 10
8.513338585763266
 20
-26.05221312898654
 30
21.09644467241393
 10
7.638338585763266
 20
-26.05221312898654
 30
21.09644467241393
  0
SPLINE
  5
8B
330
1F
100
AcDbEntity
  8
0
100
AcDbSpline
210
0.0
220
0.0
230
1.0
 70
    24
 71
     2
 72
     6
 73
     3
 74
     0
 42
0.000000001
 43
0.0000000001
 40
0.0
 40
0.0
 40
0.0
 40
1.75
 40
1.75
 40
1.75
 10
9.388338585763268
 20
-25.3851549885878
 30
22.251823263187
 10
8.513338585763268
 20
-25.3851549885878
 30
22.251823263187
 10
7.638338585763268
 20
-25.3851549885878
 30
22.251823263187
  0
SPLINE
  5
8C
330
1F
100
AcDbEntity
  8
0
100
AcDbSpline
210
0.0
220
0.0
230
1.0
 70
    24
 71
     2
 72
     6
 73
     3
 74
     0
 42
0.000000001
 43
0.0000000001
 40
0.0
 40
0.0
 40
0.0
 40
1.75
 40
1.75
 40
1.75
 10
9.388338585763272
 20
-24.73158872106219
 30
23.3838332446545
 10
8.513338585763272
 20
-24.73158872106219
 30
23.3838332446545
 10
7.638338585763273
 20
-24.73158872106219
 30
23.3838332446545
  0
SPLINE
  5
8D
330
1F
100
AcDbEntity
  8
0
100
AcDbSpline
210
0.0
220
0.0
230
1.0
 70
    24
 71
     2
 72
     6
 73
     3
 74
     0
 42
0.000000001
 43
0.0000000001
 40
0.0
 40
0.0
 40
0.0
 40
1.75
 40
1.75
 40
1.75
 10
9.388338585763272
 20
-24.14156585572087
 30
24.23519357490451
 10
8.513338585763272
 20
-24.14156585572087
 30
24.23519357490451
 10
7.638338585763273
 20
-24.14156585572087
 30
24.23519357490451
  0
SPLINE
  5
8E
330
1F
100
AcDbEntity
  8
0
100
AcDbSpline
210
0.0
220
0.0
230
1.0
 70
    24
 71
     2
 72
     6
 73
     3
 74
     0
 42
0.000000001
 43
0.0000000001
 40
0.0
 40
0.0
 40
0.0
 40
1.75
 40
1.75
 40
1.75
 10
9.388338585763274
 20
-23.44372523385368
 30
25.05454234829932
 10
8.513338585763274
 20
-23.44372523385368
 30
25.05454234829932
 10
7.638338585763274
 20
-23.44372523385368
 30
25.05454234829932
  0
SPLINE
  5
8F
330
1F
100
AcDbEntity
  8
0
100
AcDbSpline
210
0.0
220
0.0
230
1.0
 70
    24
 71
     2
 72
     6
 73
     3
 74
     0
 42
0.000000001
 43
0.0000000001
 40
0.0
 40
0.0
 40
0.0
 40
1.75
 40
1.75
 40
1.75
 10
9.388338585763274
 20
-22.61891354844563
 30
25.80092659797631
 10
8.513338585763274
 20
-22.61891354844563
 30
25.80092659797631
 10
7.638338585763274
 20
-22.61891354844563
 30
25.80092659797631
  0
SPLINE
  5
90
330
1F
100
AcDbEntity
  8
0
100
AcDbSpline
210
0.0
220
0.0
230
1.0
 70
    24
 71
     2
 72
     6
 73
     3
 74
     0
 42
0.000000001
 43
0.0000000001
 40
0.0
 40
0.0
 40
0.0
 40
1.75
 40
1.75
 40
1.75
 10
9.388338585763272
 20
-21.68263834175776
 30
26.34148534059312
 10
8.513338585763272
 20
-21.68263834175776
 30
26.34148534059312
 10
7.638338585763274
 20
-21.68263834175776
 30
26.34148534059312
  0
SPLINE
  5
91
330
1F
100
AcDbEntity
  8
0
100
AcDbSpline
210
0.0
220
0.0
230
1.0
 70
    24
 71
     2
 72
     6
 73
     3
 74
     0
 42
0.000000001
 43
0.0000000001
 40
0.0
 40
0.0
 40
0.0
 40
1.75
 40
1.75
 40
1.75
 10
9.388338585763274
 20
-20.8893850454267
 30
26.64224830629326
 10
8.513338585763274
 20
-20.8893850454267
 30
26.64224830629326
 10
7.638338585763274
 20
-20.8893850454267
 30
26.64224830629326
  0
SPLINE
  5
92
330
1F
100
AcDbEntity
  8
0
100
AcDbSpline
210
0.0
220
0.0
230
1.0
 70
    24
 71
     2
 72
     6
 73
     3
 74
     0
 42
0.000000001
 43
0.0000000001
 40
0.0
 40
0.0
 40
0.0
 40
1.75
 40
1.75
 40
1.75
 10
9.388338585763274
 20
-19.72050313467957
 30
26.89676196872751
 10
8.513338585763274
 20
-19.72050313467957
 30
26.89676196872751
 10
7.638338585763274
 20
-19.72050313467957
 30
26.89676196872751
  0
LINE
  5
93
330
1F
100
AcDbEntity
  8
0
100
AcDbLine
 10
7.638338585763265
 20
-30.69535449165805
 30
16.38223312382162
 11
9.388338585763263
 21
-30.69535449165805
 31
16.38223312382162
  0
LINE
  5
94
330
1F
100
AcDbEntity
  8
0
100
AcDbLine
 10
8.513338585763266
 20
-29.22802298166949
 30
16.38223312382162
 11
8.513338585763263
 21
-32.16268600164661
 31
16.38223312382162
  0
SPLINE
  5
95
330
1F
100
AcDbEntity
  8
0
100
AcDbSpline
210
-1.0
220
-8.023780286015661E-16
230
3.245637194314211E-15
 70
     8
 71
     3
 72
    24
 73
    20
 74
     0
 42
0.000000001
 43
0.0000000001
 40
0.4333124023105986
 40
0.4333124023105986
 40
0.4333124023105986
 40
0.4333124023105986
 40
1.887237099064775
 40
4.861575131712394
 40
7.959544911317729
 40
10.82505960183766
 40
13.43237100267127
 40
17.02718300901096
 40
18.92359569464653
 40
20.54864129392536
 40
21.94739410920529
 40
24.34888365059554
 40
26.36892058692199
 40
29.09627411585996
 40
30.93122250592336
 40
33.62280461490998
 40
35.65022308519314
 40
36.71146164613257
 40
38.06843589525378
 40
38.06843589525378
 40
38.06843589525378
 40
38.06843589525378
 10
8.513338585763274
 20
-18.91268600164404
 30
21.12158819867152
 10
8.513338585763274
 20
-19.05966701874738
 30
21.10089154835558
 10
8.513338585763274
 20
-19.50643240249953
 30
21.03262336224032
 10
8.513338585763274
 20
-20.24547808931683
 30
20.79864226619176
 10
8.513338585763274
 20
-21.04032708128331
 30
20.34367449942629
 10
8.513338585763274
 20
-21.76019158500623
 30
19.84703415286918
 10
8.513338585763274
 20
-22.50550580796958
 30
19.29836145763642
 10
8.513338585763274
 20
-23.16940756003813
 30
18.80639833371298
 10
8.513338585763274
 20
-23.74382854769837
 30
18.36144522426233
 10
8.513338585763274
 20
-24.16279926797098
 30
18.08445514208
 10
8.51333858576327
 20
-24.629850165175
 30
17.78633808195708
 10
8.513338585763266
 20
-25.16570962923115
 30
17.52790421545629
 10
8.513338585763266
 20
-25.82883626023762
 30
17.22257126918461
 10
8.513338585763266
 20
-26.46968560230766
 30
17.0175066325796
 10
8.513338585763266
 20
-27.17533790614671
 30
16.79377034605591
 10
8.513338585763263
 20
-27.83381462991703
 30
16.66331222297895
 10
8.513338585763266
 20
-28.42117052787969
 30
16.60891232737254
 10
8.513338585763266
 20
-28.86768394636024
 30
16.52073417149442
 10
8.513338585763266
 20
-29.09850071318253
 30
16.43201671128948
 10
8.513338585763266
 20
-29.22802298166949
 30
16.38223312382162
  0
SPLINE
  5
96
330
1F
100
AcDbEntity
  8
0
100
AcDbSpline
210
0.0
220
0.0
230
1.0
 70
    24
 71
     2
 72
     6
 73
     3
 74
     0
 42
0.000000001
 43
0.0000000001
 40
0.0
 40
0.0
 40
0.0
 40
1.75
 40
1.75
 40
1.75
 10
9.38833858576327
 20
-19.35175278653411
 30
21.04858138014118
 10
8.513338585763272
 20
-19.35175278653411
 30
21.04858138014118
 10
7.638338585763272
 20
-19.35175278653411
 30
21.04858138014118
  0
SPLINE
  5
97
330
1F
100
AcDbEntity
  8
0
100
AcDbSpline
210
0.0
220
0.0
230
1.0
 70
    24
 71
     2
 72
     6
 73
     3
 74
     0
 42
0.000000001
 43
0.0000000001
 40
0.0
 40
0.0
 40
0.0
 40
1.75
 40
1.75
 40
1.75
 10
9.388338585763272
 20
-20.21983982594526
 30
20.77361767572404
 10
8.513338585763272
 20
-20.21983982594526
 30
20.77361767572404
 10
7.638338585763272
 20
-20.21983982594526
 30
20.77361767572404
  0
SPLINE
  5
98
330
1F
100
AcDbEntity
  8
0
100
AcDbSpline
210
0.0
220
0.0
230
1.0
 70
    24
 71
     2
 72
     6
 73
     3
 74
     0
 42
0.000000001
 43
0.0000000001
 40
0.0
 40
0.0
 40
0.0
 40
1.75
 40
1.75
 40
1.75
 10
9.388338585763274
 20
-21.05304838549731
 30
20.32050854120096
 10
8.513338585763274
 20
-21.05304838549731
 30
20.32050854120096
 10
7.638338585763273
 20
-21.05304838549731
 30
20.32050854120096
  0
SPLINE
  5
99
330
1F
100
AcDbEntity
  8
0
100
AcDbSpline
210
0.0
220
0.0
230
1.0
 70
    24
 71
     2
 72
     6
 73
     3
 74
     0
 42
0.000000001
 43
0.0000000001
 40
0.0
 40
0.0
 40
0.0
 40
1.75
 40
1.75
 40
1.75
 10
9.388338585763274
 20
-21.77918440975034
 30
19.82822663374787
 10
8.513338585763274
 20
-21.77918440975034
 30
19.82822663374787
 10
7.638338585763274
 20
-21.77918440975034
 30
19.82822663374787
  0
SPLINE
  5
9A
330
1F
100
AcDbEntity
  8
0
100
AcDbSpline
210
0.0
220
0.0
230
1.0
 70
    24
 71
     2
 72
     6
 73
     3
 74
     0
 42
0.000000001
 43
0.0000000001
 40
0.0
 40
0.0
 40
0.0
 40
1.75
 40
1.75
 40
1.75
 10
9.388338585763272
 20
-22.42410040598144
 30
19.3578528458562
 10
8.513338585763272
 20
-22.42410040598144
 30
19.3578528458562
 10
7.638338585763271
 20
-22.42410040598144
 30
19.3578528458562
  0
SPLINE
  5
9B
330
1F
100
AcDbEntity
  8
0
100
AcDbSpline
210
0.0
220
0.0
230
1.0
 70
    24
 71
     2
 72
     6
 73
     3
 74
     0
 42
0.000000001
 43
0.0000000001
 40
0.0
 40
0.0
 40
0.0
 40
1.75
 40
1.75
 40
1.75
 10
9.388338585763274
 20
-23.30567701281981
 30
18.69903880774579
 10
8.513338585763274
 20
-23.30567701281981
 30
18.69903880774579
 10
7.638338585763274
 20
-23.30567701281981
 30
18.69903880774579
  0
SPLINE
  5
9C
330
1F
100
AcDbEntity
  8
0
100
AcDbSpline
210
0.0
220
0.0
230
1.0
 70
    24
 71
     2
 72
     6
 73
     3
 74
     0
 42
0.000000001
 43
0.0000000001
 40
0.0
 40
0.0
 40
0.0
 40
1.75
 40
1.75
 40
1.75
 10
9.388338585763274
 20
-23.77026107092388
 30
18.3508400116417
 10
8.513338585763274
 20
-23.77026107092388
 30
18.3508400116417
 10
7.638338585763274
 20
-23.77026107092388
 30
18.3508400116417
  0
SPLINE
  5
9D
330
1F
100
AcDbEntity
  8
0
100
AcDbSpline
210
0.0
220
0.0
230
1.0
 70
    24
 71
     2
 72
     6
 73
     3
 74
     0
 42
0.000000001
 43
0.0000000001
 40
0.0
 40
0.0
 40
0.0
 40
1.75
 40
1.75
 40
1.75
 10
9.388338585763274
 20
-24.18288513475941
 30
18.07289191690987
 10
8.513338585763274
 20
-24.18288513475941
 30
18.07289191690987
 10
7.638338585763273
 20
-24.18288513475941
 30
18.07289191690987
  0
SPLINE
  5
9E
330
1F
100
AcDbEntity
  8
0
100
AcDbSpline
210
0.0
220
0.0
230
1.0
 70
    24
 71
     2
 72
     6
 73
     3
 74
     0
 42
0.000000001
 43
0.0000000001
 40
0.0
 40
0.0
 40
0.0
 40
1.75
 40
1.75
 40
1.75
 10
9.38833858576327
 20
-24.54660548126466
 30
17.84686811259335
 10
8.51333858576327
 20
-24.54660548126466
 30
17.84686811259335
 10
7.63833858576327
 20
-24.54660548126466
 30
17.84686811259335
  0
SPLINE
  5
9F
330
1F
100
AcDbEntity
  8
0
100
AcDbSpline
210
0.0
220
0.0
230
1.0
 70
    24
 71
     2
 72
     6
 73
     3
 74
     0
 42
0.000000001
 43
0.0000000001
 40
0.0
 40
0.0
 40
0.0
 40
1.75
 40
1.75
 40
1.75
 10
9.388338585763266
 20
-25.20173149158607
 30
17.51317340012805
 10
8.513338585763266
 20
-25.20173149158607
 30
17.51317340012805
 10
7.638338585763267
 20
-25.20173149158607
 30
17.51317340012805
  0
SPLINE
  5
A0
330
1F
100
AcDbEntity
  8
0
100
AcDbSpline
210
0.0
220
0.0
230
1.0
 70
    24
 71
     2
 72
     6
 73
     3
 74
     0
 42
0.000000001
 43
0.0000000001
 40
0.0
 40
0.0
 40
0.0
 40
1.75
 40
1.75
 40
1.75
 10
9.388338585763265
 20
-25.76717926128892
 30
17.26271469013335
 10
8.513338585763265
 20
-25.76717926128892
 30
17.26271469013335
 10
7.638338585763266
 20
-25.76717926128892
 30
17.26271469013335
  0
SPLINE
  5
A1
330
1F
100
AcDbEntity
  8
0
100
AcDbSpline
210
0.0
220
0.0
230
1.0
 70
    24
 71
     2
 72
     6
 73
     3
 74
     0
 42
0.000000001
 43
0.0000000001
 40
0.0
 40
0.0
 40
0.0
 40
1.75
 40
1.75
 40
1.75
 10
9.388338585763266
 20
-26.55643929305883
 30
16.99021046346869
 10
8.513338585763266
 20
-26.55643929305883
 30
16.99021046346869
 10
7.638338585763266
 20
-26.55643929305883
 30
16.99021046346869
  0
SPLINE
  5
A2
330
1F
100
AcDbEntity
  8
0
100
AcDbSpline
210
0.0
220
0.0
230
1.0
 70
    24
 71
     2
 72
     6
 73
     3
 74
     0
 42
0.000000001
 43
0.0000000001
 40
0.0
 40
0.0
 40
0.0
 40
1.75
 40
1.75
 40
1.75
 10
9.388338585763266
 20
-27.09437883050189
 30
16.82832851825573
 10
8.513338585763266
 20
-27.09437883050189
 30
16.82832851825573
 10
7.638338585763266
 20
-27.09437883050189
 30
16.82832851825573
  0
SPLINE
  5
A3
330
1F
100
AcDbEntity
  8
0
100
AcDbSpline
210
0.0
220
0.0
230
1.0
 70
    24
 71
     2
 72
     6
 73
     3
 74
     0
 42
0.000000001
 43
0.0000000001
 40
0.0
 40
0.0
 40
0.0
 40
1.75
 40
1.75
 40
1.75
 10
9.388338585763265
 20
-27.90229993638148
 30
16.66620213130666
 10
8.513338585763265
 20
-27.90229993638148
 30
16.66620213130666
 10
7.638338585763265
 20
-27.90229993638148
 30
16.66620213130666
  0
SPLINE
  5
A4
330
1F
100
AcDbEntity
  8
0
100
AcDbSpline
210
0.0
220
0.0
230
1.0
 70
    24
 71
     2
 72
     6
 73
     3
 74
     0
 42
0.000000001
 43
0.0000000001
 40
0.0
 40
0.0
 40
0.0
 40
1.75
 40
1.75
 40
1.75
 10
9.388338585763265
 20
-28.51778365706593
 30
16.58594762292166
 10
8.513338585763265
 20
-28.51778365706593
 30
16.58594762292166
 10
7.638338585763266
 20
-28.51778365706593
 30
16.58594762292166
  0
SPLINE
  5
A5
330
1F
100
AcDbEntity
  8
0
100
AcDbSpline
210
0.0
220
0.0
230
1.0
 70
    24
 71
     2
 72
     6
 73
     3
 74
     0
 42
0.000000001
 43
0.0000000001
 40
0.0
 40
0.0
 40
0.0
 40
1.75
 40
1.75
 40
1.75
 10
9.388338585763266
 20
-28.83565694980488
 30
16.51875140060834
 10
8.513338585763266
 20
-28.83565694980488
 30
16.51875140060834
 10
7.638338585763266
 20
-28.83565694980488
 30
16.51875140060834
  0
LINE
  5
A6
330
1F
100
AcDbEntity
  8
0
100
AcDbLine
 10
9.388338585763274
 20
-18.91268600164662
 30
24.00917508370866
 11
7.638338585763277
 21
-18.91268600164661
 31
24.00917508370866
  0
LINE
  5
A7
330
1F
100
AcDbEntity
  8
0
100
AcDbLine
 10
8.513338585763275
 20
-18.91268600164661
 30
21.1215881986898
 11
8.513338585763275
 21
-18.91268600164661
 31
26.89676196872752
  0
LINE
  5
A8
330
1F
100
AcDbEntity
  8
0
100
AcDbLine
 10
7.638338585763276
 20
-18.91268600164661
 30
21.65789172861873
 11
7.638338585763269
 21
-25.71766443774842
 31
21.65789172861873
  0
LINE
  5
A9
330
1F
100
AcDbEntity
  8
0
100
AcDbLine
 10
7.638338585763269
 20
-25.54265429767516
 30
17.35707115924723
 11
7.638338585763269
 21
-25.54265429767516
 31
21.96804854651238
  0
LINE
  5
AA
330
1F
100
AcDbEntity
  8
0
100
AcDbLine
 10
9.388338585763277
 20
-18.91268600164661
 30
21.65789172861873
 11
9.388338585763272
 21
-25.71766443774842
 31
21.65789172861873
  0
LINE
  5
AB
330
1F
100
AcDbEntity
  8
0
100
AcDbLine
 10
9.388338585763272
 20
-25.54265429767517
 30
17.35707115924723
 11
9.388338585763272
 21
-25.54265429767517
 31
21.96804854651238
  0
SPLINE
  5
AC
330
1F
100
AcDbEntity
  8
0
100
AcDbSpline
210
1.571848590695608E-16
220
-1.0
230
-5.517274818174939E-16
 70
     8
 71
     3
 72
    32
 73
    28
 74
     0
 42
0.000000001
 43
0.0000000001
 40
-18.03839658274429
 40
-18.03839658274429
 40
-18.03839658274429
 40
-18.03839658274429
 40
-17.69217701953705
 40
-17.50173288061489
 40
-17.24415782674316
 40
-16.85484617056838
 40
-16.54839124790006
 40
-16.24378854905606
 40
-15.9384358215596
 40
-15.51048181885688
 40
-14.97350980751062
 40
-14.26158959582394
 40
-13.35498162473243
 40
-12.488735279651
 40
-11.76438918019911
 40
-11.17324885150065
 40
-10.65061677123976
 40
-9.799275567536675
 40
-8.465159286739164
 40
-7.158026751687945
 40
-6.122197907935758
 40
-5.045947962062792
 40
-3.933561444456823
 40
-2.852443959223192
 40
-2.00408722194998
 40
-0.8078171330329598
 40
0.0
 40
0.0
 40
0.0
 40
0.0
 10
-9.086847415883314
 20
-15.43749999999997
 30
16.38223312382162
 10
-9.090744015464312
 20
-15.43749999999997
 30
16.4989255956485
 10
-9.09678400794043
 20
-15.43749999999997
 30
16.67980680686925
 10
-9.01290261695439
 20
-15.43749999999997
 30
16.93271761598395
 10
-8.957062115363483
 20
-15.43749999999997
 30
17.20727789152545
 10
-8.806393445864762
 20
-15.43749999999997
 30
17.49035862318865
 10
-8.650847638347257
 20
-15.43749999999997
 30
17.78585740322993
 10
-8.449134670643941
 20
-15.43749999999997
 30
18.01850345909667
 10
-8.189284146996036
 20
-15.43749999999997
 30
18.24744433539036
 10
-7.831777782650596
 20
-15.43749999999997
 30
18.47976778901218
 10
-7.303950858626704
 20
-15.43749999999997
 30
18.67461856867298
 10
-6.60236450293017
 20
-15.43749999999997
 30
18.82928462949517
 10
-5.798100032955587
 20
-15.43749999999997
 30
19.0316829682401
 10
-5.019693533707184
 20
-15.43749999999997
 30
19.33220574858708
 10
-4.374569172474551
 20
-15.43749999999997
 30
19.67394110039449
 10
-3.882337899746833
 20
-15.43749999999997
 30
20.04004654340644
 10
-3.385531099498078
 20
-15.43749999999997
 30
20.47153946362214
 10
-2.876863824263413
 20
-15.43749999999997
 30
21.22724417844901
 10
-2.313831924292142
 20
-15.43749999999997
 30
22.24316140541761
 10
-1.720155943933609
 20
-15.43749999999997
 30
23.31717761081766
 10
-1.071512361288033
 20
-15.43749999999997
 30
24.25685442286698
 10
-0.3744211365494898
 20
-15.43749999999997
 30
25.07603212338663
 10
0.4210983713546845
 20
-15.43749999999997
 30
25.83066632649845
 10
1.313334997221684
 20
-15.43749999999997
 30
26.33342816363309
 10
2.289990673018476
 20
-15.43749999999997
 30
26.6931204842964
 10
3.223149618416546
 20
-15.43749999999997
 30
26.93355033341584
 10
3.893104102756091
 20
-15.43749999999997
 30
26.90733070348509
 10
4.163152584116677
 20
-15.43749999999997
 30
26.89676196872752
  0
SPLINE
  5
AD
330
1F
100
AcDbEntity
  8
0
100
AcDbSpline
210
0.0
220
0.0
230
1.0
 70
    24
 71
     2
 72
     6
 73
     3
 74
     0
 42
0.000000001
 43
0.0000000001
 40
0.0
 40
0.0
 40
0.0
 40
1.75
 40
1.75
 40
1.75
 10
4.163152584116677
 20
-15.43749999999997
 30
26.89676196872752
 10
4.163152584116677
 20
-14.56249999999997
 30
26.89676196872752
 10
4.163152584116678
 20
-13.68749999999997
 30
26.89676196872752
  0
SPLINE
  5
AE
330
1F
100
AcDbEntity
  8
0
100
AcDbSpline
210
1.571848590695609E-16
220
-1.0
230
-5.517274818174940E-16
 70
     8
 71
     3
 72
    32
 73
    28
 74
     0
 42
0.000000001
 43
0.0000000001
 40
0.0
 40
0.0
 40
0.0
 40
0.0
 40
0.8078171330329598
 40
2.00408722194998
 40
2.852443959223192
 40
3.933561444456823
 40
5.045947962062792
 40
6.122197907935758
 40
7.158026751687945
 40
8.465159286739164
 40
9.799275567536675
 40
10.65061677123976
 40
11.17324885150065
 40
11.76438918019911
 40
12.488735279651
 40
13.35498162473243
 40
14.26158959582394
 40
14.97350980751062
 40
15.51048181885688
 40
15.9384358215596
 40
16.24378854905606
 40
16.54839124790006
 40
16.85484617056838
 40
17.24415782674316
 40
17.50173288061489
 40
17.69217701953705
 40
18.03839658274429
 40
18.03839658274429
 40
18.03839658274429
 40
18.03839658274429
 10
4.163152584116678
 20
-13.68749999999997
 30
26.89676196872752
 10
3.893104102756092
 20
-13.68749999999997
 30
26.90733070348509
 10
3.223149618416547
 20
-13.68749999999997
 30
26.93355033341584
 10
2.289990673018477
 20
-13.68749999999997
 30
26.6931204842964
 10
1.313334997221685
 20
-13.68749999999997
 30
26.33342816363309
 10
0.4210983713546856
 20
-13.68749999999997
 30
25.83066632649845
 10
-0.3744211365494887
 20
-13.68749999999997
 30
25.07603212338663
 10
-1.071512361288032
 20
-13.68749999999997
 30
24.25685442286698
 10
-1.720155943933607
 20
-13.68749999999997
 30
23.31717761081766
 10
-2.313831924292141
 20
-13.68749999999997
 30
22.24316140541761
 10
-2.876863824263412
 20
-13.68749999999997
 30
21.22724417844901
 10
-3.385531099498076
 20
-13.68749999999997
 30
20.47153946362214
 10
-3.882337899746832
 20
-13.68749999999997
 30
20.04004654340644
 10
-4.374569172474549
 20
-13.68749999999997
 30
19.67394110039449
 10
-5.019693533707182
 20
-13.68749999999997
 30
19.33220574858708
 10
-5.798100032955585
 20
-13.68749999999997
 30
19.0316829682401
 10
-6.602364502930168
 20
-13.68749999999997
 30
18.82928462949517
 10
-7.303950858626703
 20
-13.68749999999997
 30
18.67461856867298
 10
-7.831777782650594
 20
-13.68749999999997
 30
18.47976778901218
 10
-8.189284146996034
 20
-13.68749999999997
 30
18.24744433539036
 10
-8.44913467064394
 20
-13.68749999999997
 30
18.01850345909667
 10
-8.650847638347255
 20
-13.68749999999997
 30
17.78585740322993
 10
-8.80639344586476
 20
-13.68749999999997
 30
17.49035862318865
 10
-8.957062115363481
 20
-13.68749999999997
 30
17.20727789152545
 10
-9.012902616954388
 20
-13.68749999999997
 30
16.93271761598395
 10
-9.096784007940428
 20
-13.68749999999997
 30
16.67980680686925
 10
-9.09074401546431
 20
-13.68749999999997
 30
16.4989255956485
 10
-9.086847415883312
 20
-13.68749999999997
 30
16.38223312382162
  0
SPLINE
  5
AF
330
1F
100
AcDbEntity
  8
0
100
AcDbSpline
210
0.0
220
0.0
230
1.0
 70
    24
 71
     2
 72
     6
 73
     3
 74
     0
 42
0.000000001
 43
0.0000000001
 40
-1.75
 40
-1.75
 40
-1.75
 40
0.0
 40
0.0
 40
0.0
 10
-9.086847415883312
 20
-13.68749999999997
 30
16.38223312382162
 10
-9.086847415883312
 20
-14.56249999999997
 30
16.38223312382162
 10
-9.086847415883314
 20
-15.43749999999997
 30
16.38223312382162
  0
SPLINE
  5
B0
330
1F
100
AcDbEntity
  8
0
100
AcDbSpline
210
0.0
220
0.0
230
1.0
 70
    24
 71
     2
 72
     6
 73
     3
 74
     0
 42
0.000000001
 43
0.0000000001
 40
0.0
 40
0.0
 40
0.0
 40
2.934663019977112
 40
2.934663019977112
 40
2.934663019977112
 10
-9.086847415883312
 20
-13.68749999999997
 30
16.38223312382162
 10
-7.619515905894756
 20
-13.68749999999997
 30
16.38223312382162
 10
-6.152184395906201
 20
-13.68749999999997
 30
16.38223312382162
  0
SPLINE
  5
B1
330
1F
100
AcDbEntity
  8
0
100
AcDbSpline
210
0.0
220
0.0
230
1.0
 70
    24
 71
     2
 72
     6
 73
     3
 74
     0
 42
0.000000001
 43
0.0000000001
 40
-1.749999999999996
 40
-1.749999999999996
 40
-1.749999999999996
 40
0.0
 40
0.0
 40
0.0
 10
-6.152184395906201
 20
-13.68749999999997
 30
16.38223312382162
 10
-6.152184395906201
 20
-14.56249999999997
 30
16.38223312382162
 10
-6.152184395906201
 20
-15.43749999999997
 30
16.38223312382162
  0
SPLINE
  5
B2
330
1F
100
AcDbEntity
  8
0
100
AcDbSpline
210
0.0
220
0.0
230
1.0
 70
    24
 71
     2
 72
     6
 73
     3
 74
     0
 42
0.000000001
 43
0.0000000001
 40
-2.934663019977112
 40
-2.934663019977112
 40
-2.934663019977112
 40
0.0
 40
0.0
 40
0.0
 10
-6.152184395906201
 20
-15.43749999999997
 30
16.38223312382162
 10
-7.619515905894758
 20
-15.43749999999997
 30
16.38223312382162
 10
-9.086847415883314
 20
-15.43749999999997
 30
16.38223312382162
  0
SPLINE
  5
B3
330
1F
100
AcDbEntity
  8
0
100
AcDbSpline
210
3.722888856866466E-15
220
1.0
230
-6.603730939290870E-15
 70
     8
 71
     3
 72
    24
 73
    20
 74
     0
 42
0.000000001
 43
0.0000000001
 40
0.4333124023105986
 40
0.4333124023105986
 40
0.4333124023105986
 40
0.4333124023105986
 40
1.887237099064775
 40
4.861575131712394
 40
7.959544911317729
 40
10.82505960183766
 40
13.43237100267127
 40
17.02718300901096
 40
18.92359569464653
 40
20.54864129392536
 40
21.94739410920529
 40
24.34888365059554
 40
26.36892058692199
 40
29.09627411585996
 40
30.93122250592336
 40
33.62280461490998
 40
35.65022308519314
 40
36.71146164613257
 40
38.06843589525378
 40
38.06843589525378
 40
38.06843589525378
 40
38.06843589525378
 10
4.163152584117534
 20
-15.43749999999997
 30
21.12158819868371
 10
4.016171567014216
 20
-15.43749999999997
 30
21.10089154836761
 10
3.569406183262131
 20
-15.43749999999997
 30
21.0326233622519
 10
2.830360496444952
 20
-15.43749999999997
 30
20.79864226620251
 10
2.035511504478607
 20
-15.43749999999997
 30
20.34367449943605
 10
1.315647000755813
 20
-15.43749999999997
 30
19.84703415287803
 10
0.5703327777926062
 20
-15.43749999999997
 30
19.29836145764429
 10
-0.0935689742758258
 20
-15.43749999999997
 30
18.80639833371998
 10
-0.6679899619359586
 20
-15.43749999999997
 30
18.36144522426857
 10
-1.086960682208495
 20
-15.43749999999997
 30
18.08445514208571
 10
-1.55401157941243
 20
-15.43749999999997
 30
17.7863380819622
 10
-2.089871043468485
 20
-15.43749999999997
 30
17.52790421546076
 10
-2.752997674474852
 20
-15.43749999999997
 30
17.2225712691883
 10
-3.393847016544792
 20
-15.43749999999997
 30
17.01750663258257
 10
-4.099499320383723
 20
-15.43749999999996
 30
16.7937703460581
 10
-4.757976044153944
 20
-15.43749999999996
 30
16.66331222298044
 10
-5.345331942116525
 20
-15.43749999999996
 30
16.60891232737342
 10
-5.791845360597008
 20
-15.43749999999996
 30
16.52073417149483
 10
-6.022662127419264
 20
-15.43749999999997
 30
16.43201671128963
 10
-6.152184395906201
 20
-15.43749999999997
 30
16.38223312382162
  0
SPLINE
  5
B4
330
1F
100
AcDbEntity
  8
0
100
AcDbSpline
210
3.722888856866467E-15
220
1.0
230
-6.603730939290872E-15
 70
     8
 71
     3
 72
    24
 73
    20
 74
     0
 42
0.000000001
 43
0.0000000001
 40
-38.06843589525378
 40
-38.06843589525378
 40
-38.06843589525378
 40
-38.06843589525378
 40
-36.71146164613257
 40
-35.65022308519314
 40
-33.62280461490998
 40
-30.93122250592336
 40
-29.09627411585996
 40
-26.36892058692199
 40
-24.34888365059554
 40
-21.94739410920529
 40
-20.54864129392536
 40
-18.92359569464653
 40
-17.02718300901096
 40
-13.43237100267127
 40
-10.82505960183766
 40
-7.959544911317729
 40
-4.861575131712394
 40
-1.887237099064775
 40
-0.4333124023105986
 40
-0.4333124023105986
 40
-0.4333124023105986
 40
-0.4333124023105986
 10
-6.152184395906201
 20
-13.68749999999997
 30
16.38223312382162
 10
-6.022662127419264
 20
-13.68749999999997
 30
16.43201671128963
 10
-5.791845360597008
 20
-13.68749999999997
 30
16.52073417149483
 10
-5.345331942116525
 20
-13.68749999999997
 30
16.60891232737342
 10
-4.757976044153944
 20
-13.68749999999997
 30
16.66331222298044
 10
-4.099499320383723
 20
-13.68749999999997
 30
16.7937703460581
 10
-3.393847016544792
 20
-13.68749999999997
 30
17.01750663258257
 10
-2.752997674474852
 20
-13.68749999999998
 30
17.2225712691883
 10
-2.089871043468485
 20
-13.68749999999997
 30
17.52790421546076
 10
-1.554011579412429
 20
-13.68749999999997
 30
17.7863380819622
 10
-1.086960682208494
 20
-13.68749999999997
 30
18.08445514208571
 10
-0.6679899619359579
 20
-13.68749999999997
 30
18.36144522426857
 10
-0.0935689742758251
 20
-13.68749999999998
 30
18.80639833371998
 10
0.5703327777926069
 20
-13.68749999999998
 30
19.29836145764429
 10
1.315647000755814
 20
-13.68749999999997
 30
19.84703415287803
 10
2.035511504478608
 20
-13.68749999999997
 30
20.34367449943605
 10
2.830360496444952
 20
-13.68749999999997
 30
20.79864226620251
 10
3.569406183262132
 20
-13.68749999999998
 30
21.0326233622519
 10
4.016171567014217
 20
-13.68749999999998
 30
21.10089154836761
 10
4.163152584117535
 20
-13.68749999999998
 30
21.12158819868371
  0
SPLINE
  5
B5
330
1F
100
AcDbEntity
  8
0
100
AcDbSpline
210
0.0
220
0.0
230
1.0
 70
    24
 71
     2
 72
     6
 73
     3
 74
     0
 42
0.000000001
 43
0.0000000001
 40
-1.75
 40
-1.75
 40
-1.75
 40
0.0
 40
0.0
 40
0.0
 10
4.163152584117535
 20
-13.68749999999998
 30
21.12158819868371
 10
4.163152584117535
 20
-14.56249999999998
 30
21.12158819868371
 10
4.163152584117534
 20
-15.43749999999997
 30
21.12158819868371
  0
SPLINE
  5
B6
330
1F
100
AcDbEntity
  8
0
100
AcDbSpline
210
0.0
220
0.0
230
1.0
 70
    24
 71
     2
 72
     6
 73
     3
 74
     0
 42
0.000000001
 43
0.0000000001
 40
0.0
 40
0.0
 40
0.0
 40
5.775173770037725
 40
5.775173770037725
 40
5.775173770037725
 10
4.163152584116677
 20
-15.43749999999997
 30
26.89676196872752
 10
4.163152584117105
 20
-15.43749999999997
 30
24.00917508370561
 10
4.163152584117534
 20
-15.43749999999997
 30
21.12158819868371
  0
SPLINE
  5
B7
330
1F
100
AcDbEntity
  8
0
100
AcDbSpline
210
0.0
220
0.0
230
1.0
 70
    24
 71
     2
 72
     6
 73
     3
 74
     0
 42
0.000000001
 43
0.0000000001
 40
0.0
 40
0.0
 40
0.0
 40
5.775173770037725
 40
5.775173770037725
 40
5.775173770037725
 10
4.163152584116678
 20
-13.68749999999997
 30
26.89676196872752
 10
4.163152584117107
 20
-13.68749999999997
 30
24.00917508370561
 10
4.163152584117535
 20
-13.68749999999998
 30
21.12158819868371
  0
SPLINE
  5
B8
330
1F
100
AcDbEntity
  8
0
100
AcDbSpline
210
2.357772886043410E-16
220
-1.0
230
-8.275912227262407E-16
 70
     8
 71
     3
 72
    32
 73
    28
 74
     0
 42
0.000000001
 43
0.0000000001
 40
-18.03839658274429
 40
-18.03839658274429
 40
-18.03839658274429
 40
-18.03839658274429
 40
-17.69217701953705
 40
-17.50173288061489
 40
-17.24415782674316
 40
-16.85484617056838
 40
-16.54839124790006
 40
-16.24378854905606
 40
-15.9384358215596
 40
-15.51048181885688
 40
-14.97350980751062
 40
-14.26158959582394
 40
-13.35498162473243
 40
-12.488735279651
 40
-11.76438918019911
 40
-11.17324885150065
 40
-10.65061677123976
 40
-9.799275567536675
 40
-8.465159286739164
 40
-7.158026751687945
 40
-6.122197907935758
 40
-5.045947962062792
 40
-3.933561444456823
 40
-2.852443959223192
 40
-2.00408722194998
 40
-0.8078171330329598
 40
0.0
 40
0.0
 40
0.0
 40
0.0
 10
-9.086847415883312
 20
-14.56249999999996
 30
16.38223312382162
 10
-9.09074401546431
 20
-14.56249999999997
 30
16.4989255956485
 10
-9.096784007940428
 20
-14.56249999999997
 30
16.67980680686925
 10
-9.012902616954388
 20
-14.56249999999997
 30
16.93271761598395
 10
-8.957062115363481
 20
-14.56249999999997
 30
17.20727789152545
 10
-8.80639344586476
 20
-14.56249999999996
 30
17.49035862318865
 10
-8.650847638347255
 20
-14.56249999999996
 30
17.78585740322993
 10
-8.44913467064394
 20
-14.56249999999996
 30
18.01850345909667
 10
-8.189284146996034
 20
-14.56249999999996
 30
18.24744433539036
 10
-7.831777782650595
 20
-14.56249999999996
 30
18.47976778901218
 10
-7.303950858626703
 20
-14.56249999999996
 30
18.67461856867298
 10
-6.602364502930169
 20
-14.56249999999996
 30
18.82928462949517
 10
-5.798100032955586
 20
-14.56249999999997
 30
19.0316829682401
 10
-5.019693533707183
 20
-14.56249999999996
 30
19.33220574858708
 10
-4.37456917247455
 20
-14.56249999999996
 30
19.67394110039449
 10
-3.882337899746832
 20
-14.56249999999996
 30
20.04004654340644
 10
-3.385531099498077
 20
-14.56249999999996
 30
20.47153946362214
 10
-2.876863824263412
 20
-14.56249999999997
 30
21.22724417844901
 10
-2.313831924292141
 20
-14.56249999999997
 30
22.24316140541762
 10
-1.720155943933608
 20
-14.56249999999997
 30
23.31717761081766
 10
-1.071512361288032
 20
-14.56249999999997
 30
24.25685442286699
 10
-0.3744211365494889
 20
-14.56249999999997
 30
25.07603212338663
 10
0.4210983713546854
 20
-14.56249999999997
 30
25.83066632649845
 10
1.313334997221685
 20
-14.56249999999997
 30
26.33342816363309
 10
2.289990673018477
 20
-14.56249999999997
 30
26.69312048429641
 10
3.223149618416547
 20
-14.56249999999997
 30
26.93355033341584
 10
3.893104102756092
 20
-14.56249999999997
 30
26.90733070348509
 10
4.163152584116678
 20
-14.56249999999997
 30
26.89676196872752
  0
SPLINE
  5
B9
330
1F
100
AcDbEntity
  8
0
100
AcDbSpline
210
0.0
220
0.0
230
1.0
 70
    24
 71
     2
 72
     6
 73
     3
 74
     0
 42
0.000000001
 43
0.0000000001
 40
0.0
 40
0.0
 40
0.0
 40
1.75
 40
1.75
 40
1.75
 10
-9.072434062815494
 20
-15.43749999999996
 30
16.72815253813767
 10
-9.072434062815493
 20
-14.56249999999996
 30
16.72815253813767
 10
-9.072434062815493
 20
-13.68749999999997
 30
16.72815253813767
  0
SPLINE
  5
BA
330
1F
100
AcDbEntity
  8
0
100
AcDbSpline
210
0.0
220
0.0
230
1.0
 70
    24
 71
     2
 72
     6
 73
     3
 74
     0
 42
0.000000001
 43
0.0000000001
 40
0.0
 40
0.0
 40
0.0
 40
1.75
 40
1.75
 40
1.75
 10
-9.023143492634293
 20
-15.43749999999996
 30
16.91210745038797
 10
-9.023143492634293
 20
-14.56249999999996
 30
16.91210745038797
 10
-9.023143492634292
 20
-13.68749999999996
 30
16.91210745038797
  0
SPLINE
  5
BB
330
1F
100
AcDbEntity
  8
0
100
AcDbSpline
210
0.0
220
0.0
230
1.0
 70
    24
 71
     2
 72
     6
 73
     3
 74
     0
 42
0.000000001
 43
0.0000000001
 40
0.0
 40
0.0
 40
0.0
 40
1.75
 40
1.75
 40
1.75
 10
-8.956478163148974
 20
-15.43749999999996
 30
17.16090584713047
 10
-8.956478163148972
 20
-14.56249999999996
 30
17.16090584713047
 10
-8.956478163148972
 20
-13.68749999999996
 30
17.16090584713047
  0
SPLINE
  5
BC
330
1F
100
AcDbEntity
  8
0
100
AcDbSpline
210
0.0
220
0.0
230
1.0
 70
    24
 71
     2
 72
     6
 73
     3
 74
     0
 42
0.000000001
 43
0.0000000001
 40
0.0
 40
0.0
 40
0.0
 40
1.75
 40
1.75
 40
1.75
 10
-8.79385496460976
 20
-15.43749999999996
 30
17.51462503084889
 10
-8.79385496460976
 20
-14.56249999999996
 30
17.51462503084889
 10
-8.793854964609759
 20
-13.68749999999996
 30
17.51462503084889
  0
SPLINE
  5
BD
330
1F
100
AcDbEntity
  8
0
100
AcDbSpline
210
0.0
220
0.0
230
1.0
 70
    24
 71
     2
 72
     6
 73
     3
 74
     0
 42
0.000000001
 43
0.0000000001
 40
0.0
 40
0.0
 40
0.0
 40
1.75
 40
1.75
 40
1.75
 10
-8.640627503275597
 20
-15.43749999999996
 30
17.78002277899445
 10
-8.640627503275596
 20
-14.56249999999996
 30
17.78002277899445
 10
-8.640627503275596
 20
-13.68749999999996
 30
17.78002277899445
  0
SPLINE
  5
BE
330
1F
100
AcDbEntity
  8
0
100
AcDbSpline
210
0.0
220
0.0
230
1.0
 70
    24
 71
     2
 72
     6
 73
     3
 74
     0
 42
0.000000001
 43
0.0000000001
 40
0.0
 40
0.0
 40
0.0
 40
1.75
 40
1.75
 40
1.75
 10
-8.444698693805895
 20
-15.43749999999996
 30
18.01324950508482
 10
-8.444698693805893
 20
-14.56249999999996
 30
18.01324950508482
 10
-8.444698693805893
 20
-13.68749999999996
 30
18.01324950508482
  0
SPLINE
  5
BF
330
1F
100
AcDbEntity
  8
0
100
AcDbSpline
210
0.0
220
0.0
230
1.0
 70
    24
 71
     2
 72
     6
 73
     3
 74
     0
 42
0.000000001
 43
0.0000000001
 40
0.0
 40
0.0
 40
0.0
 40
1.75
 40
1.75
 40
1.75
 10
-8.216026738762913
 20
-15.43749999999997
 30
18.21560914821148
 10
-8.216026738762913
 20
-14.56249999999996
 30
18.21560914821148
 10
-8.216026738762912
 20
-13.68749999999996
 30
18.21560914821148
  0
SPLINE
  5
C0
330
1F
100
AcDbEntity
  8
0
100
AcDbSpline
210
0.0
220
0.0
230
1.0
 70
    24
 71
     2
 72
     6
 73
     3
 74
     0
 42
0.000000001
 43
0.0000000001
 40
0.0
 40
0.0
 40
0.0
 40
1.75
 40
1.75
 40
1.75
 10
-7.856132827786721
 20
-15.43749999999997
 30
18.44717123766383
 10
-7.85613282778672
 20
-14.56249999999996
 30
18.44717123766383
 10
-7.856132827786719
 20
-13.68749999999996
 30
18.44717123766383
  0
SPLINE
  5
C1
330
1F
100
AcDbEntity
  8
0
100
AcDbSpline
210
0.0
220
0.0
230
1.0
 70
    24
 71
     2
 72
     6
 73
     3
 74
     0
 42
0.000000001
 43
0.0000000001
 40
0.0
 40
0.0
 40
0.0
 40
1.75
 40
1.75
 40
1.75
 10
-7.356546569567994
 20
-15.43749999999996
 30
18.64402781380051
 10
-7.356546569567993
 20
-14.56249999999996
 30
18.64402781380051
 10
-7.356546569567993
 20
-13.68749999999997
 30
18.64402781380051
  0
SPLINE
  5
C2
330
1F
100
AcDbEntity
  8
0
100
AcDbSpline
210
0.0
220
0.0
230
1.0
 70
    24
 71
     2
 72
     6
 73
     3
 74
     0
 42
0.000000001
 43
0.0000000001
 40
0.0
 40
0.0
 40
0.0
 40
1.75
 40
1.75
 40
1.75
 10
-6.666299392312991
 20
-15.43749999999996
 30
18.81835286105279
 10
-6.66629939231299
 20
-14.56249999999996
 30
18.81835286105279
 10
-6.666299392312989
 20
-13.68749999999996
 30
18.81835286105279
  0
SPLINE
  5
C3
330
1F
100
AcDbEntity
  8
0
100
AcDbSpline
210
0.0
220
0.0
230
1.0
 70
    24
 71
     2
 72
     6
 73
     3
 74
     0
 42
0.000000001
 43
0.0000000001
 40
0.0
 40
0.0
 40
0.0
 40
1.75
 40
1.75
 40
1.75
 10
-5.790583338716165
 20
-15.43749999999996
 30
19.05300027041303
 10
-5.790583338716164
 20
-14.56249999999996
 30
19.05300027041303
 10
-5.790583338716162
 20
-13.68749999999996
 30
19.05300027041303
  0
SPLINE
  5
C4
330
1F
100
AcDbEntity
  8
0
100
AcDbSpline
210
0.0
220
0.0
230
1.0
 70
    24
 71
     2
 72
     6
 73
     3
 74
     0
 42
0.000000001
 43
0.0000000001
 40
0.0
 40
0.0
 40
0.0
 40
1.75
 40
1.75
 40
1.75
 10
-4.983018315197095
 20
-15.43749999999996
 30
19.36640330670268
 10
-4.983018315197095
 20
-14.56249999999996
 30
19.36640330670268
 10
-4.983018315197094
 20
-13.68749999999997
 30
19.36640330670268
  0
SPLINE
  5
C5
330
1F
100
AcDbEntity
  8
0
100
AcDbSpline
210
0.0
220
0.0
230
1.0
 70
    24
 71
     2
 72
     6
 73
     3
 74
     0
 42
0.000000001
 43
0.0000000001
 40
0.0
 40
0.0
 40
0.0
 40
1.75
 40
1.75
 40
1.75
 10
-4.346309998045133
 20
-15.43749999999996
 30
19.71177237112607
 10
-4.346309998045133
 20
-14.56249999999996
 30
19.71177237112607
 10
-4.346309998045133
 20
-13.68749999999996
 30
19.71177237112607
  0
SPLINE
  5
C6
330
1F
100
AcDbEntity
  8
0
100
AcDbSpline
210
0.0
220
0.0
230
1.0
 70
    24
 71
     2
 72
     6
 73
     3
 74
     0
 42
0.000000001
 43
0.0000000001
 40
0.0
 40
0.0
 40
0.0
 40
1.75
 40
1.75
 40
1.75
 10
-3.868691237765994
 20
-15.43749999999996
 30
20.06009292470157
 10
-3.868691237765993
 20
-14.56249999999996
 30
20.06009292470157
 10
-3.868691237765991
 20
-13.68749999999996
 30
20.06009292470157
  0
SPLINE
  5
C7
330
1F
100
AcDbEntity
  8
0
100
AcDbSpline
210
0.0
220
0.0
230
1.0
 70
    24
 71
     2
 72
     6
 73
     3
 74
     0
 42
0.000000001
 43
0.0000000001
 40
0.0
 40
0.0
 40
0.0
 40
1.75
 40
1.75
 40
1.75
 10
-3.481551226821476
 20
-15.43749999999996
 30
20.41118679141488
 10
-3.481551226821475
 20
-14.56249999999996
 30
20.41118679141488
 10
-3.481551226821474
 20
-13.68749999999996
 30
20.41118679141488
  0
SPLINE
  5
C8
330
1F
100
AcDbEntity
  8
0
100
AcDbSpline
210
0.0
220
0.0
230
1.0
 70
    24
 71
     2
 72
     6
 73
     3
 74
     0
 42
0.000000001
 43
0.0000000001
 40
0.0
 40
0.0
 40
0.0
 40
1.75
 40
1.75
 40
1.75
 10
-2.976374543223258
 20
-15.43749999999997
 30
21.09644467241394
 10
-2.976374543223257
 20
-14.56249999999997
 30
21.09644467241394
 10
-2.976374543223257
 20
-13.68749999999997
 30
21.09644467241394
  0
SPLINE
  5
C9
330
1F
100
AcDbEntity
  8
0
100
AcDbSpline
210
0.0
220
0.0
230
1.0
 70
    24
 71
     2
 72
     6
 73
     3
 74
     0
 42
0.000000001
 43
0.0000000001
 40
0.0
 40
0.0
 40
0.0
 40
1.75
 40
1.75
 40
1.75
 10
-2.30931640282451
 20
-15.43749999999998
 30
22.251823263187
 10
-2.309316402824509
 20
-14.56249999999998
 30
22.251823263187
 10
-2.309316402824508
 20
-13.68749999999997
 30
22.251823263187
  0
SPLINE
  5
CA
330
1F
100
AcDbEntity
  8
0
100
AcDbSpline
210
0.0
220
0.0
230
1.0
 70
    24
 71
     2
 72
     6
 73
     3
 74
     0
 42
0.000000001
 43
0.0000000001
 40
0.0
 40
0.0
 40
0.0
 40
1.75
 40
1.75
 40
1.75
 10
-1.655750135298902
 20
-15.43749999999997
 30
23.38383324465451
 10
-1.655750135298901
 20
-14.56249999999997
 30
23.38383324465451
 10
-1.6557501352989
 20
-13.68749999999997
 30
23.38383324465451
  0
SPLINE
  5
CB
330
1F
100
AcDbEntity
  8
0
100
AcDbSpline
210
0.0
220
0.0
230
1.0
 70
    24
 71
     2
 72
     6
 73
     3
 74
     0
 42
0.000000001
 43
0.0000000001
 40
0.0
 40
0.0
 40
0.0
 40
1.75
 40
1.75
 40
1.75
 10
-1.065727269957577
 20
-15.43749999999997
 30
24.23519357490451
 10
-1.065727269957577
 20
-14.56249999999997
 30
24.23519357490451
 10
-1.065727269957576
 20
-13.68749999999997
 30
24.23519357490451
  0
SPLINE
  5
CC
330
1F
100
AcDbEntity
  8
0
100
AcDbSpline
210
0.0
220
0.0
230
1.0
 70
    24
 71
     2
 72
     6
 73
     3
 74
     0
 42
0.000000001
 43
0.0000000001
 40
0.0
 40
0.0
 40
0.0
 40
1.75
 40
1.75
 40
1.75
 10
-0.367886648090386
 20
-15.43749999999997
 30
25.05454234829932
 10
-0.3678866480903851
 20
-14.56249999999997
 30
25.05454234829932
 10
-0.3678866480903842
 20
-13.68749999999997
 30
25.05454234829932
  0
SPLINE
  5
CD
330
1F
100
AcDbEntity
  8
0
100
AcDbSpline
210
0.0
220
0.0
230
1.0
 70
    24
 71
     2
 72
     6
 73
     3
 74
     0
 42
0.000000001
 43
0.0000000001
 40
0.0
 40
0.0
 40
0.0
 40
1.75
 40
1.75
 40
1.75
 10
0.456925037317658
 20
-15.43749999999997
 30
25.80092659797631
 10
0.4569250373176588
 20
-14.56249999999997
 30
25.80092659797631
 10
0.4569250373176597
 20
-13.68749999999997
 30
25.80092659797631
  0
SPLINE
  5
CE
330
1F
100
AcDbEntity
  8
0
100
AcDbSpline
210
0.0
220
0.0
230
1.0
 70
    24
 71
     2
 72
     6
 73
     3
 74
     0
 42
0.000000001
 43
0.0000000001
 40
0.0
 40
0.0
 40
0.0
 40
1.75
 40
1.75
 40
1.75
 10
1.39320024400553
 20
-15.43749999999997
 30
26.34148534059312
 10
1.393200244005531
 20
-14.56249999999997
 30
26.34148534059312
 10
1.393200244005532
 20
-13.68749999999997
 30
26.34148534059312
  0
SPLINE
  5
CF
330
1F
100
AcDbEntity
  8
0
100
AcDbSpline
210
0.0
220
0.0
230
1.0
 70
    24
 71
     2
 72
     6
 73
     3
 74
     0
 42
0.000000001
 43
0.0000000001
 40
0.0
 40
0.0
 40
0.0
 40
1.75
 40
1.75
 40
1.75
 10
2.186453540336594
 20
-15.43749999999997
 30
26.64224830629327
 10
2.186453540336595
 20
-14.56249999999997
 30
26.64224830629327
 10
2.186453540336596
 20
-13.68749999999997
 30
26.64224830629327
  0
SPLINE
  5
D0
330
1F
100
AcDbEntity
  8
0
100
AcDbSpline
210
0.0
220
0.0
230
1.0
 70
    24
 71
     2
 72
     6
 73
     3
 74
     0
 42
0.000000001
 43
0.0000000001
 40
0.0
 40
0.0
 40
0.0
 40
1.75
 40
1.75
 40
1.75
 10
3.355335451083717
 20
-15.43749999999997
 30
26.89676196872752
 10
3.355335451083718
 20
-14.56249999999997
 30
26.89676196872752
 10
3.355335451083719
 20
-13.68749999999997
 30
26.89676196872752
  0
LINE
  5
D1
330
1F
100
AcDbEntity
  8
0
100
AcDbLine
 10
-7.619515905894757
 20
-13.68749999999997
 30
16.38223312382162
 11
-7.619515905894759
 21
-15.43749999999996
 31
16.38223312382162
  0
LINE
  5
D2
330
1F
100
AcDbEntity
  8
0
100
AcDbLine
 10
-6.152184395906202
 20
-14.56249999999997
 30
16.38223312382162
 11
-9.086847415883314
 21
-14.56249999999997
 31
16.38223312382162
  0
SPLINE
  5
D3
330
1F
100
AcDbEntity
  8
0
100
AcDbSpline
210
3.722888856859515E-15
220
1.0
230
-6.603730939294062E-15
 70
     8
 71
     3
 72
    24
 73
    20
 74
     0
 42
0.000000001
 43
0.0000000001
 40
0.4333124023105986
 40
0.4333124023105986
 40
0.4333124023105986
 40
0.4333124023105986
 40
1.887237099064775
 40
4.861575131712394
 40
7.959544911317729
 40
10.82505960183766
 40
13.43237100267127
 40
17.02718300901096
 40
18.92359569464653
 40
20.54864129392536
 40
21.94739410920529
 40
24.34888365059554
 40
26.36892058692199
 40
29.09627411585996
 40
30.93122250592336
 40
33.62280461490998
 40
35.65022308519314
 40
36.71146164613257
 40
38.06843589525378
 40
38.06843589525378
 40
38.06843589525378
 40
38.06843589525378
 10
4.163152584119249
 20
-14.56249999999997
 30
21.12158819867152
 10
4.01617156701591
 20
-14.56249999999997
 30
21.10089154835558
 10
3.569406183263759
 20
-14.56249999999997
 30
21.03262336224034
 10
2.830360496446464
 20
-14.56249999999997
 30
20.79864226619177
 10
2.035511504479981
 20
-14.56249999999997
 30
20.34367449942629
 10
1.315647000757057
 20
-14.56249999999997
 30
19.84703415286919
 10
0.5703327777937132
 20
-14.56249999999997
 30
19.29836145763642
 10
-0.093568974274841
 20
-14.56249999999997
 30
18.80639833371298
 10
-0.6679899619350808
 20
-14.56249999999997
 30
18.36144522426233
 10
-1.086960682207692
 20
-14.56249999999997
 30
18.08445514208001
 10
-1.55401157941171
 20
-14.56249999999997
 30
17.78633808195709
 10
-2.089871043467855
 20
-14.56249999999997
 30
17.52790421545629
 10
-2.752997674474333
 20
-14.56249999999997
 30
17.22257126918461
 10
-3.393847016544373
 20
-14.56249999999997
 30
17.0175066325796
 10
-4.099499320383416
 20
-14.56249999999996
 30
16.79377034605591
 10
-4.757976044153736
 20
-14.56249999999996
 30
16.66331222297895
 10
-5.345331942116401
 20
-14.56249999999996
 30
16.60891232737254
 10
-5.79184536059695
 20
-14.56249999999996
 30
16.52073417149442
 10
-6.022662127419244
 20
-14.56249999999997
 30
16.43201671128948
 10
-6.152184395906202
 20
-14.56249999999997
 30
16.38223312382162
  0
SPLINE
  5
D4
330
1F
100
AcDbEntity
  8
0
100
AcDbSpline
210
0.0
220
0.0
230
1.0
 70
    24
 71
     2
 72
     6
 73
     3
 74
     0
 42
0.000000001
 43
0.0000000001
 40
0.0
 40
0.0
 40
0.0
 40
1.75
 40
1.75
 40
1.75
 10
3.724085799229165
 20
-15.43749999999997
 30
21.04858138014119
 10
3.724085799229166
 20
-14.56249999999997
 30
21.04858138014119
 10
3.724085799229166
 20
-13.68749999999997
 30
21.04858138014119
  0
SPLINE
  5
D5
330
1F
100
AcDbEntity
  8
0
100
AcDbSpline
210
0.0
220
0.0
230
1.0
 70
    24
 71
     2
 72
     6
 73
     3
 74
     0
 42
0.000000001
 43
0.0000000001
 40
0.0
 40
0.0
 40
0.0
 40
1.75
 40
1.75
 40
1.75
 10
2.855998759818016
 20
-15.43749999999997
 30
20.77361767572405
 10
2.855998759818017
 20
-14.56249999999997
 30
20.77361767572405
 10
2.855998759818017
 20
-13.68749999999997
 30
20.77361767572405
  0
SPLINE
  5
D6
330
1F
100
AcDbEntity
  8
0
100
AcDbSpline
210
0.0
220
0.0
230
1.0
 70
    24
 71
     2
 72
     6
 73
     3
 74
     0
 42
0.000000001
 43
0.0000000001
 40
0.0
 40
0.0
 40
0.0
 40
1.75
 40
1.75
 40
1.75
 10
2.022790200265975
 20
-15.43749999999997
 30
20.32050854120097
 10
2.022790200265976
 20
-14.56249999999997
 30
20.32050854120097
 10
2.022790200265977
 20
-13.68749999999997
 30
20.32050854120097
  0
SPLINE
  5
D7
330
1F
100
AcDbEntity
  8
0
100
AcDbSpline
210
0.0
220
0.0
230
1.0
 70
    24
 71
     2
 72
     6
 73
     3
 74
     0
 42
0.000000001
 43
0.0000000001
 40
0.0
 40
0.0
 40
0.0
 40
1.75
 40
1.75
 40
1.75
 10
1.296654176012947
 20
-15.43749999999997
 30
19.82822663374788
 10
1.296654176012948
 20
-14.56249999999997
 30
19.82822663374788
 10
1.296654176012948
 20
-13.68749999999997
 30
19.82822663374788
  0
SPLINE
  5
D8
330
1F
100
AcDbEntity
  8
0
100
AcDbSpline
210
0.0
220
0.0
230
1.0
 70
    24
 71
     2
 72
     6
 73
     3
 74
     0
 42
0.000000001
 43
0.0000000001
 40
0.0
 40
0.0
 40
0.0
 40
1.75
 40
1.75
 40
1.75
 10
0.6517381797818401
 20
-15.43749999999997
 30
19.35785284585621
 10
0.6517381797818407
 20
-14.56249999999997
 30
19.35785284585621
 10
0.6517381797818412
 20
-13.68749999999997
 30
19.35785284585621
  0
SPLINE
  5
D9
330
1F
100
AcDbEntity
  8
0
100
AcDbSpline
210
0.0
220
0.0
230
1.0
 70
    24
 71
     2
 72
     6
 73
     3
 74
     0
 42
0.000000001
 43
0.0000000001
 40
0.0
 40
0.0
 40
0.0
 40
1.75
 40
1.75
 40
1.75
 10
-0.2298384270565178
 20
-15.43749999999997
 30
18.69903880774579
 10
-0.2298384270565172
 20
-14.56249999999997
 30
18.69903880774579
 10
-0.2298384270565167
 20
-13.68749999999997
 30
18.69903880774579
  0
SPLINE
  5
DA
330
1F
100
AcDbEntity
  8
0
100
AcDbSpline
210
0.0
220
0.0
230
1.0
 70
    24
 71
     2
 72
     6
 73
     3
 74
     0
 42
0.000000001
 43
0.0000000001
 40
0.0
 40
0.0
 40
0.0
 40
1.75
 40
1.75
 40
1.75
 10
-0.6944224851605867
 20
-15.43749999999997
 30
18.3508400116417
 10
-0.6944224851605861
 20
-14.56249999999997
 30
18.3508400116417
 10
-0.6944224851605856
 20
-13.68749999999997
 30
18.3508400116417
  0
SPLINE
  5
DB
330
1F
100
AcDbEntity
  8
0
100
AcDbSpline
210
0.0
220
0.0
230
1.0
 70
    24
 71
     2
 72
     6
 73
     3
 74
     0
 42
0.000000001
 43
0.0000000001
 40
0.0
 40
0.0
 40
0.0
 40
1.75
 40
1.75
 40
1.75
 10
-1.107046548996125
 20
-15.43749999999997
 30
18.07289191690987
 10
-1.107046548996125
 20
-14.56249999999997
 30
18.07289191690987
 10
-1.107046548996124
 20
-13.68749999999997
 30
18.07289191690987
  0
SPLINE
  5
DC
330
1F
100
AcDbEntity
  8
0
100
AcDbSpline
210
0.0
220
0.0
230
1.0
 70
    24
 71
     2
 72
     6
 73
     3
 74
     0
 42
0.000000001
 43
0.0000000001
 40
0.0
 40
0.0
 40
0.0
 40
1.75
 40
1.75
 40
1.75
 10
-1.470766895501376
 20
-15.43749999999997
 30
17.84686811259335
 10
-1.470766895501376
 20
-14.56249999999997
 30
17.84686811259335
 10
-1.470766895501375
 20
-13.68749999999997
 30
17.84686811259335
  0
SPLINE
  5
DD
330
1F
100
AcDbEntity
  8
0
100
AcDbSpline
210
0.0
220
0.0
230
1.0
 70
    24
 71
     2
 72
     6
 73
     3
 74
     0
 42
0.000000001
 43
0.0000000001
 40
0.0
 40
0.0
 40
0.0
 40
1.75
 40
1.75
 40
1.75
 10
-2.125892905822783
 20
-15.43749999999997
 30
17.51317340012805
 10
-2.125892905822782
 20
-14.56249999999997
 30
17.51317340012805
 10
-2.125892905822782
 20
-13.68749999999997
 30
17.51317340012805
  0
SPLINE
  5
DE
330
1F
100
AcDbEntity
  8
0
100
AcDbSpline
210
0.0
220
0.0
230
1.0
 70
    24
 71
     2
 72
     6
 73
     3
 74
     0
 42
0.000000001
 43
0.0000000001
 40
0.0
 40
0.0
 40
0.0
 40
1.75
 40
1.75
 40
1.75
 10
-2.69134067552563
 20
-15.43749999999997
 30
17.26271469013335
 10
-2.69134067552563
 20
-14.56249999999997
 30
17.26271469013335
 10
-2.691340675525629
 20
-13.68749999999997
 30
17.26271469013335
  0
SPLINE
  5
DF
330
1F
100
AcDbEntity
  8
0
100
AcDbSpline
210
0.0
220
0.0
230
1.0
 70
    24
 71
     2
 72
     6
 73
     3
 74
     0
 42
0.000000001
 43
0.0000000001
 40
0.0
 40
0.0
 40
0.0
 40
1.75
 40
1.75
 40
1.75
 10
-3.480600707295542
 20
-15.43749999999996
 30
16.99021046346869
 10
-3.480600707295542
 20
-14.56249999999996
 30
16.99021046346869
 10
-3.480600707295541
 20
-13.68749999999997
 30
16.99021046346869
  0
SPLINE
  5
E0
330
1F
100
AcDbEntity
  8
0
100
AcDbSpline
210
0.0
220
0.0
230
1.0
 70
    24
 71
     2
 72
     6
 73
     3
 74
     0
 42
0.000000001
 43
0.0000000001
 40
0.0
 40
0.0
 40
0.0
 40
1.75
 40
1.75
 40
1.75
 10
-4.018540244738594
 20
-15.43749999999996
 30
16.82832851825573
 10
-4.018540244738594
 20
-14.56249999999996
 30
16.82832851825573
 10
-4.018540244738593
 20
-13.68749999999996
 30
16.82832851825573
  0
SPLINE
  5
E1
330
1F
100
AcDbEntity
  8
0
100
AcDbSpline
210
0.0
220
0.0
230
1.0
 70
    24
 71
     2
 72
     6
 73
     3
 74
     0
 42
0.000000001
 43
0.0000000001
 40
0.0
 40
0.0
 40
0.0
 40
1.75
 40
1.75
 40
1.75
 10
-4.826461350618192
 20
-15.43749999999996
 30
16.66620213130666
 10
-4.826461350618192
 20
-14.56249999999996
 30
16.66620213130666
 10
-4.826461350618192
 20
-13.68749999999996
 30
16.66620213130666
  0
SPLINE
  5
E2
330
1F
100
AcDbEntity
  8
0
100
AcDbSpline
210
0.0
220
0.0
230
1.0
 70
    24
 71
     2
 72
     6
 73
     3
 74
     0
 42
0.000000001
 43
0.0000000001
 40
0.0
 40
0.0
 40
0.0
 40
1.75
 40
1.75
 40
1.75
 10
-5.441945071302642
 20
-15.43749999999996
 30
16.58594762292166
 10
-5.441945071302641
 20
-14.56249999999996
 30
16.58594762292166
 10
-5.44194507130264
 20
-13.68749999999996
 30
16.58594762292166
  0
SPLINE
  5
E3
330
1F
100
AcDbEntity
  8
0
100
AcDbSpline
210
0.0
220
0.0
230
1.0
 70
    24
 71
     2
 72
     6
 73
     3
 74
     0
 42
0.000000001
 43
0.0000000001
 40
0.0
 40
0.0
 40
0.0
 40
1.75
 40
1.75
 40
1.75
 10
-5.759818364041585
 20
-15.43749999999996
 30
16.51875140060834
 10
-5.759818364041584
 20
-14.56249999999996
 30
16.51875140060834
 10
-5.759818364041584
 20
-13.68749999999996
 30
16.51875140060834
  0
LINE
  5
E4
330
1F
100
AcDbEntity
  8
0
100
AcDbLine
 10
4.163152584116677
 20
-15.43749999999997
 30
24.00917508370866
 11
4.163152584116678
 21
-13.68749999999998
 31
24.00917508370866
  0
LINE
  5
E5
330
1F
100
AcDbEntity
  8
0
100
AcDbLine
 10
4.163152584116678
 20
-14.56249999999997
 30
21.1215881986898
 11
4.163152584116678
 21
-14.56249999999997
 31
26.89676196872752
  0
LINE
  5
E6
330
1F
100
AcDbEntity
  8
0
100
AcDbLine
 10
4.163152584116679
 20
-13.68749999999998
 30
21.65789172861873
 11
-2.641825851985132
 21
-13.68749999999997
 31
21.65789172861873
  0
LINE
  5
E7
330
1F
100
AcDbEntity
  8
0
100
AcDbLine
 10
-2.466815707552982
 20
-13.68749999999997
 30
17.35707116116123
 11
-2.466815707552982
 21
-13.68749999999997
 31
21.96804855432516
  0
LINE
  5
E8
330
1F
100
AcDbEntity
  8
0
100
AcDbLine
 10
4.163152584116677
 20
-15.43749999999998
 30
21.65789172861873
 11
-2.641825851985133
 21
-15.43749999999997
 31
21.65789172861873
  0
LINE
  5
E9
330
1F
100
AcDbEntity
  8
0
100
AcDbLine
 10
-2.466815711911877
 20
-15.43749999999997
 30
17.35707115924723
 11
-2.466815711911877
 21
-15.43749999999997
 31
21.96804854651239
  0
SPLINE
  5
EA
330
1F
100
AcDbEntity
  8
0
100
AcDbSpline
210
1.0
220
3.929621476739025E-17
230
1.379318704543736E-16
 70
     8
 71
     3
 72
    32
 73
    28
 74
     0
 42
0.000000001
 43
0.0000000001
 40
-18.03839658274429
 40
-18.03839658274429
 40
-18.03839658274429
 40
-18.03839658274429
 40
-17.69217701953705
 40
-17.50173288061489
 40
-17.24415782674316
 40
-16.85484617056838
 40
-16.54839124790006
 40
-16.24378854905606
 40
-15.9384358215596
 40
-15.51048181885688
 40
-14.97350980751062
 40
-14.26158959582394
 40
-13.35498162473243
 40
-12.488735279651
 40
-11.76438918019911
 40
-11.17324885150065
 40
-10.65061677123976
 40
-9.799275567536675
 40
-8.465159286739164
 40
-7.158026751687945
 40
-6.122197907935758
 40
-5.045947962062792
 40
-3.933561444456823
 40
-2.852443959223192
 40
-2.00408722194998
 40
-0.8078171330329598
 40
0.0
 40
0.0
 40
0.0
 40
0.0
 10
7.638338585763316
 20
3.037686001646634
 30
16.38223312382161
 10
7.638338585763316
 20
3.041582601227631
 30
16.49892559564849
 10
7.638338585763316
 20
3.047622593703736
 30
16.67980680686924
 10
7.638338585763316
 20
2.963741202717713
 30
16.93271761598395
 10
7.638338585763316
 20
2.907900701126792
 30
17.20727789152544
 10
7.638338585763316
 20
2.757232031628078
 30
17.49035862318865
 10
7.638338585763316
 20
2.601686224110566
 30
17.78585740322992
 10
7.638338585763316
 20
2.39997325640725
 30
18.01850345909666
 10
7.638338585763316
 20
2.140122732759352
 30
18.24744433539036
 10
7.638338585763316
 20
1.782616368413912
 30
18.47976778901216
 10
7.638338585763316
 20
1.254789444390028
 30
18.67461856867296
 10
7.638338585763316
 20
0.5532030886934791
 30
18.82928462949516
 10
7.638338585763316
 20
-0.2510613812811044
 30
19.03168296824009
 10
7.638338585763316
 20
-1.029467880529509
 30
19.33220574858706
 10
7.638338585763316
 20
-1.674592241762141
 30
19.67394110039448
 10
7.638338585763316
 20
-2.166823514489849
 30
20.04004654340643
 10
7.638338585763316
 20
-2.663630314738612
 30
20.47153946362213
 10
7.638338585763316
 20
-3.172297589973271
 30
21.22724417844899
 10
7.638338585763315
 20
-3.735329489944549
 30
22.2431614054176
 10
7.638338585763315
 20
-4.329005470303082
 30
23.31717761081764
 10
7.638338585763315
 20
-4.977649052948658
 30
24.25685442286699
 10
7.638338585763315
 20
-5.674740277687201
 30
25.07603212338662
 10
7.638338585763315
 20
-6.470259785591375
 30
25.83066632649844
 10
7.638338585763315
 20
-7.362496411458375
 30
26.33342816363309
 10
7.638338585763315
 20
-8.339152087255167
 30
26.69312048429639
 10
7.638338585763315
 20
-9.272311032653235
 30
26.93355033341583
 10
7.638338585763315
 20
-9.942265516992776
 30
26.90733070348509
 10
7.638338585763315
 20
-10.21231399835337
 30
26.89676196872751
  0
SPLINE
  5
EB
330
1F
100
AcDbEntity
  8
0
100
AcDbSpline
210
0.0
220
0.0
230
1.0
 70
    24
 71
     2
 72
     6
 73
     3
 74
     0
 42
0.000000001
 43
0.0000000001
 40
0.0
 40
0.0
 40
0.0
 40
1.75
 40
1.75
 40
1.75
 10
7.638338585763315
 20
-10.21231399835337
 30
26.89676196872751
 10
8.513338585763314
 20
-10.21231399835337
 30
26.89676196872751
 10
9.388338585763314
 20
-10.21231399835337
 30
26.89676196872751
  0
SPLINE
  5
EC
330
1F
100
AcDbEntity
  8
0
100
AcDbSpline
210
1.0
220
1.571848590695610E-16
230
5.517274818174943E-16
 70
     8
 71
     3
 72
    32
 73
    28
 74
     0
 42
0.000000001
 43
0.0000000001
 40
0.0
 40
0.0
 40
0.0
 40
0.0
 40
0.8078171330329598
 40
2.00408722194998
 40
2.852443959223192
 40
3.933561444456823
 40
5.045947962062792
 40
6.122197907935758
 40
7.158026751687945
 40
8.465159286739164
 40
9.799275567536675
 40
10.65061677123976
 40
11.17324885150065
 40
11.76438918019911
 40
12.488735279651
 40
13.35498162473243
 40
14.26158959582394
 40
14.97350980751062
 40
15.51048181885688
 40
15.9384358215596
 40
16.24378854905606
 40
16.54839124790006
 40
16.85484617056838
 40
17.24415782674316
 40
17.50173288061489
 40
17.69217701953705
 40
18.03839658274429
 40
18.03839658274429
 40
18.03839658274429
 40
18.03839658274429
 10
9.388338585763314
 20
-10.21231399835337
 30
26.89676196872751
 10
9.388338585763314
 20
-9.942265516992778
 30
26.90733070348509
 10
9.388338585763314
 20
-9.272311032653237
 30
26.93355033341583
 10
9.388338585763314
 20
-8.339152087255169
 30
26.69312048429639
 10
9.388338585763314
 20
-7.362496411458377
 30
26.33342816363309
 10
9.388338585763314
 20
-6.470259785591377
 30
25.83066632649844
 10
9.388338585763314
 20
-5.674740277687202
 30
25.07603212338662
 10
9.388338585763314
 20
-4.977649052948659
 30
24.25685442286699
 10
9.388338585763314
 20
-4.329005470303083
 30
23.31717761081764
 10
9.388338585763314
 20
-3.73532948994455
 30
22.2431614054176
 10
9.388338585763318
 20
-3.172297589973271
 30
21.22724417844899
 10
9.388338585763318
 20
-2.663630314738612
 30
20.47153946362213
 10
9.388338585763318
 20
-2.16682351448985
 30
20.04004654340643
 10
9.388338585763318
 20
-1.674592241762142
 30
19.67394110039448
 10
9.388338585763318
 20
-1.02946788052951
 30
19.33220574858706
 10
9.388338585763318
 20
-0.251061381281105
 30
19.03168296824009
 10
9.388338585763318
 20
0.5532030886934787
 30
18.82928462949516
 10
9.388338585763318
 20
1.254789444390027
 30
18.67461856867296
 10
9.388338585763318
 20
1.782616368413912
 30
18.47976778901216
 10
9.388338585763318
 20
2.140122732759352
 30
18.24744433539036
 10
9.388338585763318
 20
2.39997325640725
 30
18.01850345909666
 10
9.388338585763318
 20
2.601686224110566
 30
17.78585740322992
 10
9.388338585763318
 20
2.757232031628078
 30
17.49035862318865
 10
9.388338585763318
 20
2.907900701126792
 30
17.20727789152544
 10
9.388338585763318
 20
2.963741202717713
 30
16.93271761598395
 10
9.388338585763318
 20
3.047622593703736
 30
16.67980680686924
 10
9.388338585763318
 20
3.041582601227631
 30
16.49892559564849
 10
9.388338585763318
 20
3.037686001646634
 30
16.38223312382161
  0
SPLINE
  5
ED
330
1F
100
AcDbEntity
  8
0
100
AcDbSpline
210
0.0
220
0.0
230
1.0
 70
    24
 71
     2
 72
     6
 73
     3
 74
     0
 42
0.000000001
 43
0.0000000001
 40
-1.75
 40
-1.75
 40
-1.75
 40
0.0
 40
0.0
 40
0.0
 10
9.388338585763318
 20
3.037686001646634
 30
16.38223312382161
 10
8.513338585763318
 20
3.037686001646634
 30
16.38223312382161
 10
7.638338585763316
 20
3.037686001646634
 30
16.38223312382161
  0
SPLINE
  5
EE
330
1F
100
AcDbEntity
  8
0
100
AcDbSpline
210
0.0
220
0.0
230
1.0
 70
    24
 71
     2
 72
     6
 73
     3
 74
     0
 42
0.000000001
 43
0.0000000001
 40
0.0
 40
0.0
 40
0.0
 40
2.934663019977108
 40
2.934663019977108
 40
2.934663019977108
 10
9.388338585763318
 20
3.037686001646634
 30
16.38223312382161
 10
9.388338585763318
 20
1.57035449165808
 30
16.38223312382161
 10
9.388338585763316
 20
0.1030229816695254
 30
16.38223312382161
  0
SPLINE
  5
EF
330
1F
100
AcDbEntity
  8
0
100
AcDbSpline
210
0.0
220
0.0
230
1.0
 70
    24
 71
     2
 72
     6
 73
     3
 74
     0
 42
0.000000001
 43
0.0000000001
 40
-1.75
 40
-1.75
 40
-1.75
 40
0.0
 40
0.0
 40
0.0
 10
9.388338585763316
 20
0.1030229816695254
 30
16.38223312382161
 10
8.513338585763316
 20
0.1030229816695255
 30
16.38223312382161
 10
7.638338585763316
 20
0.1030229816695256
 30
16.38223312382161
  0
SPLINE
  5
F0
330
1F
100
AcDbEntity
  8
0
100
AcDbSpline
210
0.0
220
0.0
230
1.0
 70
    24
 71
     2
 72
     6
 73
     3
 74
     0
 42
0.000000001
 43
0.0000000001
 40
-2.934663019977108
 40
-2.934663019977108
 40
-2.934663019977108
 40
0.0
 40
0.0
 40
0.0
 10
7.638338585763316
 20
0.1030229816695256
 30
16.38223312382161
 10
7.638338585763316
 20
1.57035449165808
 30
16.38223312382161
 10
7.638338585763316
 20
3.037686001646634
 30
16.38223312382161
  0
SPLINE
  5
F1
330
1F
100
AcDbEntity
  8
0
100
AcDbSpline
210
-1.0
220
-1.002972535756043E-16
230
-4.057046492890869E-16
 70
     8
 71
     3
 72
    24
 73
    20
 74
     0
 42
0.000000001
 43
0.0000000001
 40
0.4333124023105986
 40
0.4333124023105986
 40
0.4333124023105986
 40
0.4333124023105986
 40
1.887237099064775
 40
4.861575131712394
 40
7.959544911317729
 40
10.82505960183766
 40
13.43237100267127
 40
17.02718300901096
 40
18.92359569464653
 40
20.54864129392536
 40
21.94739410920529
 40
24.34888365059554
 40
26.36892058692199
 40
29.09627411585996
 40
30.93122250592336
 40
33.62280461490998
 40
35.65022308519314
 40
36.71146164613257
 40
38.06843589525378
 40
38.06843589525378
 40
38.06843589525378
 40
38.06843589525378
 10
7.638338585763315
 20
-10.21231399835423
 30
21.1215881986837
 10
7.638338585763315
 20
-10.0653329812509
 30
21.10089154836759
 10
7.638338585763315
 20
-9.618567597498819
 30
21.03262336225188
 10
7.638338585763315
 20
-8.879521910681643
 30
20.79864226620249
 10
7.638338585763315
 20
-8.084672918715297
 30
20.34367449943604
 10
7.638338585763319
 20
-7.364808414992502
 30
19.84703415287801
 10
7.638338585763319
 20
-6.619494192029294
 30
19.29836145764427
 10
7.638338585763315
 20
-5.955592439960864
 30
18.80639833371997
 10
7.638338585763315
 20
-5.381171452300731
 30
18.36144522426855
 10
7.638338585763316
 20
-4.962200732028196
 30
18.08445514208569
 10
7.638338585763316
 20
-4.49514983482426
 30
17.78633808196219
 10
7.638338585763316
 20
-3.959290370768205
 30
17.52790421546075
 10
7.638338585763316
 20
-3.296163739761831
 30
17.22257126918829
 10
7.638338585763316
 20
-2.655314397691905
 30
17.01750663258256
 10
7.638338585763316
 20
-1.949662093852957
 30
16.79377034605809
 10
7.638338585763316
 20
-1.291185370082735
 30
16.66331222298043
 10
7.638338585763316
 20
-0.703829472120165
 30
16.60891232737342
 10
7.638338585763316
 20
-0.2573160536396826
 30
16.52073417149482
 10
7.638338585763316
 20
-0.0264992868174192
 30
16.43201671128962
 10
7.638338585763316
 20
0.1030229816695256
 30
16.38223312382161
  0
SPLINE
  5
F2
330
1F
100
AcDbEntity
  8
0
100
AcDbSpline
210
-1.0
220
-2.005945071512085E-16
230
-8.114092985781738E-16
 70
     8
 71
     3
 72
    24
 73
    20
 74
     0
 42
0.000000001
 43
0.0000000001
 40
-38.06843589525378
 40
-38.06843589525378
 40
-38.06843589525378
 40
-38.06843589525378
 40
-36.71146164613257
 40
-35.65022308519314
 40
-33.62280461490998
 40
-30.93122250592336
 40
-29.09627411585996
 40
-26.36892058692199
 40
-24.34888365059554
 40
-21.94739410920529
 40
-20.54864129392536
 40
-18.92359569464653
 40
-17.02718300901096
 40
-13.43237100267127
 40
-10.82505960183766
 40
-7.959544911317729
 40
-4.861575131712394
 40
-1.887237099064775
 40
-0.4333124023105986
 40
-0.4333124023105986
 40
-0.4333124023105986
 40
-0.4333124023105986
 10
9.388338585763316
 20
0.1030229816695254
 30
16.38223312382161
 10
9.388338585763316
 20
-0.0264992868174193
 30
16.43201671128962
 10
9.388338585763316
 20
-0.2573160536396827
 30
16.52073417149482
 10
9.388338585763316
 20
-0.7038294721201651
 30
16.60891232737342
 10
9.388338585763316
 20
-1.291185370082735
 30
16.66331222298043
 10
9.388338585763316
 20
-1.949662093852957
 30
16.79377034605809
 10
9.388338585763316
 20
-2.655314397691905
 30
17.01750663258256
 10
9.388338585763316
 20
-3.296163739761831
 30
17.22257126918829
 10
9.388338585763316
 20
-3.959290370768205
 30
17.52790421546075
 10
9.388338585763316
 20
-4.49514983482426
 30
17.78633808196219
 10
9.388338585763316
 20
-4.962200732028196
 30
18.08445514208569
 10
9.388338585763314
 20
-5.381171452300731
 30
18.36144522426855
 10
9.388338585763314
 20
-5.955592439960864
 30
18.80639833371997
 10
9.388338585763318
 20
-6.619494192029294
 30
19.29836145764427
 10
9.388338585763318
 20
-7.364808414992502
 30
19.84703415287801
 10
9.388338585763314
 20
-8.084672918715297
 30
20.34367449943604
 10
9.388338585763314
 20
-8.879521910681643
 30
20.79864226620249
 10
9.388338585763314
 20
-9.618567597498819
 30
21.03262336225188
 10
9.388338585763314
 20
-10.0653329812509
 30
21.10089154836759
 10
9.388338585763314
 20
-10.21231399835423
 30
21.1215881986837
  0
SPLINE
  5
F3
330
1F
100
AcDbEntity
  8
0
100
AcDbSpline
210
0.0
220
0.0
230
1.0
 70
    24
 71
     2
 72
     6
 73
     3
 74
     0
 42
0.000000001
 43
0.0000000001
 40
-1.75
 40
-1.75
 40
-1.75
 40
0.0
 40
0.0
 40
0.0
 10
9.388338585763314
 20
-10.21231399835423
 30
21.1215881986837
 10
8.513338585763314
 20
-10.21231399835423
 30
21.1215881986837
 10
7.638338585763315
 20
-10.21231399835423
 30
21.1215881986837
  0
SPLINE
  5
F4
330
1F
100
AcDbEntity
  8
0
100
AcDbSpline
210
0.0
220
0.0
230
1.0
 70
    24
 71
     2
 72
     6
 73
     3
 74
     0
 42
0.000000001
 43
0.0000000001
 40
-5.775173770037725
 40
-5.775173770037725
 40
-5.775173770037725
 40
0.0
 40
0.0
 40
0.0
 10
9.388338585763314
 20
-10.21231399835423
 30
21.1215881986837
 10
9.388338585763314
 20
-10.2123139983538
 30
24.0091750837056
 10
9.388338585763314
 20
-10.21231399835337
 30
26.89676196872751
  0
SPLINE
  5
F5
330
1F
100
AcDbEntity
  8
0
100
AcDbSpline
210
0.0
220
0.0
230
1.0
 70
    24
 71
     2
 72
     6
 73
     3
 74
     0
 42
0.000000001
 43
0.0000000001
 40
0.0
 40
0.0
 40
0.0
 40
5.775173770037725
 40
5.775173770037725
 40
5.775173770037725
 10
7.638338585763315
 20
-10.21231399835337
 30
26.89676196872751
 10
7.638338585763315
 20
-10.2123139983538
 30
24.0091750837056
 10
7.638338585763315
 20
-10.21231399835423
 30
21.1215881986837
  0
SPLINE
  5
F6
330
1F
100
AcDbEntity
  8
0
100
AcDbSpline
210
1.0
220
0.0
230
0.0
 70
     8
 71
     3
 72
    32
 73
    28
 74
     0
 42
0.000000001
 43
0.0000000001
 40
-18.03839658274429
 40
-18.03839658274429
 40
-18.03839658274429
 40
-18.03839658274429
 40
-17.69217701953705
 40
-17.50173288061489
 40
-17.24415782674316
 40
-16.85484617056838
 40
-16.54839124790006
 40
-16.24378854905606
 40
-15.9384358215596
 40
-15.51048181885688
 40
-14.97350980751062
 40
-14.26158959582394
 40
-13.35498162473243
 40
-12.488735279651
 40
-11.76438918019911
 40
-11.17324885150065
 40
-10.65061677123976
 40
-9.799275567536675
 40
-8.465159286739164
 40
-7.158026751687945
 40
-6.122197907935758
 40
-5.045947962062792
 40
-3.933561444456823
 40
-2.852443959223192
 40
-2.00408722194998
 40
-0.8078171330329598
 40
0.0
 40
0.0
 40
0.0
 40
0.0
 10
8.513338585763316
 20
3.037686001646634
 30
16.38223312382161
 10
8.513338585763316
 20
3.041582601227631
 30
16.49892559564849
 10
8.513338585763316
 20
3.047622593703736
 30
16.67980680686924
 10
8.513338585763316
 20
2.963741202717713
 30
16.93271761598395
 10
8.513338585763316
 20
2.907900701126792
 30
17.20727789152544
 10
8.513338585763316
 20
2.757232031628078
 30
17.49035862318865
 10
8.513338585763316
 20
2.601686224110566
 30
17.78585740322992
 10
8.513338585763316
 20
2.39997325640725
 30
18.01850345909666
 10
8.513338585763316
 20
2.140122732759352
 30
18.24744433539036
 10
8.513338585763316
 20
1.782616368413912
 30
18.47976778901216
 10
8.513338585763316
 20
1.254789444390027
 30
18.67461856867296
 10
8.513338585763316
 20
0.5532030886934789
 30
18.82928462949516
 10
8.513338585763316
 20
-0.2510613812811047
 30
19.03168296824009
 10
8.513338585763316
 20
-1.029467880529509
 30
19.33220574858706
 10
8.513338585763316
 20
-1.674592241762142
 30
19.67394110039448
 10
8.513338585763316
 20
-2.166823514489849
 30
20.04004654340643
 10
8.513338585763316
 20
-2.663630314738612
 30
20.47153946362213
 10
8.513338585763316
 20
-3.172297589973271
 30
21.22724417844899
 10
8.513338585763316
 20
-3.735329489944549
 30
22.2431614054176
 10
8.513338585763316
 20
-4.329005470303082
 30
23.31717761081764
 10
8.513338585763316
 20
-4.977649052948658
 30
24.25685442286699
 10
8.513338585763316
 20
-5.674740277687201
 30
25.07603212338662
 10
8.513338585763316
 20
-6.470259785591375
 30
25.83066632649844
 10
8.513338585763316
 20
-7.362496411458375
 30
26.33342816363309
 10
8.513338585763316
 20
-8.339152087255167
 30
26.69312048429639
 10
8.513338585763316
 20
-9.272311032653235
 30
26.93355033341583
 10
8.513338585763316
 20
-9.942265516992776
 30
26.90733070348509
 10
8.513338585763316
 20
-10.21231399835337
 30
26.89676196872751
  0
SPLINE
  5
F7
330
1F
100
AcDbEntity
  8
0
100
AcDbSpline
210
0.0
220
0.0
230
1.0
 70
    24
 71
     2
 72
     6
 73
     3
 74
     0
 42
0.000000001
 43
0.0000000001
 40
0.0
 40
0.0
 40
0.0
 40
1.75
 40
1.75
 40
1.75
 10
7.638338585763315
 20
3.023272648578808
 30
16.72815253813766
 10
8.513338585763314
 20
3.023272648578808
 30
16.72815253813766
 10
9.388338585763314
 20
3.023272648578808
 30
16.72815253813766
  0
SPLINE
  5
F8
330
1F
100
AcDbEntity
  8
0
100
AcDbSpline
210
0.0
220
0.0
230
1.0
 70
    24
 71
     2
 72
     6
 73
     3
 74
     0
 42
0.000000001
 43
0.0000000001
 40
0.0
 40
0.0
 40
0.0
 40
1.75
 40
1.75
 40
1.75
 10
7.638338585763315
 20
2.973982078397611
 30
16.91210745038797
 10
8.513338585763314
 20
2.973982078397611
 30
16.91210745038797
 10
9.388338585763314
 20
2.973982078397611
 30
16.91210745038797
  0
SPLINE
  5
F9
330
1F
100
AcDbEntity
  8
0
100
AcDbSpline
210
0.0
220
0.0
230
1.0
 70
    24
 71
     2
 72
     6
 73
     3
 74
     0
 42
0.000000001
 43
0.0000000001
 40
0.0
 40
0.0
 40
0.0
 40
1.75
 40
1.75
 40
1.75
 10
7.638338585763315
 20
2.907316748912289
 30
17.16090584713046
 10
8.513338585763316
 20
2.907316748912288
 30
17.16090584713046
 10
9.388338585763316
 20
2.907316748912288
 30
17.16090584713046
  0
SPLINE
  5
FA
330
1F
100
AcDbEntity
  8
0
100
AcDbSpline
210
0.0
220
0.0
230
1.0
 70
    24
 71
     2
 72
     6
 73
     3
 74
     0
 42
0.000000001
 43
0.0000000001
 40
0.0
 40
0.0
 40
0.0
 40
1.75
 40
1.75
 40
1.75
 10
7.638338585763315
 20
2.744693550373074
 30
17.51462503084888
 10
8.513338585763314
 20
2.744693550373074
 30
17.51462503084888
 10
9.388338585763314
 20
2.744693550373074
 30
17.51462503084888
  0
SPLINE
  5
FB
330
1F
100
AcDbEntity
  8
0
100
AcDbSpline
210
0.0
220
0.0
230
1.0
 70
    24
 71
     2
 72
     6
 73
     3
 74
     0
 42
0.000000001
 43
0.0000000001
 40
0.0
 40
0.0
 40
0.0
 40
1.75
 40
1.75
 40
1.75
 10
7.638338585763316
 20
2.591466089038908
 30
17.78002277899444
 10
8.513338585763316
 20
2.591466089038907
 30
17.78002277899444
 10
9.388338585763316
 20
2.591466089038907
 30
17.78002277899444
  0
SPLINE
  5
FC
330
1F
100
AcDbEntity
  8
0
100
AcDbSpline
210
0.0
220
0.0
230
1.0
 70
    24
 71
     2
 72
     6
 73
     3
 74
     0
 42
0.000000001
 43
0.0000000001
 40
0.0
 40
0.0
 40
0.0
 40
1.75
 40
1.75
 40
1.75
 10
7.638338585763316
 20
2.395537279569205
 30
18.01324950508481
 10
8.513338585763318
 20
2.395537279569204
 30
18.01324950508481
 10
9.388338585763318
 20
2.395537279569204
 30
18.01324950508481
  0
SPLINE
  5
FD
330
1F
100
AcDbEntity
  8
0
100
AcDbSpline
210
0.0
220
0.0
230
1.0
 70
    24
 71
     2
 72
     6
 73
     3
 74
     0
 42
0.000000001
 43
0.0000000001
 40
0.0
 40
0.0
 40
0.0
 40
1.75
 40
1.75
 40
1.75
 10
7.638338585763318
 20
2.166865324526228
 30
18.21560914821147
 10
8.513338585763318
 20
2.166865324526228
 30
18.21560914821147
 10
9.388338585763316
 20
2.166865324526227
 30
18.21560914821147
  0
SPLINE
  5
FE
330
1F
100
AcDbEntity
  8
0
100
AcDbSpline
210
0.0
220
0.0
230
1.0
 70
    24
 71
     2
 72
     6
 73
     3
 74
     0
 42
0.000000001
 43
0.0000000001
 40
0.0
 40
0.0
 40
0.0
 40
1.75
 40
1.75
 40
1.75
 10
7.638338585763316
 20
1.806971413550037
 30
18.44717123766382
 10
8.513338585763316
 20
1.806971413550037
 30
18.44717123766382
 10
9.388338585763316
 20
1.806971413550037
 30
18.44717123766382
  0
SPLINE
  5
FF
330
1F
100
AcDbEntity
  8
0
100
AcDbSpline
210
0.0
220
0.0
230
1.0
 70
    24
 71
     2
 72
     6
 73
     3
 74
     0
 42
0.000000001
 43
0.0000000001
 40
0.0
 40
0.0
 40
0.0
 40
1.75
 40
1.75
 40
1.75
 10
7.638338585763316
 20
1.307385155331314
 30
18.6440278138005
 10
8.513338585763318
 20
1.307385155331314
 30
18.6440278138005
 10
9.388338585763318
 20
1.307385155331314
 30
18.6440278138005
  0
SPLINE
  5
100
330
1F
100
AcDbEntity
  8
0
100
AcDbSpline
210
0.0
220
0.0
230
1.0
 70
    24
 71
     2
 72
     6
 73
     3
 74
     0
 42
0.000000001
 43
0.0000000001
 40
0.0
 40
0.0
 40
0.0
 40
1.75
 40
1.75
 40
1.75
 10
7.638338585763316
 20
0.6171379780763033
 30
18.81835286105279
 10
8.513338585763316
 20
0.6171379780763031
 30
18.81835286105279
 10
9.388338585763316
 20
0.6171379780763029
 30
18.81835286105279
  0
SPLINE
  5
101
330
1F
100
AcDbEntity
  8
0
100
AcDbSpline
210
0.0
220
0.0
230
1.0
 70
    24
 71
     2
 72
     6
 73
     3
 74
     0
 42
0.000000001
 43
0.0000000001
 40
0.0
 40
0.0
 40
0.0
 40
1.75
 40
1.75
 40
1.75
 10
7.638338585763314
 20
-0.2585780755205251
 30
19.05300027041302
 10
8.513338585763314
 20
-0.2585780755205254
 30
19.05300027041302
 10
9.388338585763314
 20
-0.2585780755205256
 30
19.05300027041302
  0
SPLINE
  5
102
330
1F
100
AcDbEntity
  8
0
100
AcDbSpline
210
0.0
220
0.0
230
1.0
 70
    24
 71
     2
 72
     6
 73
     3
 74
     0
 42
0.000000001
 43
0.0000000001
 40
0.0
 40
0.0
 40
0.0
 40
1.75
 40
1.75
 40
1.75
 10
7.638338585763317
 20
-1.066143099039597
 30
19.36640330670267
 10
8.513338585763316
 20
-1.066143099039597
 30
19.36640330670267
 10
9.388338585763316
 20
-1.066143099039598
 30
19.36640330670267
  0
SPLINE
  5
103
330
1F
100
AcDbEntity
  8
0
100
AcDbSpline
210
0.0
220
0.0
230
1.0
 70
    24
 71
     2
 72
     6
 73
     3
 74
     0
 42
0.000000001
 43
0.0000000001
 40
0.0
 40
0.0
 40
0.0
 40
1.75
 40
1.75
 40
1.75
 10
7.638338585763315
 20
-1.702851416191556
 30
19.71177237112606
 10
8.513338585763314
 20
-1.702851416191556
 30
19.71177237112606
 10
9.388338585763314
 20
-1.702851416191556
 30
19.71177237112606
  0
SPLINE
  5
104
330
1F
100
AcDbEntity
  8
0
100
AcDbSpline
210
0.0
220
0.0
230
1.0
 70
    24
 71
     2
 72
     6
 73
     3
 74
     0
 42
0.000000001
 43
0.0000000001
 40
0.0
 40
0.0
 40
0.0
 40
1.75
 40
1.75
 40
1.75
 10
7.638338585763316
 20
-2.180470176470691
 30
20.06009292470156
 10
8.513338585763316
 20
-2.180470176470691
 30
20.06009292470156
 10
9.388338585763316
 20
-2.180470176470692
 30
20.06009292470156
  0
SPLINE
  5
105
330
1F
100
AcDbEntity
  8
0
100
AcDbSpline
210
0.0
220
0.0
230
1.0
 70
    24
 71
     2
 72
     6
 73
     3
 74
     0
 42
0.000000001
 43
0.0000000001
 40
0.0
 40
0.0
 40
0.0
 40
1.75
 40
1.75
 40
1.75
 10
7.638338585763315
 20
-2.567610187415211
 30
20.41118679141486
 10
8.513338585763314
 20
-2.567610187415211
 30
20.41118679141486
 10
9.388338585763314
 20
-2.567610187415212
 30
20.41118679141486
  0
SPLINE
  5
106
330
1F
100
AcDbEntity
  8
0
100
AcDbSpline
210
0.0
220
0.0
230
1.0
 70
    24
 71
     2
 72
     6
 73
     3
 74
     0
 42
0.000000001
 43
0.0000000001
 40
0.0
 40
0.0
 40
0.0
 40
1.75
 40
1.75
 40
1.75
 10
7.638338585763316
 20
-3.072786871013427
 30
21.09644467241392
 10
8.513338585763314
 20
-3.072786871013428
 30
21.09644467241392
 10
9.388338585763314
 20
-3.072786871013428
 30
21.09644467241392
  0
SPLINE
  5
107
330
1F
100
AcDbEntity
  8
0
100
AcDbSpline
210
0.0
220
0.0
230
1.0
 70
    24
 71
     2
 72
     6
 73
     3
 74
     0
 42
0.000000001
 43
0.0000000001
 40
0.0
 40
0.0
 40
0.0
 40
1.75
 40
1.75
 40
1.75
 10
7.638338585763316
 20
-3.73984501141218
 30
22.25182326318699
 10
8.513338585763318
 20
-3.73984501141218
 30
22.25182326318699
 10
9.388338585763318
 20
-3.73984501141218
 30
22.25182326318699
  0
SPLINE
  5
108
330
1F
100
AcDbEntity
  8
0
100
AcDbSpline
210
0.0
220
0.0
230
1.0
 70
    24
 71
     2
 72
     6
 73
     3
 74
     0
 42
0.000000001
 43
0.0000000001
 40
0.0
 40
0.0
 40
0.0
 40
1.75
 40
1.75
 40
1.75
 10
7.638338585763316
 20
-4.393411278937789
 30
23.3838332446545
 10
8.513338585763314
 20
-4.393411278937789
 30
23.3838332446545
 10
9.388338585763314
 20
-4.393411278937789
 30
23.3838332446545
  0
SPLINE
  5
109
330
1F
100
AcDbEntity
  8
0
100
AcDbSpline
210
0.0
220
0.0
230
1.0
 70
    24
 71
     2
 72
     6
 73
     3
 74
     0
 42
0.000000001
 43
0.0000000001
 40
0.0
 40
0.0
 40
0.0
 40
1.75
 40
1.75
 40
1.75
 10
7.638338585763316
 20
-4.983434144279113
 30
24.23519357490451
 10
8.513338585763314
 20
-4.983434144279113
 30
24.23519357490451
 10
9.388338585763314
 20
-4.983434144279113
 30
24.23519357490451
  0
SPLINE
  5
10A
330
1F
100
AcDbEntity
  8
0
100
AcDbSpline
210
0.0
220
0.0
230
1.0
 70
    24
 71
     2
 72
     6
 73
     3
 74
     0
 42
0.000000001
 43
0.0000000001
 40
0.0
 40
0.0
 40
0.0
 40
1.75
 40
1.75
 40
1.75
 10
7.638338585763317
 20
-5.681274766146305
 30
25.05454234829931
 10
8.513338585763316
 20
-5.681274766146305
 30
25.05454234829931
 10
9.388338585763316
 20
-5.681274766146305
 30
25.05454234829931
  0
SPLINE
  5
10B
330
1F
100
AcDbEntity
  8
0
100
AcDbSpline
210
0.0
220
0.0
230
1.0
 70
    24
 71
     2
 72
     6
 73
     3
 74
     0
 42
0.000000001
 43
0.0000000001
 40
0.0
 40
0.0
 40
0.0
 40
1.75
 40
1.75
 40
1.75
 10
7.638338585763316
 20
-6.506086451554349
 30
25.8009265979763
 10
8.513338585763316
 20
-6.506086451554349
 30
25.8009265979763
 10
9.388338585763316
 20
-6.506086451554349
 30
25.8009265979763
  0
SPLINE
  5
10C
330
1F
100
AcDbEntity
  8
0
100
AcDbSpline
210
0.0
220
0.0
230
1.0
 70
    24
 71
     2
 72
     6
 73
     3
 74
     0
 42
0.000000001
 43
0.0000000001
 40
0.0
 40
0.0
 40
0.0
 40
1.75
 40
1.75
 40
1.75
 10
7.638338585763315
 20
-7.442361658242221
 30
26.34148534059312
 10
8.513338585763316
 20
-7.442361658242221
 30
26.34148534059312
 10
9.388338585763316
 20
-7.442361658242221
 30
26.34148534059312
  0
SPLINE
  5
10D
330
1F
100
AcDbEntity
  8
0
100
AcDbSpline
210
0.0
220
0.0
230
1.0
 70
    24
 71
     2
 72
     6
 73
     3
 74
     0
 42
0.000000001
 43
0.0000000001
 40
0.0
 40
0.0
 40
0.0
 40
1.75
 40
1.75
 40
1.75
 10
7.638338585763316
 20
-8.235614954573286
 30
26.64224830629326
 10
8.513338585763316
 20
-8.235614954573286
 30
26.64224830629326
 10
9.388338585763316
 20
-8.235614954573286
 30
26.64224830629326
  0
SPLINE
  5
10E
330
1F
100
AcDbEntity
  8
0
100
AcDbSpline
210
0.0
220
0.0
230
1.0
 70
    24
 71
     2
 72
     6
 73
     3
 74
     0
 42
0.000000001
 43
0.0000000001
 40
0.0
 40
0.0
 40
0.0
 40
1.75
 40
1.75
 40
1.75
 10
7.638338585763316
 20
-9.404496865320406
 30
26.89676196872751
 10
8.513338585763316
 20
-9.404496865320406
 30
26.89676196872751
 10
9.388338585763316
 20
-9.404496865320406
 30
26.89676196872751
  0
LINE
  5
10F
330
1F
100
AcDbEntity
  8
0
100
AcDbLine
 10
9.388338585763316
 20
1.57035449165808
 30
16.38223312382161
 11
7.638338585763316
 21
1.57035449165808
 31
16.38223312382161
  0
LINE
  5
110
330
1F
100
AcDbEntity
  8
0
100
AcDbLine
 10
8.513338585763316
 20
0.1030229816695254
 30
16.38223312382161
 11
8.513338585763316
 21
3.037686001646634
 31
16.38223312382161
  0
SPLINE
  5
111
330
1F
100
AcDbEntity
  8
0
100
AcDbSpline
210
-1.0
220
0.0
230
0.0
 70
     8
 71
     3
 72
    24
 73
    20
 74
     0
 42
0.000000001
 43
0.0000000001
 40
0.4333124023105986
 40
0.4333124023105986
 40
0.4333124023105986
 40
0.4333124023105986
 40
1.887237099064775
 40
4.861575131712394
 40
7.959544911317729
 40
10.82505960183766
 40
13.43237100267127
 40
17.02718300901096
 40
18.92359569464653
 40
20.54864129392536
 40
21.94739410920529
 40
24.34888365059554
 40
26.36892058692199
 40
29.09627411585996
 40
30.93122250592336
 40
33.62280461490998
 40
35.65022308519314
 40
36.71146164613257
 40
38.06843589525378
 40
38.06843589525378
 40
38.06843589525378
 40
38.06843589525378
 10
8.513338585763316
 20
-10.21231399835594
 30
21.12158819867152
 10
8.513338585763316
 20
-10.0653329812526
 30
21.10089154835557
 10
8.513338585763316
 20
-9.618567597500448
 30
21.03262336224032
 10
8.513338585763316
 20
-8.879521910683154
 30
20.79864226619176
 10
8.513338585763316
 20
-8.084672918716672
 30
20.34367449942629
 10
8.51333858576332
 20
-7.364808414993746
 30
19.84703415286918
 10
8.51333858576332
 20
-6.619494192030402
 30
19.29836145763641
 10
8.513338585763316
 20
-5.955592439961849
 30
18.80639833371298
 10
8.513338585763316
 20
-5.38117145230161
 30
18.36144522426232
 10
8.513338585763316
 20
-4.962200732028998
 30
18.08445514208
 10
8.513338585763316
 20
-4.49514983482498
 30
17.78633808195708
 10
8.513338585763316
 20
-3.959290370768835
 30
17.52790421545628
 10
8.513338585763316
 20
-3.296163739762351
 30
17.2225712691846
 10
8.513338585763316
 20
-2.655314397692324
 30
17.01750663257959
 10
8.513338585763316
 20
-1.949662093853265
 30
16.79377034605591
 10
8.513338585763316
 20
-1.291185370082944
 30
16.66331222297894
 10
8.513338585763316
 20
-0.7038294721202902
 30
16.60891232737253
 10
8.513338585763316
 20
-0.257316053639741
 30
16.52073417149441
 10
8.513338585763316
 20
-0.0264992868174403
 30
16.43201671128947
 10
8.513338585763316
 20
0.1030229816695254
 30
16.38223312382161
  0
SPLINE
  5
112
330
1F
100
AcDbEntity
  8
0
100
AcDbSpline
210
0.0
220
0.0
230
1.0
 70
    24
 71
     2
 72
     6
 73
     3
 74
     0
 42
0.000000001
 43
0.0000000001
 40
0.0
 40
0.0
 40
0.0
 40
1.75
 40
1.75
 40
1.75
 10
7.638338585763313
 20
-9.773247213465853
 30
21.04858138014117
 10
8.513338585763313
 20
-9.773247213465853
 30
21.04858138014117
 10
9.388338585763313
 20
-9.773247213465853
 30
21.04858138014117
  0
SPLINE
  5
113
330
1F
100
AcDbEntity
  8
0
100
AcDbSpline
210
0.0
220
0.0
230
1.0
 70
    24
 71
     2
 72
     6
 73
     3
 74
     0
 42
0.000000001
 43
0.0000000001
 40
0.0
 40
0.0
 40
0.0
 40
1.75
 40
1.75
 40
1.75
 10
7.638338585763314
 20
-8.905160174054705
 30
20.77361767572404
 10
8.513338585763314
 20
-8.905160174054705
 30
20.77361767572404
 10
9.388338585763314
 20
-8.905160174054705
 30
20.77361767572404
  0
SPLINE
  5
114
330
1F
100
AcDbEntity
  8
0
100
AcDbSpline
210
0.0
220
0.0
230
1.0
 70
    24
 71
     2
 72
     6
 73
     3
 74
     0
 42
0.000000001
 43
0.0000000001
 40
0.0
 40
0.0
 40
0.0
 40
1.75
 40
1.75
 40
1.75
 10
7.638338585763316
 20
-8.071951614502666
 30
20.32050854120096
 10
8.513338585763314
 20
-8.071951614502666
 30
20.32050854120096
 10
9.388338585763314
 20
-8.071951614502666
 30
20.32050854120096
  0
SPLINE
  5
115
330
1F
100
AcDbEntity
  8
0
100
AcDbSpline
210
0.0
220
0.0
230
1.0
 70
    24
 71
     2
 72
     6
 73
     3
 74
     0
 42
0.000000001
 43
0.0000000001
 40
0.0
 40
0.0
 40
0.0
 40
1.75
 40
1.75
 40
1.75
 10
7.63833858576332
 20
-7.345815590249637
 30
19.82822663374787
 10
8.51333858576332
 20
-7.345815590249637
 30
19.82822663374787
 10
9.38833858576332
 20
-7.345815590249637
 30
19.82822663374787
  0
SPLINE
  5
116
330
1F
100
AcDbEntity
  8
0
100
AcDbSpline
210
0.0
220
0.0
230
1.0
 70
    24
 71
     2
 72
     6
 73
     3
 74
     0
 42
0.000000001
 43
0.0000000001
 40
0.0
 40
0.0
 40
0.0
 40
1.75
 40
1.75
 40
1.75
 10
7.638338585763317
 20
-6.700899594018528
 30
19.35785284585619
 10
8.513338585763316
 20
-6.700899594018528
 30
19.35785284585619
 10
9.388338585763316
 20
-6.700899594018528
 30
19.35785284585619
  0
SPLINE
  5
117
330
1F
100
AcDbEntity
  8
0
100
AcDbSpline
210
0.0
220
0.0
230
1.0
 70
    24
 71
     2
 72
     6
 73
     3
 74
     0
 42
0.000000001
 43
0.0000000001
 40
0.0
 40
0.0
 40
0.0
 40
1.75
 40
1.75
 40
1.75
 10
7.638338585763316
 20
-5.819322987180173
 30
18.69903880774578
 10
8.513338585763316
 20
-5.819322987180173
 30
18.69903880774578
 10
9.388338585763316
 20
-5.819322987180173
 30
18.69903880774578
  0
SPLINE
  5
118
330
1F
100
AcDbEntity
  8
0
100
AcDbSpline
210
0.0
220
0.0
230
1.0
 70
    24
 71
     2
 72
     6
 73
     3
 74
     0
 42
0.000000001
 43
0.0000000001
 40
0.0
 40
0.0
 40
0.0
 40
1.75
 40
1.75
 40
1.75
 10
7.638338585763316
 20
-5.354738929076105
 30
18.35084001164169
 10
8.513338585763316
 20
-5.354738929076105
 30
18.35084001164169
 10
9.388338585763316
 20
-5.354738929076105
 30
18.35084001164169
  0
SPLINE
  5
119
330
1F
100
AcDbEntity
  8
0
100
AcDbSpline
210
0.0
220
0.0
230
1.0
 70
    24
 71
     2
 72
     6
 73
     3
 74
     0
 42
0.000000001
 43
0.0000000001
 40
0.0
 40
0.0
 40
0.0
 40
1.75
 40
1.75
 40
1.75
 10
7.638338585763316
 20
-4.942114865240566
 30
18.07289191690986
 10
8.513338585763316
 20
-4.942114865240566
 30
18.07289191690986
 10
9.388338585763316
 20
-4.942114865240566
 30
18.07289191690986
  0
SPLINE
  5
11A
330
1F
100
AcDbEntity
  8
0
100
AcDbSpline
210
0.0
220
0.0
230
1.0
 70
    24
 71
     2
 72
     6
 73
     3
 74
     0
 42
0.000000001
 43
0.0000000001
 40
0.0
 40
0.0
 40
0.0
 40
1.75
 40
1.75
 40
1.75
 10
7.638338585763315
 20
-4.578394518735315
 30
17.84686811259334
 10
8.513338585763316
 20
-4.578394518735315
 30
17.84686811259334
 10
9.388338585763316
 20
-4.578394518735315
 30
17.84686811259334
  0
SPLINE
  5
11B
330
1F
100
AcDbEntity
  8
0
100
AcDbSpline
210
0.0
220
0.0
230
1.0
 70
    24
 71
     2
 72
     6
 73
     3
 74
     0
 42
0.000000001
 43
0.0000000001
 40
0.0
 40
0.0
 40
0.0
 40
1.75
 40
1.75
 40
1.75
 10
7.638338585763316
 20
-3.923268508413907
 30
17.51317340012805
 10
8.513338585763316
 20
-3.923268508413907
 30
17.51317340012805
 10
9.388338585763316
 20
-3.923268508413907
 30
17.51317340012805
  0
SPLINE
  5
11C
330
1F
100
AcDbEntity
  8
0
100
AcDbSpline
210
0.0
220
0.0
230
1.0
 70
    24
 71
     2
 72
     6
 73
     3
 74
     0
 42
0.000000001
 43
0.0000000001
 40
0.0
 40
0.0
 40
0.0
 40
1.75
 40
1.75
 40
1.75
 10
7.638338585763315
 20
-3.357820738711056
 30
17.26271469013334
 10
8.513338585763314
 20
-3.357820738711056
 30
17.26271469013334
 10
9.388338585763314
 20
-3.357820738711056
 30
17.26271469013334
  0
SPLINE
  5
11D
330
1F
100
AcDbEntity
  8
0
100
AcDbSpline
210
0.0
220
0.0
230
1.0
 70
    24
 71
     2
 72
     6
 73
     3
 74
     0
 42
0.000000001
 43
0.0000000001
 40
0.0
 40
0.0
 40
0.0
 40
1.75
 40
1.75
 40
1.75
 10
7.638338585763316
 20
-2.56856070694115
 30
16.99021046346868
 10
8.513338585763316
 20
-2.56856070694115
 30
16.99021046346868
 10
9.388338585763316
 20
-2.56856070694115
 30
16.99021046346868
  0
SPLINE
  5
11E
330
1F
100
AcDbEntity
  8
0
100
AcDbSpline
210
0.0
220
0.0
230
1.0
 70
    24
 71
     2
 72
     6
 73
     3
 74
     0
 42
0.000000001
 43
0.0000000001
 40
0.0
 40
0.0
 40
0.0
 40
1.75
 40
1.75
 40
1.75
 10
7.638338585763316
 20
-2.030621169498091
 30
16.82832851825572
 10
8.513338585763316
 20
-2.030621169498091
 30
16.82832851825572
 10
9.388338585763316
 20
-2.030621169498091
 30
16.82832851825572
  0
SPLINE
  5
11F
330
1F
100
AcDbEntity
  8
0
100
AcDbSpline
210
0.0
220
0.0
230
1.0
 70
    24
 71
     2
 72
     6
 73
     3
 74
     0
 42
0.000000001
 43
0.0000000001
 40
0.0
 40
0.0
 40
0.0
 40
1.75
 40
1.75
 40
1.75
 10
7.638338585763316
 20
-1.22270006361849
 30
16.66620213130665
 10
8.513338585763316
 20
-1.22270006361849
 30
16.66620213130665
 10
9.388338585763316
 20
-1.22270006361849
 30
16.66620213130665
  0
SPLINE
  5
120
330
1F
100
AcDbEntity
  8
0
100
AcDbSpline
210
0.0
220
0.0
230
1.0
 70
    24
 71
     2
 72
     6
 73
     3
 74
     0
 42
0.000000001
 43
0.0000000001
 40
0.0
 40
0.0
 40
0.0
 40
1.75
 40
1.75
 40
1.75
 10
7.638338585763314
 20
-0.6072163429340485
 30
16.58594762292166
 10
8.513338585763314
 20
-0.6072163429340485
 30
16.58594762292166
 10
9.388338585763314
 20
-0.6072163429340485
 30
16.58594762292166
  0
SPLINE
  5
121
330
1F
100
AcDbEntity
  8
0
100
AcDbSpline
210
0.0
220
0.0
230
1.0
 70
    24
 71
     2
 72
     6
 73
     3
 74
     0
 42
0.000000001
 43
0.0000000001
 40
0.0
 40
0.0
 40
0.0
 40
1.75
 40
1.75
 40
1.75
 10
7.638338585763317
 20
-0.289343050195105
 30
16.51875140060834
 10
8.513338585763316
 20
-0.289343050195105
 30
16.51875140060834
 10
9.388338585763316
 20
-0.289343050195105
 30
16.51875140060834
  0
LINE
  5
122
330
1F
100
AcDbEntity
  8
0
100
AcDbLine
 10
7.638338585763316
 20
-10.21231399835337
 30
24.00917508370865
 11
9.388338585763313
 21
-10.21231399835337
 31
24.00917508370865
  0
LINE
  5
123
330
1F
100
AcDbEntity
  8
0
100
AcDbLine
 10
8.513338585763314
 20
-10.21231399835337
 30
21.12158819868978
 11
8.513338585763314
 21
-10.21231399835337
 31
26.89676196872751
  0
LINE
  5
124
330
1F
100
AcDbEntity
  8
0
100
AcDbLine
 10
9.388338585763313
 20
-10.21231399835337
 30
21.65789172861872
 11
9.388338585763316
 21
-3.407335562251557
 31
21.65789172861872
  0
LINE
  5
125
330
1F
100
AcDbEntity
  8
0
100
AcDbLine
 10
9.388338585763316
 20
-3.582345702324818
 30
17.35707115924723
 11
9.388338585763316
 21
-3.582345702324817
 31
21.96804854651238
  0
LINE
  5
126
330
1F
100
AcDbEntity
  8
0
100
AcDbLine
 10
7.638338585763314
 20
-10.21231399835337
 30
21.65789172861872
 11
7.638338585763316
 21
-3.407335562251557
 31
21.65789172861872
  0
LINE
  5
127
330
1F
100
AcDbEntity
  8
0
100
AcDbLine
 10
7.638338585763316
 20
-3.582345702324818
 30
17.35707115924723
 11
7.638338585763316
 21
-3.582345702324817
 31
21.96804854651238
  0
SPLINE
  5
128
330
1F
100
AcDbEntity
  8
0
100
AcDbSpline
210
0.0
220
-1.0
230
0.0
 70
     8
 71
     3
 72
    32
 73
    28
 74
     0
 42
0.000000001
 43
0.0000000001
 40
-18.03839658274429
 40
-18.03839658274429
 40
-18.03839658274429
 40
-18.03839658274429
 40
-17.69217701953705
 40
-17.50173288061489
 40
-17.24415782674316
 40
-16.85484617056838
 40
-16.54839124790006
 40
-16.24378854905606
 40
-15.9384358215596
 40
-15.51048181885688
 40
-14.97350980751062
 40
-14.26158959582394
 40
-13.35498162473243
 40
-12.488735279651
 40
-11.76438918019911
 40
-11.17324885150065
 40
-10.65061677123976
 40
-9.799275567536675
 40
-8.465159286739164
 40
-7.158026751687945
 40
-6.122197907935758
 40
-5.045947962062792
 40
-3.933561444456823
 40
-2.852443959223192
 40
-2.00408722194998
 40
-0.8078171330329598
 40
0.0
 40
0.0
 40
0.0
 40
0.0
 10
26.11352458740991
 20
-13.6875
 30
16.38223312382162
 10
26.11742118699091
 20
-13.6875
 30
16.4989255956485
 10
26.12346117946703
 20
-13.6875
 30
16.67980680686925
 10
26.03957978848099
 20
-13.6875
 30
16.93271761598395
 10
25.98373928689008
 20
-13.6875
 30
17.20727789152545
 10
25.83307061739136
 20
-13.6875
 30
17.49035862318865
 10
25.67752480987386
 20
-13.6875
 30
17.78585740322993
 10
25.47581184217054
 20
-13.6875
 30
18.01850345909667
 10
25.21596131852264
 20
-13.6875
 30
18.24744433539036
 10
24.8584549541772
 20
-13.6875
 30
18.47976778901218
 10
24.33062803015331
 20
-13.6875
 30
18.67461856867298
 10
23.62904167445677
 20
-13.6875
 30
18.82928462949517
 10
22.82477720448219
 20
-13.6875
 30
19.0316829682401
 10
22.04637070523378
 20
-13.6875
 30
19.33220574858708
 10
21.40124634400115
 20
-13.6875
 30
19.67394110039449
 10
20.90901507127343
 20
-13.6875
 30
20.04004654340644
 10
20.41220827102467
 20
-13.6875
 30
20.47153946362214
 10
19.90354099579001
 20
-13.6875
 30
21.22724417844901
 10
19.34050909581874
 20
-13.6875
 30
22.2431614054176
 10
18.74683311546021
 20
-13.6875
 30
23.31717761081764
 10
18.09818953281463
 20
-13.6875
 30
24.25685442286699
 10
17.40109830807609
 20
-13.6875
 30
25.07603212338662
 10
16.60557880017191
 20
-13.6875
 30
25.83066632649844
 10
15.71334217430491
 20
-13.6875
 30
26.33342816363309
 10
14.73668649850812
 20
-13.6875
 30
26.69312048429639
 10
13.80352755311005
 20
-13.6875
 30
26.93355033341583
 10
13.1335730687705
 20
-13.6875
 30
26.90733070348509
 10
12.86352458740992
 20
-13.6875
 30
26.89676196872751
  0
SPLINE
  5
129
330
1F
100
AcDbEntity
  8
0
100
AcDbSpline
210
0.0
220
0.0
230
1.0
 70
    24
 71
     2
 72
     6
 73
     3
 74
     0
 42
0.000000001
 43
0.0000000001
 40
0.0
 40
0.0
 40
0.0
 40
1.75
 40
1.75
 40
1.75
 10
12.86352458740992
 20
-13.6875
 30
26.89676196872751
 10
12.86352458740992
 20
-14.5625
 30
26.89676196872751
 10
12.86352458740992
 20
-15.4375
 30
26.89676196872751
  0
SPLINE
  5
12A
330
1F
100
AcDbEntity
  8
0
100
AcDbSpline
210
0.0
220
-1.0
230
0.0
 70
     8
 71
     3
 72
    32
 73
    28
 74
     0
 42
0.000000001
 43
0.0000000001
 40
0.0
 40
0.0
 40
0.0
 40
0.0
 40
0.8078171330329598
 40
2.00408722194998
 40
2.852443959223192
 40
3.933561444456823
 40
5.045947962062792
 40
6.122197907935758
 40
7.158026751687945
 40
8.465159286739164
 40
9.799275567536675
 40
10.65061677123976
 40
11.17324885150065
 40
11.76438918019911
 40
12.488735279651
 40
13.35498162473243
 40
14.26158959582394
 40
14.97350980751062
 40
15.51048181885688
 40
15.9384358215596
 40
16.24378854905606
 40
16.54839124790006
 40
16.85484617056838
 40
17.24415782674316
 40
17.50173288061489
 40
17.69217701953705
 40
18.03839658274429
 40
18.03839658274429
 40
18.03839658274429
 40
18.03839658274429
 10
12.86352458740992
 20
-15.4375
 30
26.89676196872751
 10
13.1335730687705
 20
-15.4375
 30
26.90733070348509
 10
13.80352755311005
 20
-15.4375
 30
26.93355033341583
 10
14.73668649850812
 20
-15.4375
 30
26.69312048429639
 10
15.71334217430491
 20
-15.4375
 30
26.33342816363309
 10
16.60557880017191
 20
-15.4375
 30
25.83066632649844
 10
17.40109830807609
 20
-15.4375
 30
25.07603212338662
 10
18.09818953281463
 20
-15.4375
 30
24.25685442286699
 10
18.74683311546021
 20
-15.4375
 30
23.31717761081764
 10
19.34050909581874
 20
-15.4375
 30
22.2431614054176
 10
19.90354099579001
 20
-15.4375
 30
21.22724417844901
 10
20.41220827102467
 20
-15.4375
 30
20.47153946362214
 10
20.90901507127343
 20
-15.4375
 30
20.04004654340644
 10
21.40124634400115
 20
-15.4375
 30
19.67394110039449
 10
22.04637070523378
 20
-15.4375
 30
19.33220574858708
 10
22.82477720448219
 20
-15.4375
 30
19.0316829682401
 10
23.62904167445677
 20
-15.4375
 30
18.82928462949517
 10
24.33062803015331
 20
-15.4375
 30
18.67461856867298
 10
24.8584549541772
 20
-15.4375
 30
18.47976778901218
 10
25.21596131852264
 20
-15.4375
 30
18.24744433539036
 10
25.47581184217054
 20
-15.4375
 30
18.01850345909667
 10
25.67752480987386
 20
-15.4375
 30
17.78585740322993
 10
25.83307061739136
 20
-15.4375
 30
17.49035862318865
 10
25.98373928689008
 20
-15.4375
 30
17.20727789152545
 10
26.03957978848099
 20
-15.4375
 30
16.93271761598395
 10
26.12346117946703
 20
-15.4375
 30
16.67980680686925
 10
26.11742118699091
 20
-15.4375
 30
16.4989255956485
 10
26.11352458740991
 20
-15.4375
 30
16.38223312382162
  0
SPLINE
  5
12B
330
1F
100
AcDbEntity
  8
0
100
AcDbSpline
210
0.0
220
0.0
230
1.0
 70
    24
 71
     2
 72
     6
 73
     3
 74
     0
 42
0.000000001
 43
0.0000000001
 40
-1.75
 40
-1.75
 40
-1.75
 40
0.0
 40
0.0
 40
0.0
 10
26.11352458740991
 20
-15.4375
 30
16.38223312382162
 10
26.11352458740991
 20
-14.5625
 30
16.38223312382162
 10
26.11352458740991
 20
-13.6875
 30
16.38223312382162
  0
SPLINE
  5
12C
330
1F
100
AcDbEntity
  8
0
100
AcDbSpline
210
0.0
220
0.0
230
1.0
 70
    24
 71
     2
 72
     6
 73
     3
 74
     0
 42
0.000000001
 43
0.0000000001
 40
0.0
 40
0.0
 40
0.0
 40
2.934663019977108
 40
2.934663019977108
 40
2.934663019977108
 10
26.11352458740991
 20
-15.4375
 30
16.38223312382162
 10
24.64619307742136
 20
-15.4375
 30
16.38223312382162
 10
23.1788615674328
 20
-15.4375
 30
16.38223312382162
  0
SPLINE
  5
12D
330
1F
100
AcDbEntity
  8
0
100
AcDbSpline
210
0.0
220
0.0
230
1.0
 70
    24
 71
     2
 72
     6
 73
     3
 74
     0
 42
0.000000001
 43
0.0000000001
 40
-1.750000000000002
 40
-1.750000000000002
 40
-1.750000000000002
 40
0.0
 40
0.0
 40
0.0
 10
23.1788615674328
 20
-15.4375
 30
16.38223312382162
 10
23.1788615674328
 20
-14.5625
 30
16.38223312382162
 10
23.1788615674328
 20
-13.6875
 30
16.38223312382162
  0
SPLINE
  5
12E
330
1F
100
AcDbEntity
  8
0
100
AcDbSpline
210
0.0
220
0.0
230
1.0
 70
    24
 71
     2
 72
     6
 73
     3
 74
     0
 42
0.000000001
 43
0.0000000001
 40
-2.934663019977108
 40
-2.934663019977108
 40
-2.934663019977108
 40
0.0
 40
0.0
 40
0.0
 10
23.1788615674328
 20
-13.6875
 30
16.38223312382162
 10
24.64619307742136
 20
-13.6875
 30
16.38223312382162
 10
26.11352458740991
 20
-13.6875
 30
16.38223312382162
  0
SPLINE
  5
12F
330
1F
100
AcDbEntity
  8
0
100
AcDbSpline
210
0.0
220
1.0
230
0.0
 70
     8
 71
     3
 72
    24
 73
    20
 74
     0
 42
0.000000001
 43
0.0000000001
 40
0.4333124023105986
 40
0.4333124023105986
 40
0.4333124023105986
 40
0.4333124023105986
 40
1.887237099064775
 40
4.861575131712394
 40
7.959544911317729
 40
10.82505960183766
 40
13.43237100267127
 40
17.02718300901096
 40
18.92359569464653
 40
20.54864129392536
 40
21.94739410920529
 40
24.34888365059554
 40
26.36892058692199
 40
29.09627411585996
 40
30.93122250592336
 40
33.62280461490998
 40
35.65022308519314
 40
36.71146164613257
 40
38.06843589525378
 40
38.06843589525378
 40
38.06843589525378
 40
38.06843589525378
 10
12.86352458740906
 20
-13.6875
 30
21.12158819868371
 10
13.01050560451238
 20
-13.6875
 30
21.10089154836761
 10
13.45727098826446
 20
-13.6875
 30
21.0326233622519
 10
14.19631667508164
 20
-13.6875
 30
20.79864226620251
 10
14.99116566704799
 20
-13.6875
 30
20.34367449943605
 10
15.71103017077078
 20
-13.6875
 30
19.84703415287803
 10
16.45634439373399
 20
-13.6875
 30
19.29836145764429
 10
17.12024614580242
 20
-13.6875
 30
18.80639833371998
 10
17.69466713346256
 20
-13.6875
 30
18.36144522426857
 10
18.11363785373509
 20
-13.6875
 30
18.08445514208571
 10
18.58068875093903
 20
-13.6875
 30
17.7863380819622
 10
19.11654821499508
 20
-13.6875
 30
17.52790421546076
 10
19.77967484600145
 20
-13.6875
 30
17.2225712691883
 10
20.42052418807139
 20
-13.6875
 30
17.01750663258257
 10
21.12617649191032
 20
-13.6875
 30
16.7937703460581
 10
21.78465321568055
 20
-13.6875
 30
16.66331222298044
 10
22.37200911364313
 20
-13.6875
 30
16.60891232737342
 10
22.81852253212361
 20
-13.6875
 30
16.52073417149483
 10
23.04933929894587
 20
-13.6875
 30
16.43201671128963
 10
23.1788615674328
 20
-13.6875
 30
16.38223312382162
  0
SPLINE
  5
130
330
1F
100
AcDbEntity
  8
0
100
AcDbSpline
210
0.0
220
1.0
230
0.0
 70
     8
 71
     3
 72
    24
 73
    20
 74
     0
 42
0.000000001
 43
0.0000000001
 40
-38.06843589525378
 40
-38.06843589525378
 40
-38.06843589525378
 40
-38.06843589525378
 40
-36.71146164613257
 40
-35.65022308519314
 40
-33.62280461490998
 40
-30.93122250592336
 40
-29.09627411585996
 40
-26.36892058692199
 40
-24.34888365059554
 40
-21.94739410920529
 40
-20.54864129392536
 40
-18.92359569464653
 40
-17.02718300901096
 40
-13.43237100267127
 40
-10.82505960183766
 40
-7.959544911317729
 40
-4.861575131712394
 40
-1.887237099064775
 40
-0.4333124023105986
 40
-0.4333124023105986
 40
-0.4333124023105986
 40
-0.4333124023105986
 10
23.1788615674328
 20
-15.4375
 30
16.38223312382162
 10
23.04933929894587
 20
-15.4375
 30
16.43201671128963
 10
22.81852253212361
 20
-15.4375
 30
16.52073417149483
 10
22.37200911364313
 20
-15.4375
 30
16.60891232737342
 10
21.78465321568055
 20
-15.4375
 30
16.66331222298044
 10
21.12617649191032
 20
-15.4375
 30
16.7937703460581
 10
20.42052418807139
 20
-15.4375
 30
17.01750663258257
 10
19.77967484600145
 20
-15.4375
 30
17.2225712691883
 10
19.11654821499508
 20
-15.4375
 30
17.52790421546076
 10
18.58068875093903
 20
-15.4375
 30
17.7863380819622
 10
18.11363785373509
 20
-15.4375
 30
18.08445514208571
 10
17.69466713346256
 20
-15.4375
 30
18.36144522426857
 10
17.12024614580242
 20
-15.4375
 30
18.80639833371998
 10
16.45634439373399
 20
-15.4375
 30
19.29836145764429
 10
15.71103017077078
 20
-15.4375
 30
19.84703415287803
 10
14.99116566704799
 20
-15.4375
 30
20.34367449943605
 10
14.19631667508164
 20
-15.4375
 30
20.79864226620251
 10
13.45727098826446
 20
-15.4375
 30
21.0326233622519
 10
13.01050560451238
 20
-15.4375
 30
21.10089154836761
 10
12.86352458740906
 20
-15.4375
 30
21.12158819868371
  0
SPLINE
  5
131
330
1F
100
AcDbEntity
  8
0
100
AcDbSpline
210
0.0
220
0.0
230
1.0
 70
    24
 71
     2
 72
     6
 73
     3
 74
     0
 42
0.000000001
 43
0.0000000001
 40
-1.75
 40
-1.75
 40
-1.75
 40
0.0
 40
0.0
 40
0.0
 10
12.86352458740906
 20
-15.4375
 30
21.12158819868371
 10
12.86352458740906
 20
-14.5625
 30
21.12158819868371
 10
12.86352458740906
 20
-13.6875
 30
21.12158819868371
  0
SPLINE
  5
132
330
1F
100
AcDbEntity
  8
0
100
AcDbSpline
210
0.0
220
0.0
230
1.0
 70
    24
 71
     2
 72
     6
 73
     3
 74
     0
 42
0.000000001
 43
0.0000000001
 40
-5.775173770037711
 40
-5.775173770037711
 40
-5.775173770037711
 40
0.0
 40
0.0
 40
0.0
 10
12.86352458740906
 20
-15.4375
 30
21.12158819868371
 10
12.86352458740949
 20
-15.4375
 30
24.00917508370561
 10
12.86352458740992
 20
-15.4375
 30
26.89676196872751
  0
SPLINE
  5
133
330
1F
100
AcDbEntity
  8
0
100
AcDbSpline
210
0.0
220
0.0
230
1.0
 70
    24
 71
     2
 72
     6
 73
     3
 74
     0
 42
0.000000001
 43
0.0000000001
 40
0.0
 40
0.0
 40
0.0
 40
5.775173770037718
 40
5.775173770037718
 40
5.775173770037718
 10
12.86352458740992
 20
-13.6875
 30
26.89676196872751
 10
12.86352458740949
 20
-13.6875
 30
24.00917508370561
 10
12.86352458740906
 20
-13.6875
 30
21.12158819868371
  0
SPLINE
  5
134
330
1F
100
AcDbEntity
  8
0
100
AcDbSpline
210
-7.859242953478049E-17
220
-1.0
230
-2.758637409087474E-16
 70
     8
 71
     3
 72
    32
 73
    28
 74
     0
 42
0.000000001
 43
0.0000000001
 40
-18.03839658274429
 40
-18.03839658274429
 40
-18.03839658274429
 40
-18.03839658274429
 40
-17.69217701953705
 40
-17.50173288061489
 40
-17.24415782674316
 40
-16.85484617056838
 40
-16.54839124790006
 40
-16.24378854905606
 40
-15.9384358215596
 40
-15.51048181885688
 40
-14.97350980751062
 40
-14.26158959582394
 40
-13.35498162473243
 40
-12.488735279651
 40
-11.76438918019911
 40
-11.17324885150065
 40
-10.65061677123976
 40
-9.799275567536675
 40
-8.465159286739164
 40
-7.158026751687945
 40
-6.122197907935758
 40
-5.045947962062792
 40
-3.933561444456823
 40
-2.852443959223192
 40
-2.00408722194998
 40
-0.8078171330329598
 40
0.0
 40
0.0
 40
0.0
 40
0.0
 10
26.11352458740991
 20
-14.5625
 30
16.38223312382162
 10
26.11742118699091
 20
-14.5625
 30
16.4989255956485
 10
26.12346117946703
 20
-14.5625
 30
16.67980680686925
 10
26.03957978848099
 20
-14.5625
 30
16.93271761598395
 10
25.98373928689008
 20
-14.5625
 30
17.20727789152545
 10
25.83307061739136
 20
-14.5625
 30
17.49035862318865
 10
25.67752480987386
 20
-14.5625
 30
17.78585740322993
 10
25.47581184217054
 20
-14.5625
 30
18.01850345909667
 10
25.21596131852264
 20
-14.5625
 30
18.24744433539036
 10
24.8584549541772
 20
-14.5625
 30
18.47976778901218
 10
24.33062803015331
 20
-14.5625
 30
18.67461856867298
 10
23.62904167445677
 20
-14.5625
 30
18.82928462949517
 10
22.82477720448219
 20
-14.5625
 30
19.0316829682401
 10
22.04637070523378
 20
-14.5625
 30
19.33220574858708
 10
21.40124634400115
 20
-14.5625
 30
19.67394110039449
 10
20.90901507127343
 20
-14.5625
 30
20.04004654340644
 10
20.41220827102467
 20
-14.5625
 30
20.47153946362214
 10
19.90354099579001
 20
-14.5625
 30
21.22724417844901
 10
19.34050909581874
 20
-14.5625
 30
22.2431614054176
 10
18.74683311546021
 20
-14.5625
 30
23.31717761081764
 10
18.09818953281463
 20
-14.5625
 30
24.25685442286699
 10
17.40109830807609
 20
-14.5625
 30
25.07603212338662
 10
16.60557880017191
 20
-14.5625
 30
25.83066632649844
 10
15.71334217430491
 20
-14.5625
 30
26.33342816363309
 10
14.73668649850812
 20
-14.5625
 30
26.69312048429639
 10
13.80352755311005
 20
-14.5625
 30
26.93355033341583
 10
13.1335730687705
 20
-14.5625
 30
26.90733070348509
 10
12.86352458740992
 20
-14.5625
 30
26.89676196872751
  0
SPLINE
  5
135
330
1F
100
AcDbEntity
  8
0
100
AcDbSpline
210
0.0
220
0.0
230
1.0
 70
    24
 71
     2
 72
     6
 73
     3
 74
     0
 42
0.000000001
 43
0.0000000001
 40
0.0
 40
0.0
 40
0.0
 40
1.75
 40
1.75
 40
1.75
 10
26.09911123434209
 20
-13.6875
 30
16.72815253813767
 10
26.09911123434209
 20
-14.5625
 30
16.72815253813767
 10
26.09911123434209
 20
-15.4375
 30
16.72815253813767
  0
SPLINE
  5
136
330
1F
100
AcDbEntity
  8
0
100
AcDbSpline
210
0.0
220
0.0
230
1.0
 70
    24
 71
     2
 72
     6
 73
     3
 74
     0
 42
0.000000001
 43
0.0000000001
 40
0.0
 40
0.0
 40
0.0
 40
1.75
 40
1.75
 40
1.75
 10
26.04982066416089
 20
-13.6875
 30
16.91210745038797
 10
26.04982066416089
 20
-14.5625
 30
16.91210745038797
 10
26.04982066416089
 20
-15.4375
 30
16.91210745038797
  0
SPLINE
  5
137
330
1F
100
AcDbEntity
  8
0
100
AcDbSpline
210
0.0
220
0.0
230
1.0
 70
    24
 71
     2
 72
     6
 73
     3
 74
     0
 42
0.000000001
 43
0.0000000001
 40
0.0
 40
0.0
 40
0.0
 40
1.75
 40
1.75
 40
1.75
 10
25.98315533467558
 20
-13.6875
 30
17.16090584713047
 10
25.98315533467558
 20
-14.5625
 30
17.16090584713047
 10
25.98315533467558
 20
-15.43749999999999
 30
17.16090584713047
  0
SPLINE
  5
138
330
1F
100
AcDbEntity
  8
0
100
AcDbSpline
210
0.0
220
0.0
230
1.0
 70
    24
 71
     2
 72
     6
 73
     3
 74
     0
 42
0.000000001
 43
0.0000000001
 40
0.0
 40
0.0
 40
0.0
 40
1.75
 40
1.75
 40
1.75
 10
25.82053213613636
 20
-13.6875
 30
17.51462503084889
 10
25.82053213613636
 20
-14.5625
 30
17.51462503084889
 10
25.82053213613636
 20
-15.43749999999999
 30
17.51462503084889
  0
SPLINE
  5
139
330
1F
100
AcDbEntity
  8
0
100
AcDbSpline
210
0.0
220
0.0
230
1.0
 70
    24
 71
     2
 72
     6
 73
     3
 74
     0
 42
0.000000001
 43
0.0000000001
 40
0.0
 40
0.0
 40
0.0
 40
1.75
 40
1.75
 40
1.75
 10
25.6673046748022
 20
-13.6875
 30
17.78002277899445
 10
25.6673046748022
 20
-14.5625
 30
17.78002277899445
 10
25.6673046748022
 20
-15.4375
 30
17.78002277899445
  0
SPLINE
  5
13A
330
1F
100
AcDbEntity
  8
0
100
AcDbSpline
210
0.0
220
0.0
230
1.0
 70
    24
 71
     2
 72
     6
 73
     3
 74
     0
 42
0.000000001
 43
0.0000000001
 40
0.0
 40
0.0
 40
0.0
 40
1.75
 40
1.75
 40
1.75
 10
25.4713758653325
 20
-13.6875
 30
18.01324950508482
 10
25.4713758653325
 20
-14.5625
 30
18.01324950508482
 10
25.4713758653325
 20
-15.4375
 30
18.01324950508482
  0
SPLINE
  5
13B
330
1F
100
AcDbEntity
  8
0
100
AcDbSpline
210
0.0
220
0.0
230
1.0
 70
    24
 71
     2
 72
     6
 73
     3
 74
     0
 42
0.000000001
 43
0.0000000001
 40
0.0
 40
0.0
 40
0.0
 40
1.75
 40
1.75
 40
1.75
 10
25.24270391028951
 20
-13.6875
 30
18.21560914821148
 10
25.24270391028951
 20
-14.5625
 30
18.21560914821148
 10
25.24270391028951
 20
-15.4375
 30
18.21560914821148
  0
SPLINE
  5
13C
330
1F
100
AcDbEntity
  8
0
100
AcDbSpline
210
0.0
220
0.0
230
1.0
 70
    24
 71
     2
 72
     6
 73
     3
 74
     0
 42
0.000000001
 43
0.0000000001
 40
0.0
 40
0.0
 40
0.0
 40
1.75
 40
1.75
 40
1.75
 10
24.88280999931332
 20
-13.6875
 30
18.44717123766383
 10
24.88280999931332
 20
-14.5625
 30
18.44717123766383
 10
24.88280999931332
 20
-15.4375
 30
18.44717123766383
  0
SPLINE
  5
13D
330
1F
100
AcDbEntity
  8
0
100
AcDbSpline
210
0.0
220
0.0
230
1.0
 70
    24
 71
     2
 72
     6
 73
     3
 74
     0
 42
0.000000001
 43
0.0000000001
 40
0.0
 40
0.0
 40
0.0
 40
1.75
 40
1.75
 40
1.75
 10
24.3832237410946
 20
-13.6875
 30
18.64402781380051
 10
24.3832237410946
 20
-14.5625
 30
18.64402781380051
 10
24.3832237410946
 20
-15.4375
 30
18.64402781380051
  0
SPLINE
  5
13E
330
1F
100
AcDbEntity
  8
0
100
AcDbSpline
210
0.0
220
0.0
230
1.0
 70
    24
 71
     2
 72
     6
 73
     3
 74
     0
 42
0.000000001
 43
0.0000000001
 40
0.0
 40
0.0
 40
0.0
 40
1.75
 40
1.75
 40
1.75
 10
23.69297656383959
 20
-13.6875
 30
18.81835286105279
 10
23.69297656383959
 20
-14.5625
 30
18.81835286105279
 10
23.69297656383959
 20
-15.4375
 30
18.81835286105279
  0
SPLINE
  5
13F
330
1F
100
AcDbEntity
  8
0
100
AcDbSpline
210
0.0
220
0.0
230
1.0
 70
    24
 71
     2
 72
     6
 73
     3
 74
     0
 42
0.000000001
 43
0.0000000001
 40
0.0
 40
0.0
 40
0.0
 40
1.75
 40
1.75
 40
1.75
 10
22.81726051024276
 20
-13.6875
 30
19.05300027041303
 10
22.81726051024276
 20
-14.5625
 30
19.05300027041303
 10
22.81726051024276
 20
-15.4375
 30
19.05300027041303
  0
SPLINE
  5
140
330
1F
100
AcDbEntity
  8
0
100
AcDbSpline
210
0.0
220
0.0
230
1.0
 70
    24
 71
     2
 72
     6
 73
     3
 74
     0
 42
0.000000001
 43
0.0000000001
 40
0.0
 40
0.0
 40
0.0
 40
1.75
 40
1.75
 40
1.75
 10
22.00969548672369
 20
-13.6875
 30
19.36640330670268
 10
22.00969548672369
 20
-14.5625
 30
19.36640330670268
 10
22.00969548672369
 20
-15.4375
 30
19.36640330670268
  0
SPLINE
  5
141
330
1F
100
AcDbEntity
  8
0
100
AcDbSpline
210
0.0
220
0.0
230
1.0
 70
    24
 71
     2
 72
     6
 73
     3
 74
     0
 42
0.000000001
 43
0.0000000001
 40
0.0
 40
0.0
 40
0.0
 40
1.75
 40
1.75
 40
1.75
 10
21.37298716957173
 20
-13.6875
 30
19.71177237112607
 10
21.37298716957173
 20
-14.5625
 30
19.71177237112607
 10
21.37298716957173
 20
-15.4375
 30
19.71177237112607
  0
SPLINE
  5
142
330
1F
100
AcDbEntity
  8
0
100
AcDbSpline
210
0.0
220
0.0
230
1.0
 70
    24
 71
     2
 72
     6
 73
     3
 74
     0
 42
0.000000001
 43
0.0000000001
 40
0.0
 40
0.0
 40
0.0
 40
1.75
 40
1.75
 40
1.75
 10
20.89536840929259
 20
-13.6875
 30
20.06009292470157
 10
20.89536840929259
 20
-14.5625
 30
20.06009292470157
 10
20.89536840929259
 20
-15.4375
 30
20.06009292470157
  0
SPLINE
  5
143
330
1F
100
AcDbEntity
  8
0
100
AcDbSpline
210
0.0
220
0.0
230
1.0
 70
    24
 71
     2
 72
     6
 73
     3
 74
     0
 42
0.000000001
 43
0.0000000001
 40
0.0
 40
0.0
 40
0.0
 40
1.75
 40
1.75
 40
1.75
 10
20.50822839834807
 20
-13.6875
 30
20.41118679141488
 10
20.50822839834807
 20
-14.5625
 30
20.41118679141488
 10
20.50822839834807
 20
-15.4375
 30
20.41118679141488
  0
SPLINE
  5
144
330
1F
100
AcDbEntity
  8
0
100
AcDbSpline
210
0.0
220
0.0
230
1.0
 70
    24
 71
     2
 72
     6
 73
     3
 74
     0
 42
0.000000001
 43
0.0000000001
 40
0.0
 40
0.0
 40
0.0
 40
1.75
 40
1.75
 40
1.75
 10
20.00305171474985
 20
-13.6875
 30
21.09644467241394
 10
20.00305171474985
 20
-14.5625
 30
21.09644467241394
 10
20.00305171474985
 20
-15.4375
 30
21.09644467241394
  0
SPLINE
  5
145
330
1F
100
AcDbEntity
  8
0
100
AcDbSpline
210
0.0
220
0.0
230
1.0
 70
    24
 71
     2
 72
     6
 73
     3
 74
     0
 42
0.000000001
 43
0.0000000001
 40
0.0
 40
0.0
 40
0.0
 40
1.75
 40
1.75
 40
1.75
 10
19.33599357435111
 20
-13.6875
 30
22.25182326318699
 10
19.33599357435111
 20
-14.5625
 30
22.25182326318699
 10
19.33599357435111
 20
-15.4375
 30
22.25182326318699
  0
SPLINE
  5
146
330
1F
100
AcDbEntity
  8
0
100
AcDbSpline
210
0.0
220
0.0
230
1.0
 70
    24
 71
     2
 72
     6
 73
     3
 74
     0
 42
0.000000001
 43
0.0000000001
 40
0.0
 40
0.0
 40
0.0
 40
1.75
 40
1.75
 40
1.75
 10
18.6824273068255
 20
-13.6875
 30
23.3838332446545
 10
18.6824273068255
 20
-14.5625
 30
23.3838332446545
 10
18.6824273068255
 20
-15.4375
 30
23.3838332446545
  0
SPLINE
  5
147
330
1F
100
AcDbEntity
  8
0
100
AcDbSpline
210
0.0
220
0.0
230
1.0
 70
    24
 71
     2
 72
     6
 73
     3
 74
     0
 42
0.000000001
 43
0.0000000001
 40
0.0
 40
0.0
 40
0.0
 40
1.75
 40
1.75
 40
1.75
 10
18.09240444148417
 20
-13.6875
 30
24.23519357490451
 10
18.09240444148417
 20
-14.5625
 30
24.23519357490451
 10
18.09240444148417
 20
-15.4375
 30
24.23519357490451
  0
SPLINE
  5
148
330
1F
100
AcDbEntity
  8
0
100
AcDbSpline
210
0.0
220
0.0
230
1.0
 70
    24
 71
     2
 72
     6
 73
     3
 74
     0
 42
0.000000001
 43
0.0000000001
 40
0.0
 40
0.0
 40
0.0
 40
1.75
 40
1.75
 40
1.75
 10
17.39456381961698
 20
-13.6875
 30
25.05454234829931
 10
17.39456381961698
 20
-14.5625
 30
25.05454234829931
 10
17.39456381961698
 20
-15.4375
 30
25.05454234829931
  0
SPLINE
  5
149
330
1F
100
AcDbEntity
  8
0
100
AcDbSpline
210
0.0
220
0.0
230
1.0
 70
    24
 71
     2
 72
     6
 73
     3
 74
     0
 42
0.000000001
 43
0.0000000001
 40
0.0
 40
0.0
 40
0.0
 40
1.75
 40
1.75
 40
1.75
 10
16.56975213420894
 20
-13.6875
 30
25.8009265979763
 10
16.56975213420894
 20
-14.5625
 30
25.8009265979763
 10
16.56975213420894
 20
-15.4375
 30
25.8009265979763
  0
SPLINE
  5
14A
330
1F
100
AcDbEntity
  8
0
100
AcDbSpline
210
0.0
220
0.0
230
1.0
 70
    24
 71
     2
 72
     6
 73
     3
 74
     0
 42
0.000000001
 43
0.0000000001
 40
0.0
 40
0.0
 40
0.0
 40
1.75
 40
1.75
 40
1.75
 10
15.63347692752106
 20
-13.6875
 30
26.34148534059312
 10
15.63347692752106
 20
-14.5625
 30
26.34148534059312
 10
15.63347692752106
 20
-15.4375
 30
26.34148534059312
  0
SPLINE
  5
14B
330
1F
100
AcDbEntity
  8
0
100
AcDbSpline
210
0.0
220
0.0
230
1.0
 70
    24
 71
     2
 72
     6
 73
     3
 74
     0
 42
0.000000001
 43
0.0000000001
 40
0.0
 40
0.0
 40
0.0
 40
1.75
 40
1.75
 40
1.75
 10
14.84022363119
 20
-13.6875
 30
26.64224830629326
 10
14.84022363119
 20
-14.5625
 30
26.64224830629326
 10
14.84022363119
 20
-15.4375
 30
26.64224830629326
  0
SPLINE
  5
14C
330
1F
100
AcDbEntity
  8
0
100
AcDbSpline
210
0.0
220
0.0
230
1.0
 70
    24
 71
     2
 72
     6
 73
     3
 74
     0
 42
0.000000001
 43
0.0000000001
 40
0.0
 40
0.0
 40
0.0
 40
1.75
 40
1.75
 40
1.75
 10
13.67134172044288
 20
-13.6875
 30
26.89676196872751
 10
13.67134172044288
 20
-14.5625
 30
26.89676196872751
 10
13.67134172044288
 20
-15.4375
 30
26.89676196872751
  0
LINE
  5
14D
330
1F
100
AcDbEntity
  8
0
100
AcDbLine
 10
24.64619307742136
 20
-15.4375
 30
16.38223312382162
 11
24.64619307742136
 21
-13.6875
 31
16.38223312382162
  0
LINE
  5
14E
330
1F
100
AcDbEntity
  8
0
100
AcDbLine
 10
23.17886156743281
 20
-14.5625
 30
16.38223312382162
 11
26.11352458740992
 21
-14.5625
 31
16.38223312382162
  0
SPLINE
  5
14F
330
1F
100
AcDbEntity
  8
0
100
AcDbSpline
210
2.005945071503911E-16
220
1.0
230
8.114092985785518E-16
 70
     8
 71
     3
 72
    24
 73
    20
 74
     0
 42
0.000000001
 43
0.0000000001
 40
0.4333124023105986
 40
0.4333124023105986
 40
0.4333124023105986
 40
0.4333124023105986
 40
1.887237099064775
 40
4.861575131712394
 40
7.959544911317729
 40
10.82505960183766
 40
13.43237100267127
 40
17.02718300901096
 40
18.92359569464653
 40
20.54864129392536
 40
21.94739410920529
 40
24.34888365059554
 40
26.36892058692199
 40
29.09627411585996
 40
30.93122250592336
 40
33.62280461490998
 40
35.65022308519314
 40
36.71146164613257
 40
38.06843589525378
 40
38.06843589525378
 40
38.06843589525378
 40
38.06843589525378
 10
12.86352458740735
 20
-14.5625
 30
21.12158819867152
 10
13.01050560451069
 20
-14.5625
 30
21.10089154835558
 10
13.45727098826284
 20
-14.5625
 30
21.03262336224034
 10
14.19631667508013
 20
-14.5625
 30
20.79864226619177
 10
14.99116566704661
 20
-14.5625
 30
20.34367449942629
 10
15.71103017076954
 20
-14.5625
 30
19.84703415286919
 10
16.45634439373288
 20
-14.5625
 30
19.29836145763642
 10
17.12024614580144
 20
-14.5625
 30
18.80639833371298
 10
17.69466713346168
 20
-14.5625
 30
18.36144522426233
 10
18.11363785373429
 20
-14.5625
 30
18.08445514208001
 10
18.58068875093831
 20
-14.5625
 30
17.78633808195709
 10
19.11654821499445
 20
-14.5625
 30
17.52790421545629
 10
19.77967484600093
 20
-14.5625
 30
17.22257126918461
 10
20.42052418807097
 20
-14.5625
 30
17.0175066325796
 10
21.12617649191002
 20
-14.5625
 30
16.79377034605591
 10
21.78465321568034
 20
-14.5625
 30
16.66331222297895
 10
22.372009113643
 20
-14.5625
 30
16.60891232737254
 10
22.81852253212355
 20
-14.5625
 30
16.52073417149442
 10
23.04933929894585
 20
-14.5625
 30
16.43201671128948
 10
23.1788615674328
 20
-14.5625
 30
16.38223312382162
  0
SPLINE
  5
150
330
1F
100
AcDbEntity
  8
0
100
AcDbSpline
210
0.0
220
0.0
230
1.0
 70
    24
 71
     2
 72
     6
 73
     3
 74
     0
 42
0.000000001
 43
0.0000000001
 40
0.0
 40
0.0
 40
0.0
 40
1.75
 40
1.75
 40
1.75
 10
13.30259137229743
 20
-13.6875
 30
21.04858138014119
 10
13.30259137229743
 20
-14.5625
 30
21.04858138014119
 10
13.30259137229743
 20
-15.4375
 30
21.04858138014119
  0
SPLINE
  5
151
330
1F
100
AcDbEntity
  8
0
100
AcDbSpline
210
0.0
220
0.0
230
1.0
 70
    24
 71
     2
 72
     6
 73
     3
 74
     0
 42
0.000000001
 43
0.0000000001
 40
0.0
 40
0.0
 40
0.0
 40
1.75
 40
1.75
 40
1.75
 10
14.17067841170858
 20
-13.6875
 30
20.77361767572405
 10
14.17067841170858
 20
-14.5625
 30
20.77361767572405
 10
14.17067841170858
 20
-15.4375
 30
20.77361767572405
  0
SPLINE
  5
152
330
1F
100
AcDbEntity
  8
0
100
AcDbSpline
210
0.0
220
0.0
230
1.0
 70
    24
 71
     2
 72
     6
 73
     3
 74
     0
 42
0.000000001
 43
0.0000000001
 40
0.0
 40
0.0
 40
0.0
 40
1.75
 40
1.75
 40
1.75
 10
15.00388697126062
 20
-13.6875
 30
20.32050854120097
 10
15.00388697126062
 20
-14.5625
 30
20.32050854120097
 10
15.00388697126062
 20
-15.4375
 30
20.32050854120097
  0
SPLINE
  5
153
330
1F
100
AcDbEntity
  8
0
100
AcDbSpline
210
0.0
220
0.0
230
1.0
 70
    24
 71
     2
 72
     6
 73
     3
 74
     0
 42
0.000000001
 43
0.0000000001
 40
0.0
 40
0.0
 40
0.0
 40
1.75
 40
1.75
 40
1.75
 10
15.73002299551365
 20
-13.6875
 30
19.82822663374788
 10
15.73002299551365
 20
-14.5625
 30
19.82822663374788
 10
15.73002299551365
 20
-15.4375
 30
19.82822663374788
  0
SPLINE
  5
154
330
1F
100
AcDbEntity
  8
0
100
AcDbSpline
210
0.0
220
0.0
230
1.0
 70
    24
 71
     2
 72
     6
 73
     3
 74
     0
 42
0.000000001
 43
0.0000000001
 40
0.0
 40
0.0
 40
0.0
 40
1.75
 40
1.75
 40
1.75
 10
16.37493899174475
 20
-13.6875
 30
19.35785284585621
 10
16.37493899174475
 20
-14.5625
 30
19.35785284585621
 10
16.37493899174475
 20
-15.4375
 30
19.35785284585621
  0
SPLINE
  5
155
330
1F
100
AcDbEntity
  8
0
100
AcDbSpline
210
0.0
220
0.0
230
1.0
 70
    24
 71
     2
 72
     6
 73
     3
 74
     0
 42
0.000000001
 43
0.0000000001
 40
0.0
 40
0.0
 40
0.0
 40
1.75
 40
1.75
 40
1.75
 10
17.25651559858311
 20
-13.6875
 30
18.69903880774579
 10
17.25651559858311
 20
-14.5625
 30
18.69903880774579
 10
17.25651559858311
 20
-15.4375
 30
18.69903880774579
  0
SPLINE
  5
156
330
1F
100
AcDbEntity
  8
0
100
AcDbSpline
210
0.0
220
0.0
230
1.0
 70
    24
 71
     2
 72
     6
 73
     3
 74
     0
 42
0.000000001
 43
0.0000000001
 40
0.0
 40
0.0
 40
0.0
 40
1.75
 40
1.75
 40
1.75
 10
17.72109965668719
 20
-13.6875
 30
18.3508400116417
 10
17.72109965668719
 20
-14.5625
 30
18.3508400116417
 10
17.72109965668719
 20
-15.4375
 30
18.3508400116417
  0
SPLINE
  5
157
330
1F
100
AcDbEntity
  8
0
100
AcDbSpline
210
0.0
220
0.0
230
1.0
 70
    24
 71
     2
 72
     6
 73
     3
 74
     0
 42
0.000000001
 43
0.0000000001
 40
0.0
 40
0.0
 40
0.0
 40
1.75
 40
1.75
 40
1.75
 10
18.13372372052272
 20
-13.6875
 30
18.07289191690987
 10
18.13372372052272
 20
-14.5625
 30
18.07289191690987
 10
18.13372372052272
 20
-15.4375
 30
18.07289191690987
  0
SPLINE
  5
158
330
1F
100
AcDbEntity
  8
0
100
AcDbSpline
210
0.0
220
0.0
230
1.0
 70
    24
 71
     2
 72
     6
 73
     3
 74
     0
 42
0.000000001
 43
0.0000000001
 40
0.0
 40
0.0
 40
0.0
 40
1.75
 40
1.75
 40
1.75
 10
18.49744406702797
 20
-13.6875
 30
17.84686811259335
 10
18.49744406702797
 20
-14.5625
 30
17.84686811259335
 10
18.49744406702797
 20
-15.4375
 30
17.84686811259335
  0
SPLINE
  5
159
330
1F
100
AcDbEntity
  8
0
100
AcDbSpline
210
0.0
220
0.0
230
1.0
 70
    24
 71
     2
 72
     6
 73
     3
 74
     0
 42
0.000000001
 43
0.0000000001
 40
0.0
 40
0.0
 40
0.0
 40
1.75
 40
1.75
 40
1.75
 10
19.15257007734938
 20
-13.6875
 30
17.51317340012805
 10
19.15257007734938
 20
-14.5625
 30
17.51317340012805
 10
19.15257007734938
 20
-15.4375
 30
17.51317340012805
  0
SPLINE
  5
15A
330
1F
100
AcDbEntity
  8
0
100
AcDbSpline
210
0.0
220
0.0
230
1.0
 70
    24
 71
     2
 72
     6
 73
     3
 74
     0
 42
0.000000001
 43
0.0000000001
 40
0.0
 40
0.0
 40
0.0
 40
1.75
 40
1.75
 40
1.75
 10
19.71801784705223
 20
-13.6875
 30
17.26271469013335
 10
19.71801784705223
 20
-14.5625
 30
17.26271469013335
 10
19.71801784705223
 20
-15.4375
 30
17.26271469013335
  0
SPLINE
  5
15B
330
1F
100
AcDbEntity
  8
0
100
AcDbSpline
210
0.0
220
0.0
230
1.0
 70
    24
 71
     2
 72
     6
 73
     3
 74
     0
 42
0.000000001
 43
0.0000000001
 40
0.0
 40
0.0
 40
0.0
 40
1.75
 40
1.75
 40
1.75
 10
20.50727787882214
 20
-13.6875
 30
16.99021046346869
 10
20.50727787882214
 20
-14.5625
 30
16.99021046346869
 10
20.50727787882214
 20
-15.4375
 30
16.99021046346869
  0
SPLINE
  5
15C
330
1F
100
AcDbEntity
  8
0
100
AcDbSpline
210
0.0
220
0.0
230
1.0
 70
    24
 71
     2
 72
     6
 73
     3
 74
     0
 42
0.000000001
 43
0.0000000001
 40
0.0
 40
0.0
 40
0.0
 40
1.75
 40
1.75
 40
1.75
 10
21.04521741626519
 20
-13.6875
 30
16.82832851825573
 10
21.04521741626519
 20
-14.5625
 30
16.82832851825573
 10
21.04521741626519
 20
-15.4375
 30
16.82832851825573
  0
SPLINE
  5
15D
330
1F
100
AcDbEntity
  8
0
100
AcDbSpline
210
0.0
220
0.0
230
1.0
 70
    24
 71
     2
 72
     6
 73
     3
 74
     0
 42
0.000000001
 43
0.0000000001
 40
0.0
 40
0.0
 40
0.0
 40
1.75
 40
1.75
 40
1.75
 10
21.85313852214479
 20
-13.6875
 30
16.66620213130666
 10
21.85313852214479
 20
-14.5625
 30
16.66620213130666
 10
21.85313852214479
 20
-15.4375
 30
16.66620213130666
  0
SPLINE
  5
15E
330
1F
100
AcDbEntity
  8
0
100
AcDbSpline
210
0.0
220
0.0
230
1.0
 70
    24
 71
     2
 72
     6
 73
     3
 74
     0
 42
0.000000001
 43
0.0000000001
 40
0.0
 40
0.0
 40
0.0
 40
1.75
 40
1.75
 40
1.75
 10
22.46862224282924
 20
-13.6875
 30
16.58594762292166
 10
22.46862224282924
 20
-14.5625
 30
16.58594762292166
 10
22.46862224282924
 20
-15.4375
 30
16.58594762292166
  0
SPLINE
  5
15F
330
1F
100
AcDbEntity
  8
0
100
AcDbSpline
210
0.0
220
0.0
230
1.0
 70
    24
 71
     2
 72
     6
 73
     3
 74
     0
 42
0.000000001
 43
0.0000000001
 40
0.0
 40
0.0
 40
0.0
 40
1.75
 40
1.75
 40
1.75
 10
22.78649553556819
 20
-13.6875
 30
16.51875140060834
 10
22.78649553556819
 20
-14.5625
 30
16.51875140060834
 10
22.78649553556819
 20
-15.4375
 30
16.51875140060834
  0
LINE
  5
160
330
1F
100
AcDbEntity
  8
0
100
AcDbLine
 10
12.86352458740992
 20
-13.6875
 30
24.00917508370866
 11
12.86352458740992
 21
-15.4375
 31
24.00917508370866
  0
LINE
  5
161
330
1F
100
AcDbEntity
  8
0
100
AcDbLine
 10
12.86352458740992
 20
-14.5625
 30
21.1215881986898
 11
12.86352458740992
 21
-14.5625
 31
26.89676196872751
  0
LINE
  5
162
330
1F
100
AcDbEntity
  8
0
100
AcDbLine
 10
12.86352458740992
 20
-15.4375
 30
21.65789172861873
 11
19.66850302351173
 21
-15.4375
 31
21.65789172861873
  0
LINE
  5
163
330
1F
100
AcDbEntity
  8
0
100
AcDbLine
 10
19.49349288343847
 20
-15.4375
 30
17.35707115924723
 11
19.49349288343847
 21
-15.4375
 31
21.96804854651238
  0
LINE
  5
164
330
1F
100
AcDbEntity
  8
0
100
AcDbLine
 10
12.86352458740992
 20
-13.6875
 30
21.65789172861873
 11
19.66850302351173
 21
-13.6875
 31
21.65789172861873
  0
LINE
  5
165
330
1F
100
AcDbEntity
  8
0
100
AcDbLine
 10
19.49349288343847
 20
-13.6875
 30
17.35707115924723
 11
19.49349288343847
 21
-13.6875
 31
21.96804854651238
  0
SPLINE
  5
166
330
1F
100
AcDbEntity
  8
0
100
AcDbSpline
210
1.0
220
8.211465359791309E-15
230
1.590828088399336E-14
 70
    12
 71
     2
 72
     6
 73
     3
 74
     0
 42
0.000000001
 43
0.0000000001
 40
3.675544141182663
 40
3.675544141182663
 40
3.675544141182663
 40
6.053533574518434
 40
6.053533574518434
 40
6.053533574518434
 10
4.163152584116664
 20
-12.76059395927239
 30
27.03866606056421
 41
1.291603853491729
 10
4.163152584116669
 20
-13.69719428594298
 30
27.18712903009855
 41
1.344812849220423
 10
4.163152584116676
 20
-14.56249999999837
 30
27.18712906397991
 41
1.344812842354848
  0
SPLINE
  5
167
330
1F
100
AcDbEntity
  8
0
100
AcDbSpline
210
0.0
220
0.0
230
1.0
 70
    24
 71
     2
 72
     6
 73
     3
 74
     0
 42
0.000000001
 43
0.0000000001
 40
5.226763576859614
 40
5.226763576859614
 40
5.226763576859614
 40
11.17983757002823
 40
11.17983757002823
 40
11.17983757002823
 10
4.163152584116665
 20
-12.76059395927239
 30
21.08559206739559
 10
4.163152584116665
 20
-12.76059395927239
 30
24.0621290639799
 10
4.163152584116664
 20
-12.76059395927239
 30
27.03866606056421
  0
SPLINE
  5
168
330
1F
100
AcDbEntity
  8
0
100
AcDbSpline
210
-1.0
220
-6.158597142040922E-15
230
-2.957453009558571E-15
 70
    12
 71
     2
 72
     6
 73
     3
 74
     0
 42
0.000000001
 43
0.0000000001
 40
3.675544141182658
 40
3.675544141182658
 40
3.675544141182658
 40
6.053534094767
 40
6.053534094767
 40
6.053534094767
 10
4.163152584116682
 20
-16.36440604072761
 30
21.0855920673956
 41
1.291603802747634
 10
4.163152584116677
 20
-15.42780591219762
 30
20.93712906386516
 41
1.344812835489254
 10
4.163152584116672
 20
-14.56249999999837
 30
20.9371290639799
 41
1.34481284235483
  0
SPLINE
  5
169
330
1F
100
AcDbEntity
  8
0
100
AcDbSpline
210
0.0
220
0.0
230
1.0
 70
    24
 71
     2
 72
     6
 73
     3
 74
     0
 42
0.000000001
 43
0.0000000001
 40
-11.17983757002825
 40
-11.17983757002825
 40
-11.17983757002825
 40
-5.226763576859618
 40
-5.226763576859618
 40
-5.226763576859618
 10
4.163152584116686
 20
-16.36440604072761
 30
27.03866606056422
 10
4.163152584116684
 20
-16.36440604072761
 30
24.06212906397991
 10
4.163152584116682
 20
-16.36440604072761
 30
21.08559206739559
  0
SPLINE
  5
16A
330
1F
100
AcDbEntity
  8
0
100
AcDbSpline
210
1.0
220
6.158597141247556E-15
230
-8.939942908296182E-15
 70
    12
 71
     2
 72
     6
 73
     3
 74
     0
 42
0.000000001
 43
0.0000000001
 40
6.053533574518434
 40
6.053533574518434
 40
6.053533574518434
 40
8.4315235281028
 40
8.4315235281028
 40
8.4315235281028
 10
4.163152584116676
 20
-14.56249999999837
 30
27.18712906397991
 41
1.344812842354848
 10
4.163152584116681
 20
-15.42780591219761
 30
27.18712906409466
 41
1.344812835489272
 10
4.163152584116686
 20
-16.36440604072761
 30
27.03866606056422
 41
1.291603802747648
  0
SPLINE
  5
16B
330
1F
100
AcDbEntity
  8
0
100
AcDbSpline
210
-1.0
220
-4.105732445648919E-15
230
1.971647690561911E-15
 70
    12
 71
     2
 72
     6
 73
     3
 74
     0
 42
0.000000001
 43
0.0000000001
 40
6.053534094767
 40
6.053534094767
 40
6.053534094767
 40
8.43152352810275
 40
8.43152352810275
 40
8.43152352810275
 10
4.163152584116672
 20
-14.56249999999837
 30
20.9371290639799
 41
1.34481284235483
 10
4.163152584116668
 20
-13.69719428594298
 30
20.93712909786126
 41
1.344812849220405
 10
4.163152584116665
 20
-12.76059395927239
 30
21.08559206739559
 41
1.291603853491713
  0
SPLINE
  5
16C
330
1F
100
AcDbEntity
  8
0
100
AcDbSpline
210
0.7071067811865503
220
0.7071067811865448
230
1.855156357714401E-14
 70
    12
 71
     2
 72
     6
 73
     3
 74
     0
 42
0.000000001
 43
0.0000000001
 40
3.67554414118269
 40
3.67554414118269
 40
3.67554414118269
 40
8.43152352810284
 40
8.43152352810284
 40
8.43152352810284
 10
4.163152584116686
 20
-16.36440604072761
 30
27.03866606056422
 41
1.291603802747648
 10
5.4372922839213
 20
-17.63854574053224
 30
27.3242909312562
 41
1.398021856590004
 10
6.71143254503568
 20
-18.91268600164662
 30
27.03866606056421
 41
1.291603853491728
  0
SPLINE
  5
16D
330
1F
100
AcDbEntity
  8
0
100
AcDbSpline
210
-0.7071067811865511
220
-0.7071067811865438
230
6.471474240973317E-15
 70
    12
 71
     2
 72
     6
 73
     3
 74
     0
 42
0.000000001
 43
0.0000000001
 40
3.675544141182594
 40
3.675544141182594
 40
3.675544141182594
 40
8.431523528102723
 40
8.431523528102723
 40
8.431523528102723
 10
6.711432545035681
 20
-18.91268600164663
 30
21.08559206739561
 41
1.291603802747634
 10
5.437292564576179
 20
-17.63854602118712
 30
20.799967133789
 41
1.398021881962037
 10
4.163152584116682
 20
-16.36440604072761
 30
21.08559206739559
 41
1.291603802747638
  0
SPLINE
  5
16E
330
1F
100
AcDbEntity
  8
0
100
AcDbSpline
210
0.0
220
0.0
230
1.0
 70
    24
 71
     2
 72
     6
 73
     3
 74
     0
 42
0.000000001
 43
0.0000000001
 40
-11.17983757002823
 40
-11.17983757002823
 40
-11.17983757002823
 40
-5.226763576859632
 40
-5.226763576859632
 40
-5.226763576859632
 10
6.711432545035679
 20
-18.91268600164663
 30
27.03866606056421
 10
6.71143254503568
 20
-18.91268600164663
 30
24.06212906397991
 10
6.711432545035681
 20
-18.91268600164663
 30
21.08559206739561
  0
SPLINE
  5
16F
330
1F
100
AcDbEntity
  8
0
100
AcDbSpline
210
1.971642027109191E-15
220
-1.0
230
-2.487678374415666E-14
 70
    12
 71
     2
 72
     6
 73
     3
 74
     0
 42
0.000000001
 43
0.0000000001
 40
3.675544141182656
 40
3.675544141182656
 40
3.675544141182656
 40
8.431523528102774
 40
8.431523528102774
 40
8.431523528102774
 10
6.711432545035679
 20
-18.91268600164662
 30
27.03866606056421
 41
1.291603853491714
 10
8.513338982669238
 20
-18.91268600164663
 30
27.3242909312562
 41
1.398021856589983
 10
10.31524462649092
 20
-18.91268600164662
 30
27.03866606056421
 41
1.291603802747633
  0
SPLINE
  5
170
330
1F
100
AcDbEntity
  8
0
100
AcDbSpline
210
-3.943284054218368E-15
220
1.0
230
1.243839598178607E-14
 70
    12
 71
     2
 72
     6
 73
     3
 74
     0
 42
0.000000001
 43
0.0000000001
 40
3.675544141182592
 40
3.675544141182592
 40
3.675544141182592
 40
8.431523528102716
 40
8.431523528102716
 40
8.431523528102716
 10
10.31524462649092
 20
-18.91268600164662
 30
21.08559206739561
 41
1.29160385349172
 10
8.513338188857356
 20
-18.91268600164662
 30
20.79996719670362
 41
1.398021856589994
 10
6.711432545035681
 20
-18.91268600164663
 30
21.08559206739561
 41
1.29160380274764
  0
SPLINE
  5
171
330
1F
100
AcDbEntity
  8
0
100
AcDbSpline
210
0.0
220
0.0
230
1.0
 70
    24
 71
     2
 72
     6
 73
     3
 74
     0
 42
0.000000001
 43
0.0000000001
 40
-11.17983757002823
 40
-11.17983757002823
 40
-11.17983757002823
 40
-5.226763576859625
 40
-5.226763576859625
 40
-5.226763576859625
 10
10.31524462649092
 20
-18.91268600164662
 30
27.03866606056421
 10
10.31524462649092
 20
-18.91268600164662
 30
24.06212906397991
 10
10.31524462649092
 20
-18.91268600164662
 30
21.08559206739561
  0
SPLINE
  5
172
330
1F
100
AcDbEntity
  8
0
100
AcDbSpline
210
0.707106781186547
220
-0.7071067811865479
230
4.745748822060299E-15
 70
    12
 71
     2
 72
     6
 73
     3
 74
     0
 42
0.000000001
 43
0.0000000001
 40
3.675544141182705
 40
3.675544141182705
 40
3.675544141182705
 40
8.431523528102787
 40
8.431523528102787
 40
8.431523528102787
 10
10.31524462649092
 20
-18.91268600164662
 30
27.03866606056421
 41
1.29160380274763
 10
11.58938432629555
 20
-17.63854630184199
 30
27.32429093125618
 41
1.398021856589977
 10
12.86352458740993
 20
-16.36440604072761
 30
27.0386660605642
 41
1.29160385349171
  0
SPLINE
  5
173
330
1F
100
AcDbEntity
  8
0
100
AcDbSpline
210
-0.7071067811865472
220
0.7071067811865478
230
6.471477091918178E-15
 70
    12
 71
     2
 72
     6
 73
     3
 74
     0
 42
0.000000001
 43
0.0000000001
 40
3.675544141182599
 40
3.675544141182599
 40
3.675544141182599
 40
8.431523528102723
 40
8.431523528102723
 40
8.431523528102723
 10
12.86352458740993
 20
-16.36440604072762
 30
21.08559206739561
 41
1.291603853491708
 10
11.58938460695034
 20
-17.6385460211872
 30
20.79996725961822
 41
1.398021831217965
 10
10.31524462649092
 20
-18.91268600164662
 30
21.08559206739561
 41
1.291603853491722
  0
SPLINE
  5
174
330
1F
100
AcDbEntity
  8
0
100
AcDbSpline
210
0.0
220
0.0
230
1.0
 70
    24
 71
     2
 72
     6
 73
     3
 74
     0
 42
0.000000001
 43
0.0000000001
 40
-11.17983757002822
 40
-11.17983757002822
 40
-11.17983757002822
 40
-5.226763576859625
 40
-5.226763576859625
 40
-5.226763576859625
 10
12.86352458740993
 20
-16.36440604072761
 30
27.0386660605642
 10
12.86352458740993
 20
-16.36440604072762
 30
24.06212906397991
 10
12.86352458740993
 20
-16.36440604072762
 30
21.08559206739561
  0
SPLINE
  5
175
330
1F
100
AcDbEntity
  8
0
100
AcDbSpline
210
1.0
220
0.0
230
0.0
 70
    12
 71
     2
 72
     6
 73
     3
 74
     0
 42
0.000000001
 43
0.0000000001
 40
3.675544141182653
 40
3.675544141182653
 40
3.675544141182653
 40
8.431523528102716
 40
8.431523528102716
 40
8.431523528102716
 10
12.86352458740993
 20
-16.36440604072761
 30
27.0386660605642
 41
1.291603802747624
 10
12.86352458740993
 20
-14.56249999999999
 30
27.32429099417081
 41
1.398021881962018
 10
12.86352458740993
 20
-12.76059395927238
 30
27.0386660605642
 41
1.291603802747626
  0
SPLINE
  5
176
330
1F
100
AcDbEntity
  8
0
100
AcDbSpline
210
-1.0
220
-1.478731520331877E-15
230
9.328794931486950E-15
 70
    12
 71
     2
 72
     6
 73
     3
 74
     0
 42
0.000000001
 43
0.0000000001
 40
3.675544141182622
 40
3.675544141182622
 40
3.675544141182622
 40
8.431523528102737
 40
8.431523528102737
 40
8.431523528102737
 10
12.86352458740992
 20
-12.76059395927238
 30
21.0855920673956
 41
1.291603853491709
 10
12.86352458740992
 20
-14.56250000000011
 30
20.79996725961823
 41
1.398021831217964
 10
12.86352458740993
 20
-16.36440604072762
 30
21.08559206739561
 41
1.291603853491722
  0
SPLINE
  5
177
330
1F
100
AcDbEntity
  8
0
100
AcDbSpline
210
0.0
220
0.0
230
1.0
 70
    24
 71
     2
 72
     6
 73
     3
 74
     0
 42
0.000000001
 43
0.0000000001
 40
-11.17983757002822
 40
-11.17983757002822
 40
-11.17983757002822
 40
-5.226763576859621
 40
-5.226763576859621
 40
-5.226763576859621
 10
12.86352458740993
 20
-12.76059395927238
 30
27.0386660605642
 10
12.86352458740993
 20
-12.76059395927238
 30
24.0621290639799
 10
12.86352458740992
 20
-12.76059395927238
 30
21.0855920673956
  0
SPLINE
  5
178
330
1F
100
AcDbEntity
  8
0
100
AcDbSpline
210
0.7071067811865483
220
0.7071067811865468
230
-6.471475666445577E-15
 70
    12
 71
     2
 72
     6
 73
     3
 74
     0
 42
0.000000001
 43
0.0000000001
 40
3.675544141182645
 40
3.675544141182645
 40
3.675544141182645
 40
8.431523528102783
 40
8.431523528102783
 40
8.431523528102783
 10
12.86352458740993
 20
-12.76059395927238
 30
27.0386660605642
 41
1.291603853491721
 10
11.58938432629555
 20
-11.486453698158
 30
27.32429093125619
 41
1.398021856589993
 10
10.31524462649092
 20
-10.21231399835337
 30
27.03866606056421
 41
1.291603802747639
  0
SPLINE
  5
179
330
1F
100
AcDbEntity
  8
0
100
AcDbSpline
210
-0.7071067811865483
220
-0.7071067811865468
230
1.984585871043288E-14
 70
    12
 71
     2
 72
     6
 73
     3
 74
     0
 42
0.000000001
 43
0.0000000001
 40
3.67554414118264
 40
3.67554414118264
 40
3.67554414118264
 40
8.431523528102773
 40
8.431523528102773
 40
8.431523528102773
 10
10.31524462649092
 20
-10.21231399835337
 30
21.08559206739559
 41
1.291603853491726
 10
11.58938488760529
 20
-11.48645425946776
 30
20.79996719670361
 41
1.398021856589999
 10
12.86352458740992
 20
-12.76059395927238
 30
21.0855920673956
 41
1.291603802747642
  0
SPLINE
  5
17A
330
1F
100
AcDbEntity
  8
0
100
AcDbSpline
210
0.0
220
0.0
230
1.0
 70
    24
 71
     2
 72
     6
 73
     3
 74
     0
 42
0.000000001
 43
0.0000000001
 40
-11.17983757002823
 40
-11.17983757002823
 40
-11.17983757002823
 40
-5.226763576859618
 40
-5.226763576859618
 40
-5.226763576859618
 10
10.31524462649092
 20
-10.21231399835337
 30
27.0386660605642
 10
10.31524462649092
 20
-10.21231399835337
 30
24.0621290639799
 10
10.31524462649092
 20
-10.21231399835337
 30
21.08559206739559
  0
SPLINE
  5
17B
330
1F
100
AcDbEntity
  8
0
100
AcDbSpline
210
0.0
220
-1.0
230
0.0
 70
    12
 71
     2
 72
     6
 73
     3
 74
     0
 42
0.000000001
 43
0.0000000001
 40
3.675544141182629
 40
3.675544141182629
 40
3.675544141182629
 40
8.43152352810278
 40
8.43152352810278
 40
8.43152352810278
 10
10.31524462649092
 20
-10.21231399835337
 30
27.0386660605642
 41
1.291603853491728
 10
8.513338188857372
 20
-10.21231399835337
 30
27.3242909312562
 41
1.398021856590003
 10
6.711432545035682
 20
-10.21231399835337
 30
27.03866606056421
 41
1.291603802747645
  0
SPLINE
  5
17C
330
1F
100
AcDbEntity
  8
0
100
AcDbSpline
210
4.929105067773130E-16
220
1.0
230
1.554798470296277E-14
 70
    12
 71
     2
 72
     6
 73
     3
 74
     0
 42
0.000000001
 43
0.0000000001
 40
3.675544141182664
 40
3.675544141182664
 40
3.675544141182664
 40
8.4315235281028
 40
8.4315235281028
 40
8.4315235281028
 10
6.711432545035683
 20
-10.21231399835337
 30
21.0855920673956
 41
1.291603802747645
 10
8.513338585763295
 20
-10.21231399835337
 30
20.79996713378897
 41
1.398021881962047
 10
10.31524462649092
 20
-10.21231399835337
 30
21.08559206739559
 41
1.291603802747641
  0
SPLINE
  5
17D
330
1F
100
AcDbEntity
  8
0
100
AcDbSpline
210
0.0
220
0.0
230
1.0
 70
    24
 71
     2
 72
     6
 73
     3
 74
     0
 42
0.000000001
 43
0.0000000001
 40
-11.17983757002823
 40
-11.17983757002823
 40
-11.17983757002823
 40
-5.226763576859618
 40
-5.226763576859618
 40
-5.226763576859618
 10
6.711432545035682
 20
-10.21231399835337
 30
27.03866606056421
 10
6.711432545035683
 20
-10.21231399835337
 30
24.0621290639799
 10
6.711432545035683
 20
-10.21231399835337
 30
21.08559206739559
  0
SPLINE
  5
17E
330
1F
100
AcDbEntity
  8
0
100
AcDbSpline
210
0.7071067811865474
220
-0.7071067811865476
230
5.608613479662359E-15
 70
    12
 71
     2
 72
     6
 73
     3
 74
     0
 42
0.000000001
 43
0.0000000001
 40
3.675544141182657
 40
3.675544141182657
 40
3.675544141182657
 40
8.431523528102801
 40
8.431523528102801
 40
8.431523528102801
 10
6.711432545035681
 20
-10.21231399835337
 30
27.03866606056421
 41
1.291603802747636
 10
5.437293125885867
 20
-11.48645341750318
 30
27.3242908683416
 41
1.398021831217948
 10
4.163152584116664
 20
-12.76059395927239
 30
27.03866606056421
 41
1.291603904235765
  0
SPLINE
  5
17F
330
1F
100
AcDbEntity
  8
0
100
AcDbSpline
210
-0.7071067811865474
220
0.7071067811865476
230
3.020021977674364E-15
 70
    12
 71
     2
 72
     6
 73
     3
 74
     0
 42
0.000000001
 43
0.0000000001
 40
3.675544141182617
 40
3.675544141182617
 40
3.675544141182617
 40
8.43152352810279
 40
8.43152352810279
 40
8.43152352810279
 10
4.163152584116665
 20
-12.76059395927239
 30
21.08559206739559
 41
1.291603802747646
 10
5.437292283921297
 20
-11.48645425946775
 30
20.79996719670359
 41
1.398021856590006
 10
6.711432545035684
 20
-10.21231399835337
 30
21.0855920673956
 41
1.291603853491729
  0
ARC
  5
180
330
1F
100
AcDbEntity
  8
0
100
AcDbCircle
 10
8.513338585763297
 20
-14.56249999999999
 30
39.23382849053596
 40
4.179687499999991
100
AcDbArc
 50
359.9999999999871
 51
179.9999999999786
  0
ARC
  5
181
330
1F
100
AcDbEntity
  8
0
100
AcDbCircle
 10
8.513338585763298
 20
-14.56249999999998
 30
40.85882849053598
 40
4.179687499999993
100
AcDbArc
 50
179.9999999999786
 51
359.9999999999785
  0
ARC
  5
182
330
1F
100
AcDbEntity
  8
0
100
AcDbCircle
 10
8.513338585763298
 20
-14.56249999999999
 30
40.85882849053598
 40
4.179687499999993
100
AcDbArc
 50
359.9999999999785
 51
179.9999999999786
  0
LINE
  5
183
330
1F
100
AcDbEntity
  8
0
100
AcDbLine
 10
12.69302608576329
 20
-14.56250000000155
 30
40.85882849053598
 11
12.69302608576329
 21
-14.56250000000093
 31
39.23382849053596
  0
ARC
  5
184
330
1F
100
AcDbEntity
  8
0
100
AcDbCircle
 10
8.5133385857633
 20
-14.56249999999999
 30
38.70432206303414
 40
3.915927981057896
100
AcDbArc
 50
0.000000000000026
 51
269.9999999999999
  0
ARC
  5
185
330
1F
100
AcDbEntity
  8
0
100
AcDbCircle
 10
8.5133385857633
 20
-14.56249999999999
 30
38.70432206303414
 40
3.915927981057898
100
AcDbArc
 50
270.0
 51
0.0
  0
ARC
  5
186
330
1F
100
AcDbEntity
  8
0
100
AcDbCircle
 10
8.513338585763298
 20
-14.56249999999998
 30
39.23382849053596
 40
4.179687499999993
100
AcDbArc
 50
270.0
 51
359.999999999987
  0
ARC
  5
187
330
1F
100
AcDbEntity
  8
0
100
AcDbCircle
 10
8.513338585763297
 20
-14.56249999999998
 30
39.23382849053596
 40
4.179687499999993
100
AcDbArc
 50
179.9999999999787
 51
270.0
  0
ARC
  5
188
330
1F
100
AcDbEntity
  8
0
100
AcDbCircle
 10
-18.09931210309847
 20
39.22361413884575
 30
8.513338585763423
 40
0.6429565373504127
210
1.0
220
-6.977030689635281E-15
230
-1.206811015375068E-16
100
AcDbArc
 50
179.089730287481
 51
233.8682049517532
  0
CIRCLE
  5
189
330
1F
100
AcDbEntity
  8
0
100
AcDbCircle
 10
8.513338585763298
 20
-14.56249999999999
 30
37.32246212015469
 40
3.259151293873508
  0
ARC
  5
18A
330
1F
100
AcDbEntity
  8
0
100
AcDbCircle
 10
-19.60375818365901
 20
37.32246212015471
 30
8.5133385857633
 40
1.782106889785545
210
1.0
220
-3.823519843264485E-15
230
-1.817259924917066E-15
100
AcDbArc
 50
359.9999999999998
 51
50.84203810288363
  0
ARC
  5
18B
330
1F
100
AcDbEntity
  8
0
100
AcDbCircle
 10
8.51333858576331
 20
-14.56249999999999
 30
37.21038521828051
 40
3.262679049999985
100
AcDbArc
 50
0.0000000000000936
 51
269.9999999999998
  0
ARC
  5
18C
330
1F
100
AcDbEntity
  8
0
100
AcDbCircle
 10
8.513338585763309
 20
-14.56249999999999
 30
37.21038521828051
 40
3.262679049999987
100
AcDbArc
 50
269.9999999999998
 51
0.0000000000000936
  0
ARC
  5
18D
330
1F
100
AcDbEntity
  8
0
100
AcDbCircle
 10
-19.60375818366012
 20
37.3224621201547
 30
8.513338585771306
 40
1.782106889790459
210
1.0
220
-4.511009106688224E-13
230
-1.650499211112970E-15
100
AcDbArc
 50
356.3942824722673
 51
0.0000000000002284
  0
CIRCLE
  5
18E
330
1F
100
AcDbEntity
  8
0
100
AcDbCircle
 10
8.513338585763298
 20
-14.56249999999999
 30
37.17683880944609
 40
3.262610611357534
  0
ARC
  5
18F
330
1F
100
AcDbEntity
  8
0
100
AcDbCircle
 10
-26.04682709423707
 20
37.1768388094461
 30
8.513338585763274
 40
8.221716482879549
210
1.0
220
-3.334649672332080E-31
230
-6.807595073150651E-16
100
AcDbArc
 50
359.9999999999999
 51
0.2337800119029469
  0
ARC
  5
190
330
1F
100
AcDbEntity
  8
0
100
AcDbCircle
 10
8.513338585763293
 20
-14.56249999999998
 30
34.06154315669103
 40
3.875677087778728
100
AcDbArc
 50
359.9999999999999
 51
269.9999999999999
  0
ARC
  5
191
330
1F
100
AcDbEntity
  8
0
100
AcDbCircle
 10
8.513338585763295
 20
-14.56249999999999
 30
34.06154315669103
 40
3.875677087778723
100
AcDbArc
 50
269.9999999999999
 51
359.9999999999999
  0
ARC
  5
192
330
1F
100
AcDbEntity
  8
0
100
AcDbCircle
 10
-26.04682709423694
 20
37.17683880944609
 30
8.513338585763353
 40
8.22171648287946
210
1.0
220
-4.725079669147902E-15
230
-7.807549734407362E-16
100
AcDbArc
 50
337.7337800119024
 51
0.000000000000099
  0
ARC
  5
193
330
1F
100
AcDbEntity
  8
0
100
AcDbCircle
 10
8.51333858576329
 20
-14.56249999999999
 30
33.82880747843856
 40
4.039726386913365
100
AcDbArc
 50
0.0000000000000504
 51
270.0
  0
ARC
  5
194
330
1F
100
AcDbEntity
  8
0
100
AcDbCircle
 10
8.513338585763295
 20
-14.5625
 30
33.82880747843856
 40
4.039726386913362
100
AcDbArc
 50
269.9999999999999
 51
0.0000000000000756
  0
ARC
  5
195
330
1F
100
AcDbEntity
  8
0
100
AcDbCircle
 10
-19.03820183309887
 20
34.31030005176126
 30
8.513338585763277
 40
0.6495457550023621
210
1.0
220
-1.189253968567299E-14
230
-6.882274735278789E-15
100
AcDbArc
 50
312.1597889812159
 51
337.4821928187554
  0
ARC
  5
196
330
1F
100
AcDbEntity
  8
0
100
AcDbCircle
 10
8.5133385857633
 20
-14.5625
 30
33.44045310914436
 40
4.118137599999983
100
AcDbArc
 50
0.0000000000001483
 51
269.9999999999998
  0
ARC
  5
197
330
1F
100
AcDbEntity
  8
0
100
AcDbCircle
 10
8.513338585763297
 20
-14.56249999999999
 30
33.44045310914435
 40
4.118137599999988
100
AcDbArc
 50
269.9999999999999
 51
0.0000000000000494
  0
ARC
  5
198
330
1F
100
AcDbEntity
  8
0
100
AcDbCircle
 10
-18.53320163981723
 20
33.61277789816347
 30
8.513338585763288
 40
0.2267888781786219
210
1.0
220
6.174874619264872E-15
230
3.327315287308881E-15
100
AcDbArc
 50
107.7194742624995
 51
229.4506884036165
  0
CIRCLE
  5
199
330
1F
100
AcDbEntity
  8
0
100
AcDbCircle
 10
8.513338585763291
 20
-14.56249999999999
 30
33.38451764598606
 40
4.093765312521976
  0
ARC
  5
19A
330
1F
100
AcDbEntity
  8
0
100
AcDbCircle
 10
-18.73263862050486
 20
33.38451764598607
 30
8.513338585764654
 40
0.0763733079835127
210
1.0
220
-7.360859999003660E-14
230
-3.155980019509297E-16
100
AcDbArc
 50
359.9999999999947
 51
47.08759066749079
  0
ARC
  5
19B
330
1F
100
AcDbEntity
  8
0
100
AcDbCircle
 10
8.513338585763293
 20
-14.56249999999999
 30
33.32858218282774
 40
4.118137599999994
100
AcDbArc
 50
359.9999999999999
 51
269.9999999999999
  0
ARC
  5
19C
330
1F
100
AcDbEntity
  8
0
100
AcDbCircle
 10
8.513338585763295
 20
-14.56249999999999
 30
33.32858218282774
 40
4.11813759999999
100
AcDbArc
 50
269.9999999999999
 51
0.0
  0
ARC
  5
19D
330
1F
100
AcDbEntity
  8
0
100
AcDbCircle
 10
-18.73263862050498
 20
33.38451764598607
 30
8.513338585764513
 40
0.0763733079835944
210
1.0
220
-6.872444262267755E-14
230
-1.812534683894982E-15
100
AcDbArc
 50
312.912409332536
 51
0.0
  0
ARC
  5
19E
330
1F
100
AcDbEntity
  8
0
100
AcDbCircle
 10
8.513338585763286
 20
-14.56249999999998
 30
32.9838284905359
 40
4.11813759999999
100
AcDbArc
 50
359.9999999999998
 51
270.0
  0
ARC
  5
19F
330
1F
100
AcDbEntity
  8
0
100
AcDbCircle
 10
8.513338585763282
 20
-14.56249999999998
 30
32.9838284905359
 40
4.11813759999999
100
AcDbArc
 50
270.0000000000001
 51
359.9999999999998
  0
ARC
  5
1A0
330
1F
100
AcDbEntity
  8
0
100
AcDbCircle
 10
-18.47404703665132
 20
33.15620533668183
 30
8.513338585763293
 40
0.2690602868353632
210
1.0
220
-1.461262325698926E-16
230
-4.517526659379755E-30
100
AcDbArc
 50
140.158758978394
 51
219.8412410216082
  0
ARC
  5
1A1
330
1F
100
AcDbEntity
  8
0
100
AcDbCircle
 10
8.513338585763297
 20
-14.56249999999999
 30
28.63757751038597
 40
3.368433783623534
100
AcDbArc
 50
0.0000000000000302
 51
269.9999999999999
  0
ARC
  5
1A2
330
1F
100
AcDbEntity
  8
0
100
AcDbCircle
 10
8.5133385857633
 20
-14.5625
 30
28.63757751038597
 40
3.368433783623527
100
AcDbArc
 50
269.9999999999998
 51
0.0000000000001813
  0
ARC
  5
1A3
330
1F
100
AcDbEntity
  8
0
100
AcDbCircle
 10
-3.012764489301768
 20
33.44866302895703
 30
8.51333858576331
 40
15.67476695077309
210
1.0
220
-1.483913225892499E-15
230
-2.559666741989892E-16
100
AcDbArc
 50
181.6993530075583
 51
197.8744276005374
  0
CIRCLE
  5
1A4
330
1F
100
AcDbEntity
  8
0
100
AcDbCircle
 10
8.513338585763291
 20
-14.56249999999999
 30
28.61625114614265
 40
3.364357985987631
  0
ARC
  5
1A5
330
1F
100
AcDbEntity
  8
0
100
AcDbCircle
 10
-17.98469033934407
 20
28.61625114614263
 30
8.513338585771146
 40
0.0578323533601832
210
1.0
220
-4.389081286745494E-13
230
-5.881862321559852E-16
100
AcDbArc
 50
0.0000000000175988
 51
21.6392761557516
  0
ARC
  5
1A6
330
1F
100
AcDbEntity
  8
0
100
AcDbCircle
 10
8.513338585763293
 20
-14.56249999999999
 30
28.56297950336473
 40
3.399680049013895
100
AcDbArc
 50
0.0000000000000299
 51
269.9999999999999
  0
ARC
  5
1A7
330
1F
100
AcDbEntity
  8
0
100
AcDbCircle
 10
8.513338585763297
 20
-14.56249999999999
 30
28.56297950336472
 40
3.399680049013895
100
AcDbArc
 50
269.9999999999999
 51
0.0
  0
ARC
  5
1A8
330
1F
100
AcDbEntity
  8
0
100
AcDbCircle
 10
-17.98469033934721
 20
28.61625114614256
 30
8.51333858576478
 40
0.057832353360155
210
1.0
220
-6.616730887252521E-14
230
1.052734598802091E-14
100
AcDbArc
 50
292.9068150397303
 51
0.0
  0
ARC
  5
1A9
330
1F
100
AcDbEntity
  8
0
100
AcDbCircle
 10
8.51333858576329
 20
-14.56249999999999
 30
28.29223702127007
 40
3.717287004753954
100
AcDbArc
 50
359.9999999999999
 51
270.0
  0
ARC
  5
1AA
330
1F
100
AcDbEntity
  8
0
100
AcDbCircle
 10
8.513338585763282
 20
-14.56249999999999
 30
28.29223702127007
 40
3.71728700475396
100
AcDbArc
 50
270.0000000000001
 51
359.9999999999999
  0
ARC
  5
1AB
330
1F
100
AcDbEntity
  8
0
100
AcDbCircle
 10
-17.74428280870906
 20
27.98570211076348
 30
8.513338585763334
 40
0.617031924085739
210
1.0
220
-8.740902608595490E-16
230
1.025391895079727E-15
100
AcDbArc
 50
110.6793519856599
 51
150.2121861787279
  0
ARC
  5
1AC
330
1F
100
AcDbEntity
  8
0
100
AcDbCircle
 10
8.513338585763291
 20
-14.56249999999999
 30
28.01121770454901
 40
3.717287004753947
100
AcDbArc
 50
0.0000000000000548
 51
269.9999999999999
  0
ARC
  5
1AD
330
1F
100
AcDbEntity
  8
0
100
AcDbCircle
 10
8.513338585763291
 20
-14.5625
 30
28.01121770454901
 40
3.717287004753945
100
AcDbArc
 50
270.0
 51
0.0000000000000548
  0
ARC
  5
1AE
330
1F
100
AcDbEntity
  8
0
100
AcDbCircle
 10
-18.04584659478208
 20
28.15172736290949
 30
8.513338585763055
 40
0.2728938978989523
210
1.0
220
2.242428965663718E-14
230
6.321120057250387E-15
100
AcDbArc
 50
149.0100640043619
 51
210.9899359956391
  0
ARC
  5
1AF
330
1F
100
AcDbEntity
  8
0
100
AcDbCircle
 10
8.51333858576329
 20
-14.56249999999999
 30
27.74547736290956
 40
3.397608094596462
100
AcDbArc
 50
359.9999999999999
 51
270.0
  0
ARC
  5
1B0
330
1F
100
AcDbEntity
  8
0
100
AcDbCircle
 10
8.513338585763297
 20
-14.5625
 30
27.74547736290956
 40
3.397608094596457
100
AcDbArc
 50
269.9999999999999
 51
0.0000000000001198
  0
ARC
  5
1B1
330
1F
100
AcDbEntity
  8
0
100
AcDbCircle
 10
-17.77772390701412
 20
28.29003392067782
 30
8.51333858576357
 40
0.5742872421434717
210
1.0
220
1.815059110635747E-14
230
2.183470205463537E-14
100
AcDbArc
 50
209.0452088596999
 51
251.4831483047106
  0
CIRCLE
  5
1B2
330
1F
100
AcDbEntity
  8
0
100
AcDbCircle
 10
8.513338585763291
 20
-14.56249999999999
 30
27.69633442767617
 40
3.368606334644848
  0
ARC
  5
1B3
330
1F
100
AcDbEntity
  8
0
100
AcDbCircle
 10
-17.98724310305261
 20
27.69633442767617
 30
8.513338585763291
 40
0.0561367684077752
210
1.0
220
-2.695228314498891E-16
230
-1.590592100790910E-16
100
AcDbArc
 50
0.0
 51
61.09405730433556
  0
ARC
  5
1B4
330
1F
100
AcDbEntity
  8
0
100
AcDbCircle
 10
8.513338585763295
 20
-14.5625
 30
27.64386928865585
 40
3.404774478792273
100
AcDbArc
 50
0.0000000000001495
 51
269.9999999999999
  0
ARC
  5
1B5
330
1F
100
AcDbEntity
  8
0
100
AcDbCircle
 10
8.513338585763295
 20
-14.5625
 30
27.64386928865585
 40
3.404774478792271
100
AcDbArc
 50
269.9999999999999
 51
0.0000000000001196
  0
ARC
  5
1B6
330
1F
100
AcDbEntity
  8
0
100
AcDbCircle
 10
-17.98724310305265
 20
27.69633442767617
 30
8.513338585763304
 40
0.0561367684078113
210
1.0
220
-3.512683779528780E-16
230
2.421555639701437E-16
100
AcDbArc
 50
290.8371990161707
 51
0.0
  0
ARC
  5
1B7
330
1F
100
AcDbEntity
  8
0
100
AcDbCircle
 10
8.513338585763286
 20
-14.5625
 30
27.47349737090789
 40
3.799230769008819
100
AcDbArc
 50
0.0000000000001339
 51
270.0
  0
ARC
  5
1B8
330
1F
100
AcDbEntity
  8
0
100
AcDbCircle
 10
8.51333858576329
 20
-14.5625
 30
27.47349737090789
 40
3.799230769008815
100
AcDbArc
 50
270.0
 51
0.0000000000001339
  0
ARC
  5
1B9
330
1F
100
AcDbEntity
  8
0
100
AcDbCircle
 10
-10.54200855918278
 20
9.91058280529451
 30
8.513338585762453
 40
19.225088386738
210
1.0
220
9.374033164432100E-15
230
-2.170337926158823E-14
100
AcDbArc
 50
112.7199922790178
 51
114.0005686092518
  0
ARC
  5
1BA
330
1F
100
AcDbEntity
  8
0
100
AcDbCircle
 10
8.51333858576329
 20
-14.5625
 30
27.40561743000386
 40
3.901464287883057
100
AcDbArc
 50
0.0000000000001304
 51
270.0
  0
ARC
  5
1BB
330
1F
100
AcDbEntity
  8
0
100
AcDbCircle
 10
8.513338585763286
 20
-14.56249999999999
 30
27.40561743000385
 40
3.901464287883062
100
AcDbArc
 50
270.0000000000001
 51
359.9999999999999
  0
ARC
  5
1BC
330
1F
100
AcDbEntity
  8
0
100
AcDbCircle
 10
-18.01828133815682
 20
26.84530393581135
 30
8.513338585751693
 40
0.7159500705043366
210
1.0
220
2.181184934720064E-13
230
-2.761685881090008E-13
100
AcDbArc
 50
118.6665566342576
 51
128.4993406192661
  0
ARC
  5
1BD
330
1F
100
AcDbEntity
  8
0
100
AcDbCircle
 10
8.513338585763291
 20
-14.56249999999999
 30
27.28279992207119
 40
4.119216118518796
100
AcDbArc
 50
270.0
 51
359.9999999999892
  0
ARC
  5
1BE
330
1F
100
AcDbEntity
  8
0
100
AcDbCircle
 10
-18.42458635652699
 20
27.08135896466134
 30
8.513338585763325
 40
0.3266407412190812
210
1.0
220
-4.864534911518618E-16
230
8.624677377068189E-16
100
AcDbArc
 50
96.9240913044026
 51
141.9240913044047
  0
ARC
  5
1BF
330
1F
100
AcDbEntity
  8
0
100
AcDbCircle
 10
8.513338585763293
 20
-14.56249999999999
 30
27.28279992207118
 40
4.119216118518793
100
AcDbArc
 50
359.9999999999893
 51
179.9999999999786
  0
LINE
  5
1C0
330
1F
100
AcDbEntity
  8
0
100
AcDbLine
 10
4.3941224672445
 20
-14.56249999999845
 30
27.28279992207118
 11
4.163152584116676
 21
-14.56249999999837
 31
27.18712906397991
  0
ARC
  5
1C1
330
1F
100
AcDbEntity
  8
0
100
AcDbCircle
 10
8.5133385857633
 20
-14.56249999999999
 30
27.28279992207119
 40
4.1192161185188
100
AcDbArc
 50
179.9999999999787
 51
269.9999999999999
  0
ARC
  5
1C2
330
1F
100
AcDbEntity
  8
0
100
AcDbCircle
 10
8.513338585763282
 20
-14.5625
 30
20.73382849053596
 40
3.859374999999979
100
AcDbArc
 50
359.9999999999893
 51
179.9999999999785
  0
LINE
  5
1C3
330
1F
100
AcDbEntity
  8
0
100
AcDbLine
 10
4.653963585763305
 20
-14.56249999999855
 30
20.73382849053596
 11
4.163152584116672
 21
-14.56249999999837
 31
20.9371290639799
  0
CIRCLE
  5
1C4
330
1F
100
AcDbEntity
  8
0
100
AcDbCircle
 10
8.513338585763284
 20
-14.5625
 30
20.68695349053597
 40
3.839139426313029
  0
ARC
  5
1C5
330
1F
100
AcDbEntity
  8
0
100
AcDbCircle
 10
-18.46604936367795
 20
20.68695349053598
 30
8.51333858576327
 40
0.0644099373649197
210
1.0
220
-3.334649672332080E-31
230
-6.807595073150651E-16
100
AcDbArc
 50
0.0
 51
46.69896529627623
  0
ARC
  5
1C6
330
1F
100
AcDbEntity
  8
0
100
AcDbCircle
 10
8.513338585763286
 20
-14.56249999999999
 30
20.64007849053596
 40
3.859374999999998
100
AcDbArc
 50
359.9999999999999
 51
269.9999999999999
  0
ARC
  5
1C7
330
1F
100
AcDbEntity
  8
0
100
AcDbCircle
 10
8.513338585763284
 20
-14.56249999999999
 30
20.64007849053596
 40
3.859375000000002
100
AcDbArc
 50
269.9999999999999
 51
359.9999999999999
  0
ARC
  5
1C8
330
1F
100
AcDbEntity
  8
0
100
AcDbCircle
 10
8.513338585763282
 20
-14.56249999999999
 30
20.73382849053596
 40
3.859374999999977
100
AcDbArc
 50
270.0
 51
359.9999999999892
  0
ARC
  5
1C9
330
1F
100
AcDbEntity
  8
0
100
AcDbCircle
 10
-18.46604936367686
 20
20.68695349053583
 30
8.513338585765966
 40
0.0644099373649139
210
1.0
220
-1.268502697235281E-13
230
1.686466433710533E-14
100
AcDbArc
 50
313.3010347036968
 51
0.0
  0
ARC
  5
1CA
330
1F
100
AcDbEntity
  8
0
100
AcDbCircle
 10
8.51333858576329
 20
-14.56249999999999
 30
20.73382849053596
 40
3.859374999999984
100
AcDbArc
 50
179.9999999999787
 51
269.9999999999999
  0
ARC
  5
1CB
330
1F
100
AcDbEntity
  8
0
100
AcDbCircle
 10
8.513338585763288
 20
-14.56249999999999
 30
19.98382849053596
 40
3.859374999999995
100
AcDbArc
 50
359.9999999999892
 51
179.9999999999787
  0
ARC
  5
1CC
330
1F
100
AcDbEntity
  8
0
100
AcDbCircle
 10
8.513338585763284
 20
-14.5625
 30
19.98382849053596
 40
3.859374999999996
100
AcDbArc
 50
270.0
 51
359.9999999999893
  0
ARC
  5
1CD
330
1F
100
AcDbEntity
  8
0
100
AcDbCircle
 10
-17.77187500000009
 20
20.31195349053593
 30
8.51333858576321
 40
0.7281249999999719
210
1.0
220
6.904286905914063E-15
230
2.706829469562182E-15
100
AcDbArc
 50
153.2150044924958
 51
206.784995507503
  0
ARC
  5
1CE
330
1F
100
AcDbEntity
  8
0
100
AcDbCircle
 10
8.513338585763284
 20
-14.56250000000001
 30
19.98382849053596
 40
3.859374999999995
100
AcDbArc
 50
179.9999999999785
 51
270.0
  0
LINE
  5
1CF
330
1F
100
AcDbEntity
  8
0
100
AcDbLine
 10
4.163152584116673
 20
-14.5625
 30
27.18712906397991
 11
4.163152584116673
 21
-14.5625
 31
20.93712906397991
  0
LINE
  5
1D0
330
1F
100
AcDbEntity
  8
0
100
AcDbLine
 10
4.163152584116682
 20
-16.36440604072761
 30
24.06212906397992
 11
4.163152584116665
 21
-12.76059395927239
 31
24.06212906397992
  0
LINE
  5
1D1
330
1F
100
AcDbEntity
  8
0
100
AcDbLine
 10
5.437292564576186
 20
-17.63854602118712
 30
27.18712906397992
 11
5.437292564576186
 21
-17.63854602118712
 31
20.93712906397992
  0
LINE
  5
1D2
330
1F
100
AcDbEntity
  8
0
100
AcDbLine
 10
6.711432545035684
 20
-18.91268600164662
 30
24.06212906397992
 11
4.163152584116687
 21
-16.36440604072761
 31
24.06212906397992
  0
LINE
  5
1D3
330
1F
100
AcDbEntity
  8
0
100
AcDbLine
 10
8.513338585763298
 20
-18.91268600164663
 30
20.93712906397992
 11
8.513338585763298
 21
-18.91268600164663
 31
27.18712899318724
  0
LINE
  5
1D4
330
1F
100
AcDbEntity
  8
0
100
AcDbLine
 10
6.711432545035677
 20
-18.91268600164663
 30
24.06212903252261
 11
10.31524462649092
 21
-18.91268600164662
 31
24.06212903252261
  0
LINE
  5
1D5
330
1F
100
AcDbEntity
  8
0
100
AcDbLine
 10
11.58938460695042
 20
-17.63854602118712
 30
20.93712906397992
 11
11.58938460695042
 21
-17.63854602118712
 31
27.18712899318722
  0
LINE
  5
1D6
330
1F
100
AcDbEntity
  8
0
100
AcDbLine
 10
10.31524462649092
 20
-18.91268600164662
 30
24.06212903252259
 11
12.86352458740993
 21
-16.36440604072762
 31
24.06212903252259
  0
LINE
  5
1D7
330
1F
100
AcDbEntity
  8
0
100
AcDbLine
 10
12.86352458740993
 20
-14.5625
 30
20.93712913477259
 11
12.86352458740993
 21
-14.5625
 31
27.1871290639799
  0
LINE
  5
1D8
330
1F
100
AcDbEntity
  8
0
100
AcDbLine
 10
12.86352458740993
 20
-16.36440604072762
 30
24.06212912689452
 11
12.86352458740993
 21
-12.76059395927238
 31
24.06212912689452
  0
LINE
  5
1D9
330
1F
100
AcDbEntity
  8
0
100
AcDbLine
 10
11.58938460695042
 20
-11.48645397881288
 30
20.93712906397991
 11
11.58938460695042
 21
-11.48645397881288
 31
27.18712899318723
  0
LINE
  5
1DA
330
1F
100
AcDbEntity
  8
0
100
AcDbLine
 10
12.86352458740993
 20
-12.76059395927238
 30
24.06212903252259
 11
10.31524462649092
 21
-10.21231399835338
 31
24.06212903252259
  0
LINE
  5
1DB
330
1F
100
AcDbEntity
  8
0
100
AcDbLine
 10
8.513338585763304
 20
-10.21231399835337
 30
27.18712899318723
 11
8.513338585763304
 21
-10.21231399835337
 31
20.9371290639799
  0
LINE
  5
1DC
330
1F
100
AcDbEntity
  8
0
100
AcDbLine
 10
6.711432545035683
 20
-10.21231399835337
 30
24.06212903252259
 11
10.31524462649092
 21
-10.21231399835337
 31
24.06212903252259
  0
LINE
  5
1DD
330
1F
100
AcDbEntity
  8
0
100
AcDbLine
 10
5.437292564576174
 20
-11.48645397881288
 30
27.18712902858357
 11
5.437292564576174
 21
-11.48645397881288
 31
20.9371290639799
  0
LINE
  5
1DE
330
1F
100
AcDbEntity
  8
0
100
AcDbLine
 10
4.163152584116664
 20
-12.76059395927239
 30
24.06212903252259
 11
6.711432545035683
 21
-10.21231399835337
 31
24.06212903252259
  0
LINE
  5
1DF
330
1F
100
AcDbEntity
  8
0
100
AcDbLine
 10
8.513338585763298
 20
-10.3828125
 30
40.85882849053598
 11
8.513338585763298
 21
-18.74218749999998
 31
40.85882849053598
  0
LINE
  5
1E0
330
1F
100
AcDbEntity
  8
0
100
AcDbLine
 10
4.333651085763307
 20
-14.56249999999999
 30
40.85882849053598
 11
12.69302608576329
 21
-14.56249999999999
 31
40.85882849053598
  0
CIRCLE
  5
1E1
330
1F
100
AcDbEntity
  8
0
100
AcDbCircle
 10
8.513338585763298
 20
-14.56249999999999
 30
40.04632849053597
 40
4.179687499999993
  0
LINE
  5
1E2
330
1F
100
AcDbEntity
  8
0
100
AcDbLine
 10
8.513338585761735
 20
-18.74218749999998
 30
40.85882849053598
 11
8.513338585761735
 21
-18.74218749999998
 31
39.23382849053596
  0
LINE
  5
1E3
330
1F
100
AcDbEntity
  8
0
100
AcDbLine
 10
4.333651085763305
 20
-14.56249999999842
 30
40.85882849053598
 11
4.333651085763305
 21
-14.56249999999842
 31
39.23382849053596
  0
LINE
  5
1E4
330
1F
100
AcDbEntity
  8
0
100
AcDbLine
 10
8.513338585764862
 20
-10.38281249999999
 30
40.85882849053598
 11
8.513338585764862
 21
-10.38281249999999
 31
39.23382849053596
  0
CIRCLE
  5
1E5
330
1F
100
AcDbEntity
  8
0
100
AcDbCircle
 10
8.513338585763298
 20
-14.56249999999999
 30
39.22361413884577
 40
4.179768640448961
  0
ARC
  5
1E6
330
1F
100
AcDbEntity
  8
0
100
AcDbCircle
 10
-4.976526482664763
 20
39.22361413884578
 30
-14.56249999999996
 40
0.6429565373504249
210
3.334649672332080E-31
220
1.0
230
6.807595073150651E-16
100
AcDbArc
 50
306.1317950482469
 51
0.9102697125176813
  0
ARC
  5
1E7
330
1F
100
AcDbEntity
  8
0
100
AcDbCircle
 10
-11.02568789690145
 20
39.22361413884576
 30
8.513338585763325
 40
0.6429565373504249
210
1.0
220
-3.334649672332080E-31
230
6.807595073150651E-16
100
AcDbArc
 50
306.1317950482468
 51
0.9102697125176813
  0
ARC
  5
1E8
330
1F
100
AcDbEntity
  8
0
100
AcDbCircle
 10
-12.05015068886183
 20
39.22361413884576
 30
-14.56250000000001
 40
0.6429565373504249
210
3.334649672332080E-31
220
1.0
230
-6.807595073150651E-16
100
AcDbArc
 50
179.0897302874823
 51
233.8682049517531
  0
ARC
  5
1E9
330
1F
100
AcDbEntity
  8
0
100
AcDbCircle
 10
-3.47208040210419
 20
37.3224621201547
 30
-14.56249999999997
 40
1.782106889785599
210
3.334649672332080E-31
220
1.0
230
6.807595073150651E-16
100
AcDbArc
 50
129.1579618971174
 51
180.0
  0
ARC
  5
1EA
330
1F
100
AcDbEntity
  8
0
100
AcDbCircle
 10
-9.521241816340883
 20
37.32246212015468
 30
8.513338585763321
 40
1.782106889785599
210
1.0
220
-3.334649672332080E-31
230
6.807595073150651E-16
100
AcDbArc
 50
129.1579618971173
 51
180.0
  0
ARC
  5
1EB
330
1F
100
AcDbEntity
  8
0
100
AcDbCircle
 10
-13.5545967694224
 20
37.32246212015468
 30
-14.56250000000001
 40
1.782106889785599
210
3.334649672332080E-31
220
1.0
230
-6.807595073150651E-16
100
AcDbArc
 50
0.0
 51
50.84203810288273
  0
ARC
  5
1EC
330
1F
100
AcDbEntity
  8
0
100
AcDbCircle
 10
-3.47208040210419
 20
37.3224621201547
 30
-14.56249999999997
 40
1.782106889785599
210
3.334649672332080E-31
220
1.0
230
6.807595073150651E-16
100
AcDbArc
 50
180.0
 51
183.6057175277428
  0
ARC
  5
1ED
330
1F
100
AcDbEntity
  8
0
100
AcDbCircle
 10
-9.521241816340883
 20
37.32246212015468
 30
8.513338585763321
 40
1.782106889785599
210
1.0
220
-3.334649672332080E-31
230
6.807595073150651E-16
100
AcDbArc
 50
180.0
 51
183.6057175277428
  0
ARC
  5
1EE
330
1F
100
AcDbEntity
  8
0
100
AcDbCircle
 10
-13.5545967694224
 20
37.32246212015468
 30
-14.56250000000001
 40
1.782106889785599
210
3.334649672332080E-31
220
1.0
230
-6.807595073150651E-16
100
AcDbArc
 50
356.3942824722572
 51
0.0
  0
ARC
  5
1EF
330
1F
100
AcDbEntity
  8
0
100
AcDbCircle
 10
2.970988508473784
 20
37.1768388094461
 30
-14.56249999999996
 40
8.221716482879549
210
3.334649672332080E-31
220
1.0
230
6.807595073150651E-16
100
AcDbArc
 50
179.7662199880971
 51
180.0
  0
ARC
  5
1F0
330
1F
100
AcDbEntity
  8
0
100
AcDbCircle
 10
-3.078172905762909
 20
37.17683880944609
 30
8.513338585763323
 40
8.221716482879549
210
1.0
220
-3.334649672332080E-31
230
6.807595073150651E-16
100
AcDbArc
 50
179.7662199880971
 51
180.0
  0
ARC
  5
1F1
330
1F
100
AcDbEntity
  8
0
100
AcDbCircle
 10
-19.99766568000038
 20
37.17683880944609
 30
-14.56250000000001
 40
8.221716482879549
210
3.334649672332080E-31
220
1.0
230
-6.807595073150651E-16
100
AcDbArc
 50
359.9999999999999
 51
0.2337800119029469
  0
ARC
  5
1F2
330
1F
100
AcDbEntity
  8
0
100
AcDbCircle
 10
2.970988508473784
 20
37.1768388094461
 30
-14.56249999999996
 40
8.221716482879549
210
3.334649672332080E-31
220
1.0
230
6.807595073150651E-16
100
AcDbArc
 50
180.0
 51
202.2662199880973
  0
ARC
  5
1F3
330
1F
100
AcDbEntity
  8
0
100
AcDbCircle
 10
-3.078172905762909
 20
37.17683880944609
 30
8.513338585763323
 40
8.221716482879549
210
1.0
220
-3.334649672332080E-31
230
6.807595073150651E-16
100
AcDbArc
 50
180.0
 51
202.2662199880973
  0
ARC
  5
1F4
330
1F
100
AcDbEntity
  8
0
100
AcDbCircle
 10
-19.99766568000038
 20
37.17683880944609
 30
-14.56250000000001
 40
8.221716482879549
210
3.334649672332080E-31
220
1.0
230
-6.807595073150651E-16
100
AcDbArc
 50
337.7337800119027
 51
359.9999999999999
  0
ARC
  5
1F5
330
1F
100
AcDbEntity
  8
0
100
AcDbCircle
 10
-4.037636752664472
 20
34.3103000517611
 30
-14.56249999999997
 40
0.649545755002169
210
3.334649672332080E-31
220
1.0
230
6.807595073150651E-16
100
AcDbArc
 50
202.5178071812401
 51
227.8402110187872
  0
ARC
  5
1F6
330
1F
100
AcDbEntity
  8
0
100
AcDbCircle
 10
-10.08679816690117
 20
34.31030005176109
 30
8.513338585763314
 40
0.649545755002169
210
1.0
220
-3.334649672332080E-31
230
6.807595073150651E-16
100
AcDbArc
 50
202.5178071812401
 51
227.8402110187872
  0
ARC
  5
1F7
330
1F
100
AcDbEntity
  8
0
100
AcDbCircle
 10
-12.98904041886211
 20
34.31030005176109
 30
-14.56250000000001
 40
0.649545755002169
210
3.334649672332080E-31
220
1.0
230
-6.807595073150651E-16
100
AcDbArc
 50
312.1597889812128
 51
337.4821928187599
  0
CIRCLE
  5
1F8
330
1F
100
AcDbEntity
  8
0
100
AcDbCircle
 10
8.513338585763291
 20
-14.56249999999999
 30
33.61277789816348
 40
4.197490517995815
  0
ARC
  5
1F9
330
1F
100
AcDbEntity
  8
0
100
AcDbCircle
 10
-4.542636945946104
 20
33.61277789816349
 30
-14.56249999999997
 40
0.2267888781786284
210
3.334649672332080E-31
220
1.0
230
6.807595073150651E-16
100
AcDbArc
 50
310.5493115963877
 51
72.28052573750378
  0
ARC
  5
1FA
330
1F
100
AcDbEntity
  8
0
100
AcDbCircle
 10
-10.5917983601828
 20
33.61277789816347
 30
8.513338585763314
 40
0.2267888781786284
210
1.0
220
-3.334649672332080E-31
230
6.807595073150651E-16
100
AcDbArc
 50
310.5493115963877
 51
72.28052573750401
  0
ARC
  5
1FB
330
1F
100
AcDbEntity
  8
0
100
AcDbCircle
 10
-12.48404022558048
 20
33.61277789816347
 30
-14.56250000000001
 40
0.2267888781786284
210
3.334649672332080E-31
220
1.0
230
-6.807595073150651E-16
100
AcDbArc
 50
107.719474262496
 51
229.4506884036122
  0
ARC
  5
1FC
330
1F
100
AcDbEntity
  8
0
100
AcDbCircle
 10
-4.343199965257767
 20
33.38451764598607
 30
-14.56249999999997
 40
0.0763733079835488
210
3.334649672332080E-31
220
1.0
230
6.807595073150651E-16
100
AcDbArc
 50
132.9124093325229
 51
180.0
  0
ARC
  5
1FD
330
1F
100
AcDbEntity
  8
0
100
AcDbCircle
 10
-10.39236137949447
 20
33.38451764598605
 30
8.513338585763314
 40
0.0763733079835488
210
1.0
220
-3.334649672332080E-31
230
6.807595073150651E-16
100
AcDbArc
 50
132.9124093325225
 51
180.0
  0
ARC
  5
1FE
330
1F
100
AcDbEntity
  8
0
100
AcDbCircle
 10
-12.68347720626882
 20
33.38451764598605
 30
-14.56250000000001
 40
0.0763733079835488
210
3.334649672332080E-31
220
1.0
230
-6.807595073150651E-16
100
AcDbArc
 50
0.0
 51
47.08759066747756
  0
ARC
  5
1FF
330
1F
100
AcDbEntity
  8
0
100
AcDbCircle
 10
-4.343199965257767
 20
33.38451764598607
 30
-14.56249999999997
 40
0.0763733079835488
210
3.334649672332080E-31
220
1.0
230
6.807595073150651E-16
100
AcDbArc
 50
180.0
 51
227.0875906674921
  0
ARC
  5
200
330
1F
100
AcDbEntity
  8
0
100
AcDbCircle
 10
-10.39236137949447
 20
33.38451764598605
 30
8.513338585763314
 40
0.0763733079835488
210
1.0
220
-3.334649672332080E-31
230
6.807595073150651E-16
100
AcDbArc
 50
180.0
 51
227.0875906674926
  0
ARC
  5
201
330
1F
100
AcDbEntity
  8
0
100
AcDbCircle
 10
-12.68347720626882
 20
33.38451764598605
 30
-14.56250000000001
 40
0.0763733079835488
210
3.334649672332080E-31
220
1.0
230
-6.807595073150651E-16
100
AcDbArc
 50
312.9124093325074
 51
0.0
  0
CIRCLE
  5
202
330
1F
100
AcDbEntity
  8
0
100
AcDbCircle
 10
8.513338585763291
 20
-14.56249999999999
 30
33.15620533668184
 40
4.180607323486688
  0
ARC
  5
203
330
1F
100
AcDbEntity
  8
0
100
AcDbCircle
 10
-4.601791549111951
 20
33.15620533668185
 30
-14.56249999999997
 40
0.2690602868353477
210
3.334649672332080E-31
220
1.0
230
6.807595073150651E-16
100
AcDbArc
 50
320.158758978389
 51
39.84124102160671
  0
ARC
  5
204
330
1F
100
AcDbEntity
  8
0
100
AcDbCircle
 10
-10.65095296334865
 20
33.15620533668184
 30
8.513338585763316
 40
0.2690602868353477
210
1.0
220
-3.334649672332080E-31
230
6.807595073150651E-16
100
AcDbArc
 50
320.1587589783891
 51
39.84124102160659
  0
ARC
  5
205
330
1F
100
AcDbEntity
  8
0
100
AcDbCircle
 10
-12.42488562241463
 20
33.15620533668184
 30
-14.56250000000002
 40
0.2690602868353477
210
3.334649672332080E-31
220
1.0
230
-6.807595073150651E-16
100
AcDbArc
 50
140.1587589783934
 51
219.8412410216108
  0
ARC
  5
206
330
1F
100
AcDbEntity
  8
0
100
AcDbCircle
 10
-20.06307409646163
 20
33.4486630289571
 30
-14.56249999999997
 40
15.67476695077324
210
3.451266460341927E-31
220
1.0
230
6.807595073150652E-16
100
AcDbArc
 50
342.1255723994626
 51
358.3006469924415
  0
ARC
  5
207
330
1F
100
AcDbEntity
  8
0
100
AcDbCircle
 10
-26.11223551069833
 20
33.44866302895709
 30
8.513338585763314
 40
15.67476695077324
210
1.0
220
-3.451266460341927E-31
230
6.807595073150652E-16
100
AcDbArc
 50
342.1255723994626
 51
358.3006469924415
  0
ARC
  5
208
330
1F
100
AcDbEntity
  8
0
100
AcDbCircle
 10
3.036396924935051
 20
33.44866302895709
 30
-14.56250000000001
 40
15.67476695077324
210
3.451266460341927E-31
220
1.0
230
-6.807595073150652E-16
100
AcDbArc
 50
181.6993530075585
 51
197.8744276005375
  0
ARC
  5
209
330
1F
100
AcDbEntity
  8
0
100
AcDbCircle
 10
-5.091148246415514
 20
28.61625114614266
 30
-14.56249999999997
 40
0.0578323533601464
210
3.334649672332080E-31
220
1.0
230
6.807595073150651E-16
100
AcDbArc
 50
158.3607238442488
 51
180.0
  0
ARC
  5
20A
330
1F
100
AcDbEntity
  8
0
100
AcDbCircle
 10
-11.14030966065221
 20
28.61625114614264
 30
8.51333858576331
 40
0.0578323533601464
210
1.0
220
-3.334649672332080E-31
230
6.807595073150651E-16
100
AcDbArc
 50
158.3607238442485
 51
180.0
  0
ARC
  5
20B
330
1F
100
AcDbEntity
  8
0
100
AcDbCircle
 10
-11.93552892511107
 20
28.61625114614264
 30
-14.56250000000001
 40
0.0578323533601464
210
3.334649672332080E-31
220
1.0
230
-6.807595073150651E-16
100
AcDbArc
 50
0.0
 51
21.63927615575149
  0
ARC
  5
20C
330
1F
100
AcDbEntity
  8
0
100
AcDbCircle
 10
-5.091148246415514
 20
28.61625114614266
 30
-14.56249999999997
 40
0.0578323533601464
210
3.334649672332080E-31
220
1.0
230
6.807595073150651E-16
100
AcDbArc
 50
180.0
 51
247.093184960278
  0
ARC
  5
20D
330
1F
100
AcDbEntity
  8
0
100
AcDbCircle
 10
-11.14030966065221
 20
28.61625114614264
 30
8.51333858576331
 40
0.0578323533601464
210
1.0
220
-3.334649672332080E-31
230
6.807595073150651E-16
100
AcDbArc
 50
180.0
 51
247.093184960278
  0
ARC
  5
20E
330
1F
100
AcDbEntity
  8
0
100
AcDbCircle
 10
-11.93552892511107
 20
28.61625114614264
 30
-14.56250000000001
 40
0.0578323533601464
210
3.334649672332080E-31
220
1.0
230
-6.807595073150651E-16
100
AcDbArc
 50
292.9068150397219
 51
0.0
  0
ARC
  5
20F
330
1F
100
AcDbEntity
  8
0
100
AcDbCircle
 10
-5.331555777054216
 20
27.9857021107635
 30
-14.56249999999997
 40
0.6170319240857369
210
3.334649672332080E-31
220
1.0
230
6.807595073150651E-16
100
AcDbArc
 50
29.78781382127184
 51
69.32064801433997
  0
ARC
  5
210
330
1F
100
AcDbEntity
  8
0
100
AcDbCircle
 10
-11.38071719129092
 20
27.98570211076348
 30
8.513338585763313
 40
0.6170319240857369
210
1.0
220
-3.334649672332080E-31
230
6.807595073150651E-16
100
AcDbArc
 50
29.78781382127184
 51
69.32064801434005
  0
ARC
  5
211
330
1F
100
AcDbEntity
  8
0
100
AcDbCircle
 10
-11.69512139447237
 20
27.98570211076348
 30
-14.56250000000002
 40
0.6170319240857369
210
3.334649672332080E-31
220
1.0
230
-6.807595073150651E-16
100
AcDbArc
 50
110.67935198566
 51
150.2121861787282
  0
CIRCLE
  5
212
330
1F
100
AcDbEntity
  8
0
100
AcDbCircle
 10
8.513338585763291
 20
-14.56249999999999
 30
28.15172736290954
 40
3.756240492680853
  0
ARC
  5
213
330
1F
100
AcDbEntity
  8
0
100
AcDbCircle
 10
-5.029991990981401
 20
28.15172736290955
 30
-14.56249999999997
 40
0.272893897898959
210
3.334649672332080E-31
220
1.0
230
6.807595073150651E-16
100
AcDbArc
 50
329.0100640043609
 51
30.98993599563722
  0
ARC
  5
214
330
1F
100
AcDbEntity
  8
0
100
AcDbCircle
 10
-11.0791534052181
 20
28.15172736290954
 30
8.51333858576331
 40
0.272893897898959
210
1.0
220
-3.334649672332080E-31
230
6.807595073150651E-16
100
AcDbArc
 50
329.0100640043602
 51
30.98993599563713
  0
ARC
  5
215
330
1F
100
AcDbEntity
  8
0
100
AcDbCircle
 10
-11.99668518054518
 20
28.15172736290953
 30
-14.56250000000001
 40
0.272893897898959
210
3.334649672332080E-31
220
1.0
230
-6.807595073150651E-16
100
AcDbArc
 50
149.0100640043629
 51
210.9899359956398
  0
ARC
  5
216
330
1F
100
AcDbEntity
  8
0
100
AcDbCircle
 10
-5.298114678749343
 20
28.29003392067803
 30
-14.56249999999997
 40
0.5742872421434922
210
3.334649672332080E-31
220
1.0
230
6.807595073150651E-16
100
AcDbArc
 50
288.5168516952913
 51
330.9547911403004
  0
ARC
  5
217
330
1F
100
AcDbEntity
  8
0
100
AcDbCircle
 10
-11.34727609298604
 20
28.29003392067801
 30
8.51333858576331
 40
0.5742872421434922
210
1.0
220
-3.334649672332080E-31
230
6.807595073150651E-16
100
AcDbArc
 50
288.5168516952913
 51
330.9547911403004
  0
ARC
  5
218
330
1F
100
AcDbEntity
  8
0
100
AcDbCircle
 10
-11.72856249277724
 20
28.29003392067801
 30
-14.56250000000001
 40
0.5742872421434922
210
3.334649672332080E-31
220
1.0
230
-6.807595073150651E-16
100
AcDbArc
 50
209.0452088597
 51
251.4831483047087
  0
ARC
  5
219
330
1F
100
AcDbEntity
  8
0
100
AcDbCircle
 10
-5.088595482710655
 20
27.69633442767618
 30
-14.56249999999997
 40
0.0561367684077911
210
3.334649672332080E-31
220
1.0
230
6.807595073150651E-16
100
AcDbArc
 50
118.9059426956808
 51
180.0
  0
ARC
  5
21A
330
1F
100
AcDbEntity
  8
0
100
AcDbCircle
 10
-11.13775689694736
 20
27.69633442767617
 30
8.513338585763313
 40
0.0561367684077911
210
1.0
220
-3.334649672332080E-31
230
6.807595073150651E-16
100
AcDbArc
 50
118.90594269568
 51
180.0
  0
ARC
  5
21B
330
1F
100
AcDbEntity
  8
0
100
AcDbCircle
 10
-11.93808168881593
 20
27.69633442767616
 30
-14.56250000000002
 40
0.0561367684077911
210
3.334649672332080E-31
220
1.0
230
-6.807595073150651E-16
100
AcDbArc
 50
0.0
 51
61.09405730432002
  0
ARC
  5
21C
330
1F
100
AcDbEntity
  8
0
100
AcDbCircle
 10
-5.088595482710655
 20
27.69633442767618
 30
-14.56249999999997
 40
0.0561367684077911
210
3.334649672332080E-31
220
1.0
230
6.807595073150651E-16
100
AcDbArc
 50
180.0
 51
249.1628009838509
  0
ARC
  5
21D
330
1F
100
AcDbEntity
  8
0
100
AcDbCircle
 10
-11.13775689694736
 20
27.69633442767617
 30
8.513338585763313
 40
0.0561367684077911
210
1.0
220
-3.334649672332080E-31
230
6.807595073150651E-16
100
AcDbArc
 50
180.0
 51
249.1628009838509
  0
ARC
  5
21E
330
1F
100
AcDbEntity
  8
0
100
AcDbCircle
 10
-11.93808168881593
 20
27.69633442767616
 30
-14.56250000000002
 40
0.0561367684077911
210
3.334649672332080E-31
220
1.0
230
-6.807595073150651E-16
100
AcDbArc
 50
290.8371990161492
 51
0.0
  0
ARC
  5
21F
330
1F
100
AcDbEntity
  8
0
100
AcDbCircle
 10
-12.5338300265614
 20
9.910582805337445
 30
-14.56249999999999
 40
19.22508838669083
210
4.683861624749757E-31
220
1.0
230
6.807595073150650E-16
100
AcDbArc
 50
65.99943139074817
 51
67.28000772098522
  0
ARC
  5
220
330
1F
100
AcDbEntity
  8
0
100
AcDbCircle
 10
-18.58299144079812
 20
9.910582805337429
 30
8.513338585763284
 40
19.22508838669083
210
1.0
220
-4.683861624749757E-31
230
6.807595073150650E-16
100
AcDbArc
 50
65.99943139074816
 51
67.28000772098521
  0
ARC
  5
221
330
1F
100
AcDbEntity
  8
0
100
AcDbCircle
 10
-4.492847144965154
 20
9.910582805337423
 30
-14.56250000000001
 40
19.22508838669083
210
4.683861624749757E-31
220
1.0
230
-6.807595073150650E-16
100
AcDbArc
 50
112.7199922790148
 51
114.0005686092519
  0
ARC
  5
222
330
1F
100
AcDbEntity
  8
0
100
AcDbCircle
 10
-5.057557247608173
 20
26.84530393580929
 30
-14.56249999999998
 40
0.7159500705040179
210
3.334649672332080E-31
220
1.0
230
6.807595073150651E-16
100
AcDbArc
 50
51.50065938072901
 51
61.33344336574232
  0
ARC
  5
223
330
1F
100
AcDbEntity
  8
0
100
AcDbCircle
 10
-11.10671866184488
 20
26.84530393580927
 30
8.513338585763307
 40
0.7159500705040179
210
1.0
220
-3.334649672332080E-31
230
6.807595073150651E-16
100
AcDbArc
 50
51.50065938072896
 51
61.33344336574232
  0
ARC
  5
224
330
1F
100
AcDbEntity
  8
0
100
AcDbCircle
 10
-11.96911992391841
 20
26.84530393580927
 30
-14.56250000000001
 40
0.7159500705040179
210
3.334649672332080E-31
220
1.0
230
-6.807595073150651E-16
100
AcDbArc
 50
118.6665566342578
 51
128.499340619271
  0
ARC
  5
225
330
1F
100
AcDbEntity
  8
0
100
AcDbCircle
 10
-4.651252229236306
 20
27.08135896466135
 30
-14.56249999999998
 40
0.3266407412190968
210
3.334649672332080E-31
220
1.0
230
6.807595073150651E-16
100
AcDbArc
 50
38.07590869559472
 51
83.0759086955957
  0
ARC
  5
226
330
1F
100
AcDbEntity
  8
0
100
AcDbCircle
 10
-10.70041364347301
 20
27.08135896466133
 30
8.513338585763307
 40
0.3266407412190968
210
1.0
220
-3.334649672332080E-31
230
6.807595073150651E-16
100
AcDbArc
 50
38.07590869559472
 51
83.07590869559556
  0
ARC
  5
227
330
1F
100
AcDbEntity
  8
0
100
AcDbCircle
 10
-12.37542494229028
 20
27.08135896466133
 30
-14.56250000000001
 40
0.3266407412190968
210
3.334649672332080E-31
220
1.0
230
-6.807595073150651E-16
100
AcDbArc
 50
96.92409130440446
 51
141.9240913044055
  0
ARC
  5
228
330
1F
100
AcDbEntity
  8
0
100
AcDbCircle
 10
8.513338585763291
 20
-14.56249999999999
 30
27.18147852736752
 40
4.363827603770936
100
AcDbArc
 50
139.5319780829414
 51
175.4680195489719
  0
ARC
  5
229
330
1F
100
AcDbEntity
  8
0
100
AcDbCircle
 10
8.513338585763291
 20
-14.56249999999999
 30
27.18147852736752
 40
4.363827603770936
100
AcDbArc
 50
94.53197883298779
 51
130.4680211670104
  0
ARC
  5
22A
330
1F
100
AcDbEntity
  8
0
100
AcDbCircle
 10
8.513338585763291
 20
-14.56249999999999
 30
27.18147852736752
 40
4.363827603770936
100
AcDbArc
 50
49.53197883298646
 51
85.46802191706041
  0
ARC
  5
22B
330
1F
100
AcDbEntity
  8
0
100
AcDbCircle
 10
8.513338585763291
 20
-14.56249999999999
 30
27.18147852736752
 40
4.363827603770936
100
AcDbArc
 50
4.531980451025614
 51
40.46802191706153
  0
ARC
  5
22C
330
1F
100
AcDbEntity
  8
0
100
AcDbCircle
 10
8.513338585763291
 20
-14.56249999999999
 30
27.18147852736752
 40
4.363827603770936
100
AcDbArc
 50
319.5319780829382
 51
355.4680195489744
  0
ARC
  5
22D
330
1F
100
AcDbEntity
  8
0
100
AcDbCircle
 10
8.513338585763291
 20
-14.56249999999999
 30
27.18147852736752
 40
4.363827603770936
100
AcDbArc
 50
274.5319788329879
 51
310.4680211670125
  0
ARC
  5
22E
330
1F
100
AcDbEntity
  8
0
100
AcDbCircle
 10
8.513338585763291
 20
-14.56249999999999
 30
27.18147852736752
 40
4.363827603770936
100
AcDbArc
 50
229.5319804510281
 51
265.4680219170614
  0
ARC
  5
22F
330
1F
100
AcDbEntity
  8
0
100
AcDbCircle
 10
8.513338585763291
 20
-14.56249999999999
 30
27.18147852736752
 40
4.363827603770936
100
AcDbArc
 50
184.5319804510298
 51
220.4680195489711
  0
LINE
  5
230
330
1F
100
AcDbEntity
  8
0
100
AcDbLine
 10
8.513338585764833
 20
-10.4432838814812
 30
27.28279992207118
 11
8.51333858576492
 21
-10.21231398583887
 31
27.18712905879623
  0
LINE
  5
231
330
1F
100
AcDbEntity
  8
0
100
AcDbLine
 10
12.63255470428208
 20
-14.56250000000153
 30
27.28279992207118
 11
12.86352458740993
 21
-14.56250000000162
 31
27.1871290639799
  0
LINE
  5
232
330
1F
100
AcDbEntity
  8
0
100
AcDbLine
 10
8.513338585761751
 20
-18.68171611851879
 30
27.28279992207118
 11
8.513338585761666
 21
-18.91268601416112
 31
27.18712905879623
  0
CIRCLE
  5
233
330
1F
100
AcDbEntity
  8
0
100
AcDbCircle
 10
8.513338585763284
 20
-14.5625
 30
20.90971027896578
 40
4.283991199001738
  0
LINE
  5
234
330
1F
100
AcDbEntity
  8
0
100
AcDbLine
 10
8.51333858576473
 20
-10.70312500000002
 30
20.73382849053595
 11
8.513338585764913
 21
-10.21231399835338
 31
20.9371290639799
  0
LINE
  5
235
330
1F
100
AcDbEntity
  8
0
100
AcDbLine
 10
12.37271358576326
 20
-14.56250000000144
 30
20.73382849053595
 11
12.86352461243891
 21
-14.56250000000163
 31
20.93712907434726
  0
LINE
  5
236
330
1F
100
AcDbEntity
  8
0
100
AcDbLine
 10
8.513338585761838
 20
-18.42187499999998
 30
20.73382849053595
 11
8.513338585761655
 21
-18.91268600164663
 31
20.93712906397991
  0
ARC
  5
237
330
1F
100
AcDbEntity
  8
0
100
AcDbCircle
 10
-4.609789222085332
 20
20.68695349053598
 30
-14.56249999999998
 40
0.0644099373649197
210
3.334649672332080E-31
220
1.0
230
6.807595073150651E-16
100
AcDbArc
 50
133.3010347037249
 51
180.0
  0
ARC
  5
238
330
1F
100
AcDbEntity
  8
0
100
AcDbCircle
 10
-10.65895063632205
 20
20.68695349053596
 30
8.513338585763298
 40
0.0644099373649197
210
1.0
220
-3.334649672332080E-31
230
6.807595073150651E-16
100
AcDbArc
 50
133.3010347037249
 51
180.0
  0
ARC
  5
239
330
1F
100
AcDbEntity
  8
0
100
AcDbCircle
 10
-12.41688794944123
 20
20.68695349053596
 30
-14.56250000000001
 40
0.0644099373649197
210
3.334649672332080E-31
220
1.0
230
-6.807595073150651E-16
100
AcDbArc
 50
0.0
 51
46.69896529627393
  0
ARC
  5
23A
330
1F
100
AcDbEntity
  8
0
100
AcDbCircle
 10
-4.609789222085332
 20
20.68695349053598
 30
-14.56249999999998
 40
0.0644099373649197
210
3.334649672332080E-31
220
1.0
230
6.807595073150651E-16
100
AcDbArc
 50
180.0
 51
226.6989652962986
  0
ARC
  5
23B
330
1F
100
AcDbEntity
  8
0
100
AcDbCircle
 10
-10.65895063632205
 20
20.68695349053596
 30
8.513338585763298
 40
0.0644099373649197
210
1.0
220
-3.334649672332080E-31
230
6.807595073150651E-16
100
AcDbArc
 50
180.0
 51
226.6989652962986
  0
ARC
  5
23C
330
1F
100
AcDbEntity
  8
0
100
AcDbCircle
 10
-12.41688794944123
 20
20.68695349053596
 30
-14.56250000000001
 40
0.0644099373649197
210
3.334649672332080E-31
220
1.0
230
-6.807595073150651E-16
100
AcDbArc
 50
313.3010347036981
 51
0.0
  0
CIRCLE
  5
23D
330
1F
100
AcDbEntity
  8
0
100
AcDbCircle
 10
8.513338585763284
 20
-14.5625
 30
20.31195349053596
 40
3.937500000000007
  0
ARC
  5
23E
330
1F
100
AcDbEntity
  8
0
100
AcDbCircle
 10
-5.303963585763263
 20
20.31195349053597
 30
-14.56249999999998
 40
0.7281249999999879
210
3.334649672332080E-31
220
1.0
230
6.807595073150651E-16
100
AcDbArc
 50
333.215004492497
 51
26.784995507503
  0
ARC
  5
23F
330
1F
100
AcDbEntity
  8
0
100
AcDbCircle
 10
-11.35312499999998
 20
20.31195349053595
 30
8.513338585763298
 40
0.7281249999999879
210
1.0
220
-3.334649672332080E-31
230
6.807595073150651E-16
100
AcDbArc
 50
333.2150044924967
 51
26.784995507503
  0
ARC
  5
240
330
1F
100
AcDbEntity
  8
0
100
AcDbCircle
 10
-11.7227135857633
 20
20.31195349053595
 30
-14.56250000000001
 40
0.7281249999999879
210
3.334649672332080E-31
220
1.0
230
-6.807595073150651E-16
100
AcDbArc
 50
153.2150044924971
 51
206.7849955075033
  0
LINE
  5
241
330
1F
100
AcDbEntity
  8
0
100
AcDbLine
 10
8.513338585763282
 20
-18.42187499999999
 30
19.98382849053596
 11
8.513338585763282
 21
-10.70312500000001
 31
19.98382849053595
  0
LINE
  5
242
330
1F
100
AcDbEntity
  8
0
100
AcDbLine
 10
4.653963585763291
 20
-14.5625
 30
19.98382849053596
 11
12.37271358576328
 21
-14.5625
 31
19.98382849053596
  0
ENDSEC
  0
SECTION
  2
OBJECTS
  0
DICTIONARY
  5
C
330
0
100
AcDbDictionary
281
     1
  3
ACAD_DETAILVIEWSTYLE
350
288
  3
ACAD_GROUP
350
D
  3
ACAD_LAYOUT
350
1A
  3
ACAD_MATERIAL
350
43
  3
ACAD_MLEADERSTYLE
350
6B
  3
ACAD_MLINESTYLE
350
17
  3
ACAD_PLOTSETTINGS
350
19
  3
ACAD_PLOTSTYLENAME
350
E
  3
ACAD_SCALELIST
350
47
  3
ACAD_SECTIONVIEWSTYLE
350
289
  3
ACAD_TABLESTYLE
350
69
  3
ACAD_VISUALSTYLE
350
2A
  3
ACDB_RECOMPOSE_DATA
350
285
  3
AcDbVariableDictionary
350
245
  0
DICTIONARY
  5
243
330
8
100
AcDbDictionary
280
     1
281
     1
  3
ACAD_XREC_ROUNDTRIP
360
244
  0
DICTIONARY
  5
288
102
{ACAD_REACTORS
330
C
102
}
330
C
100
AcDbDictionary
281
     1
  0
DICTIONARY
  5
D
102
{ACAD_REACTORS
330
C
102
}
330
C
100
AcDbDictionary
281
     1
  0
DICTIONARY
  5
1A
102
{ACAD_REACTORS
330
C
102
}
330
C
100
AcDbDictionary
281
     1
  3
Layout1
350
1E
  3
Layout2
350
26
  3
Model
350
22
  0
DICTIONARY
  5
43
102
{ACAD_REACTORS
330
C
102
}
330
C
100
AcDbDictionary
281
     1
  3
ByBlock
350
45
  3
ByLayer
350
44
  3
Global
350
46
  0
DICTIONARY
  5
6B
102
{ACAD_REACTORS
330
C
102
}
330
C
100
AcDbDictionary
281
     1
  3
Standard
350
6C
  0
DICTIONARY
  5
17
102
{ACAD_REACTORS
330
C
102
}
330
C
100
AcDbDictionary
281
     1
  3
Standard
350
18
  0
DICTIONARY
  5
19
102
{ACAD_REACTORS
330
C
102
}
330
C
100
AcDbDictionary
281
     1
  0
ACDBDICTIONARYWDFLT
  5
E
102
{ACAD_REACTORS
330
C
102
}
330
C
100
AcDbDictionary
281
     1
  3
Normal
350
F
100
AcDbDictionaryWithDefault
340
F
  0
DICTIONARY
  5
47
102
{ACAD_REACTORS
330
C
102
}
330
C
100
AcDbDictionary
281
     1
  3
A0
350
48
  3
A1
350
49
  3
A2
350
4A
  3
A3
350
4B
  3
A4
350
4C
  3
A5
350
4D
  3
A6
350
4E
  3
A7
350
4F
  3
A8
350
50
  3
A9
350
51
  3
B0
350
52
  3
B1
350
53
  3
B2
350
54
  3
B3
350
55
  3
B4
350
56
  3
B5
350
57
  3
B6
350
58
  3
B7
350
59
  3
B8
350
5A
  3
B9
350
5B
  3
C0
350
5C
  3
C1
350
5D
  3
C2
350
5E
  3
C3
350
5F
  3
C4
350
60
  3
C5
350
61
  3
C6
350
62
  3
C7
350
63
  3
C8
350
64
  3
C9
350
65
  3
D0
350
66
  3
D1
350
67
  3
D2
350
68
  0
DICTIONARY
  5
289
102
{ACAD_REACTORS
330
C
102
}
330
C
100
AcDbDictionary
281
     1
  0
DICTIONARY
  5
69
102
{ACAD_REACTORS
330
C
102
}
330
C
100
AcDbDictionary
281
     1
  3
Standard
350
6A
  0
DICTIONARY
  5
2A
102
{ACAD_REACTORS
330
C
102
}
330
C
100
AcDbDictionary
281
     1
  3
2dWireframe
350
2F
  3
Basic
350
32
  3
Brighten
350
36
  3
ColorChange
350
3A
  3
Conceptual
350
34
  3
Dim
350
35
  3
EdgeColorOff
350
3D
  3
Facepattern
350
39
  3
Flat
350
2B
  3
FlatWithEdges
350
2C
  3
Gouraud
350
2D
  3
GouraudWithEdges
350
2E
  3
Hidden
350
31
  3
JitterOff
350
3B
  3
Linepattern
350
38
  3
OverhangOff
350
3C
  3
Realistic
350
33
  3
Shaded
350
42
  3
Shaded with edges
350
41
  3
Shades of Gray
350
3E
  3
Sketchy
350
3F
  3
Thicken
350
37
  3
Wireframe
350
30
  3
X-Ray
350
40
  0
XRECORD
  5
285
102
{ACAD_REACTORS
330
C
102
}
330
C
100
AcDbXrecord
280
     1
 90
        1
330
6A
  0
DICTIONARY
  5
245
102
{ACAD_REACTORS
330
C
102
}
330
C
100
AcDbDictionary
281
     1
  3
CANNOSCALE
350
246
  3
CMLEADERSTYLE
350
287
  3
CTABLESTYLE
350
286
  3
MSLTSCALE
350
247
  3
XCLIPFRAME
350
248
  0
XRECORD
  5
244
102
{ACAD_REACTORS
330
243
102
}
330
243
100
AcDbXrecord
280
     1
102
VTR_0.000_0.000_1.000_1.000_GRIDDISPLAY
 70
     3
102
VTR_0.000_0.000_1.000_1.000_GRIDMAJOR
 70
     5
102
VTR_0.000_0.000_1.000_1.000_DEFAULTLIGHTING
280
     1
102
VTR_0.000_0.000_1.000_1.000_DEFAULTLIGHTINGTYPE
 70
     1
102
VTR_0.000_0.000_1.000_1.000_BRIGHTNESS
141
0.0
102
VTR_0.000_0.000_1.000_1.000_CONTRAST
142
0.0
  0
LAYOUT
  5
1E
102
{ACAD_REACTORS
330
1A
102
}
330
1A
100
AcDbPlotSettings
  1

  2
none_device
  4

  6

 40
0.0
 41
0.0
 42
0.0
 43
0.0
 44
0.0
 45
0.0
 46
0.0
 47
0.0
 48
0.0
 49
0.0
140
0.0
141
0.0
142
1.0
143
1.0
 70
   688
 72
     0
 73
     0
 74
     5
  7

 75
    16
 76
     0
 77
     2
 78
   300
147
1.0
148
0.0
149
0.0
100
AcDbLayout
  1
Layout1
 70
     1
 71
     1
 10
0.0
 20
0.0
 11
12.0
 21
9.0
 12
0.0
 22
0.0
 32
0.0
 14
1.000000000000000E+20
 24
1.000000000000000E+20
 34
1.000000000000000E+20
 15
-1.000000000000000E+20
 25
-1.000000000000000E+20
 35
-1.000000000000000E+20
146
0.0
 13
0.0
 23
0.0
 33
0.0
 16
1.0
 26
0.0
 36
0.0
 17
0.0
 27
1.0
 37
0.0
 76
     0
330
1B
  0
LAYOUT
  5
26
102
{ACAD_REACTORS
330
1A
102
}
330
1A
100
AcDbPlotSettings
  1

  2
none_device
  4

  6

 40
0.0
 41
0.0
 42
0.0
 43
0.0
 44
0.0
 45
0.0
 46
0.0
 47
0.0
 48
0.0
 49
0.0
140
0.0
141
0.0
142
1.0
143
1.0
 70
   688
 72
     0
 73
     0
 74
     5
  7

 75
    16
 76
     0
 77
     2
 78
   300
147
1.0
148
0.0
149
0.0
100
AcDbLayout
  1
Layout2
 70
     1
 71
     2
 10
0.0
 20
0.0
 11
0.0
 21
0.0
 12
0.0
 22
0.0
 32
0.0
 14
0.0
 24
0.0
 34
0.0
 15
0.0
 25
0.0
 35
0.0
146
0.0
 13
0.0
 23
0.0
 33
0.0
 16
1.0
 26
0.0
 36
0.0
 17
0.0
 27
1.0
 37
0.0
 76
     0
330
23
  0
LAYOUT
  5
22
102
{ACAD_REACTORS
330
1A
102
}
330
1A
100
AcDbPlotSettings
  1

  2
none_device
  4
Letter_(8.50_x_11.00_Inches)
  6

 40
6.35
 41
6.35
 42
6.35000508
 43
6.35000508
 44
215.9
 45
279.4
 46
0.0
 47
0.0
 48
0.0
 49
0.0
140
0.0
141
0.0
142
1.0
143
1.0
 70
  1712
 72
     0
 73
     0
 74
     0
  7

 75
     0
 76
     0
 77
     2
 78
   300
147
1.0
148
0.0
149
0.0
100
AcDbLayout
  1
Model
 70
     1
 71
     0
 10
0.0
 20
0.0
 11
12.0
 21
9.0
 12
0.0
 22
0.0
 32
0.0
 14
-9.086847415883314
 24
-32.16268600164661
 34
16.38223312382161
 15
26.11352458740992
 25
3.037686001646634
 35
40.85882849053599
146
0.0
 13
0.0
 23
0.0
 33
0.0
 16
1.0
 26
0.0
 36
0.0
 17
0.0
 27
1.0
 37
0.0
 76
     0
330
1F
331
29
  0
MATERIAL
  5
45
102
{ACAD_REACTORS
330
43
102
}
102
{ACAD_XDICTIONARY
360
27B
102
}
330
43
100
AcDbMaterial
  1
ByBlock
  0
MATERIAL
  5
44
102
{ACAD_REACTORS
330
43
102
}
102
{ACAD_XDICTIONARY
360
279
102
}
330
43
100
AcDbMaterial
  1
ByLayer
  0
MATERIAL
  5
46
102
{ACAD_REACTORS
330
43
102
}
102
{ACAD_XDICTIONARY
360
27D
102
}
330
43
100
AcDbMaterial
  1
Global
  0
MLEADERSTYLE
  5
6C
102
{ACAD_REACTORS
330
6B
102
}
102
{ACAD_XDICTIONARY
360
283
102
}
330
6B
100
AcDbMLeaderStyle
170
     2
171
     1
172
     0
 90
        2
 40
0.0
 41
0.0
173
     1
 91
-1056964608
340
14
 92
       -2
290
     1
 42
0.09
291
     1
 43
0.36
  3
Standard
341
0
 44
0.18
300

342
11
174
     1
178
     6
175
     1
176
     0
 93
-1056964608
 45
0.18
292
     0
297
     0
 46
0.18
343
0
 94
-1056964608
 47
1.0
 49
1.0
140
1.0
293
     1
141
0.0
294
     1
177
     0
142
1.0
295
     0
296
     0
143
0.125
1001
ACAD_MLEADERVER
1070
     2
  0
MLINESTYLE
  5
18
102
{ACAD_REACTORS
330
17
102
}
330
17
100
AcDbMlineStyle
  2
Standard
 70
     0
  3

 62
   256
 51
90.0
 52
90.0
 71
     2
 49
0.5
 62
   256
  6
BYLAYER
 49
-0.5
 62
   256
  6
BYLAYER
  0
ACDBPLACEHOLDER
  5
F
102
{ACAD_REACTORS
330
E
102
}
330
E
  0
SCALE
  5
48
102
{ACAD_REACTORS
330
47
102
}
330
47
100
AcDbScale
 70
     0
300
1:1
140
1.0
141
1.0
290
     1
  0
SCALE
  5
49
102
{ACAD_REACTORS
330
47
102
}
330
47
100
AcDbScale
 70
     0
300
1:2
140
1.0
141
2.0
290
     0
  0
SCALE
  5
4A
102
{ACAD_REACTORS
330
47
102
}
330
47
100
AcDbScale
 70
     0
300
1:4
140
1.0
141
4.0
290
     0
  0
SCALE
  5
4B
102
{ACAD_REACTORS
330
47
102
}
330
47
100
AcDbScale
 70
     0
300
1:5
140
1.0
141
5.0
290
     0
  0
SCALE
  5
4C
102
{ACAD_REACTORS
330
47
102
}
330
47
100
AcDbScale
 70
     0
300
1:8
140
1.0
141
8.0
290
     0
  0
SCALE
  5
4D
102
{ACAD_REACTORS
330
47
102
}
330
47
100
AcDbScale
 70
     0
300
1:10
140
1.0
141
10.0
290
     0
  0
SCALE
  5
4E
102
{ACAD_REACTORS
330
47
102
}
330
47
100
AcDbScale
 70
     0
300
1:16
140
1.0
141
16.0
290
     0
  0
SCALE
  5
4F
102
{ACAD_REACTORS
330
47
102
}
330
47
100
AcDbScale
 70
     0
300
1:20
140
1.0
141
20.0
290
     0
  0
SCALE
  5
50
102
{ACAD_REACTORS
330
47
102
}
330
47
100
AcDbScale
 70
     0
300
1:30
140
1.0
141
30.0
290
     0
  0
SCALE
  5
51
102
{ACAD_REACTORS
330
47
102
}
330
47
100
AcDbScale
 70
     0
300
1:40
140
1.0
141
40.0
290
     0
  0
SCALE
  5
52
102
{ACAD_REACTORS
330
47
102
}
330
47
100
AcDbScale
 70
     0
300
1:50
140
1.0
141
50.0
290
     0
  0
SCALE
  5
53
102
{ACAD_REACTORS
330
47
102
}
330
47
100
AcDbScale
 70
     0
300
1:100
140
1.0
141
100.0
290
     0
  0
SCALE
  5
54
102
{ACAD_REACTORS
330
47
102
}
330
47
100
AcDbScale
 70
     0
300
2:1
140
2.0
141
1.0
290
     0
  0
SCALE
  5
55
102
{ACAD_REACTORS
330
47
102
}
330
47
100
AcDbScale
 70
     0
300
4:1
140
4.0
141
1.0
290
     0
  0
SCALE
  5
56
102
{ACAD_REACTORS
330
47
102
}
330
47
100
AcDbScale
 70
     0
300
8:1
140
8.0
141
1.0
290
     0
  0
SCALE
  5
57
102
{ACAD_REACTORS
330
47
102
}
330
47
100
AcDbScale
 70
     0
300
10:1
140
10.0
141
1.0
290
     0
  0
SCALE
  5
58
102
{ACAD_REACTORS
330
47
102
}
330
47
100
AcDbScale
 70
     0
300
100:1
140
100.0
141
1.0
290
     0
  0
SCALE
  5
59
102
{ACAD_REACTORS
330
47
102
}
330
47
100
AcDbScale
 70
     0
300
1/128" = 1'-0"
140
0.0078125
141
12.0
290
     0
  0
SCALE
  5
5A
102
{ACAD_REACTORS
330
47
102
}
330
47
100
AcDbScale
 70
     0
300
1/64" = 1'-0"
140
0.015625
141
12.0
290
     0
  0
SCALE
  5
5B
102
{ACAD_REACTORS
330
47
102
}
330
47
100
AcDbScale
 70
     0
300
1/32" = 1'-0"
140
0.03125
141
12.0
290
     0
  0
SCALE
  5
5C
102
{ACAD_REACTORS
330
47
102
}
330
47
100
AcDbScale
 70
     0
300
1/16" = 1'-0"
140
0.0625
141
12.0
290
     0
  0
SCALE
  5
5D
102
{ACAD_REACTORS
330
47
102
}
330
47
100
AcDbScale
 70
     0
300
3/32" = 1'-0"
140
0.09375
141
12.0
290
     0
  0
SCALE
  5
5E
102
{ACAD_REACTORS
330
47
102
}
330
47
100
AcDbScale
 70
     0
300
1/8" = 1'-0"
140
0.125
141
12.0
290
     0
  0
SCALE
  5
5F
102
{ACAD_REACTORS
330
47
102
}
330
47
100
AcDbScale
 70
     0
300
3/16" = 1'-0"
140
0.1875
141
12.0
290
     0
  0
SCALE
  5
60
102
{ACAD_REACTORS
330
47
102
}
330
47
100
AcDbScale
 70
     0
300
1/4" = 1'-0"
140
0.25
141
12.0
290
     0
  0
SCALE
  5
61
102
{ACAD_REACTORS
330
47
102
}
330
47
100
AcDbScale
 70
     0
300
3/8" = 1'-0"
140
0.375
141
12.0
290
     0
  0
SCALE
  5
62
102
{ACAD_REACTORS
330
47
102
}
330
47
100
AcDbScale
 70
     0
300
1/2" = 1'-0"
140
0.5
141
12.0
290
     0
  0
SCALE
  5
63
102
{ACAD_REACTORS
330
47
102
}
330
47
100
AcDbScale
 70
     0
300
3/4" = 1'-0"
140
0.75
141
12.0
290
     0
  0
SCALE
  5
64
102
{ACAD_REACTORS
330
47
102
}
330
47
100
AcDbScale
 70
     0
300
1" = 1'-0"
140
1.0
141
12.0
290
     0
  0
SCALE
  5
65
102
{ACAD_REACTORS
330
47
102
}
330
47
100
AcDbScale
 70
     0
300
1-1/2" = 1'-0"
140
1.5
141
12.0
290
     0
  0
SCALE
  5
66
102
{ACAD_REACTORS
330
47
102
}
330
47
100
AcDbScale
 70
     0
300
3" = 1'-0"
140
3.0
141
12.0
290
     0
  0
SCALE
  5
67
102
{ACAD_REACTORS
330
47
102
}
330
47
100
AcDbScale
 70
     0
300
6" = 1'-0"
140
6.0
141
12.0
290
     0
  0
SCALE
  5
68
102
{ACAD_REACTORS
330
47
102
}
330
47
100
AcDbScale
 70
     0
300
1'-0" = 1'-0"
140
12.0
141
12.0
290
     0
  0
TABLESTYLE
  5
6A
102
{ACAD_REACTORS
330
69
102
}
102
{ACAD_XDICTIONARY
360
27F
102
}
330
69
100
AcDbTableStyle
  3
Standard
 70
     0
 71
     0
 40
0.06
 41
0.06
280
     0
281
     0
  7
Standard
140
0.18
170
     2
 62
     0
 63
   257
283
     0
274
    -2
284
     1
 64
     0
275
    -2
285
     1
 65
     0
276
    -2
286
     1
 66
     0
277
    -2
287
     1
 67
     0
278
    -2
288
     1
 68
     0
279
    -2
289
     1
 69
     0
  7
Standard
140
0.25
170
     5
 62
     0
 63
   257
283
     0
274
    -2
284
     1
 64
     0
275
    -2
285
     1
 65
     0
276
    -2
286
     1
 66
     0
277
    -2
287
     1
 67
     0
278
    -2
288
     1
 68
     0
279
    -2
289
     1
 69
     0
  7
Standard
140
0.18
170
     5
 62
     0
 63
   257
283
     0
274
    -2
284
     1
 64
     0
275
    -2
285
     1
 65
     0
276
    -2
286
     1
 66
     0
277
    -2
287
     1
 67
     0
278
    -2
288
     1
 68
     0
279
    -2
289
     1
 69
     0
  0
VISUALSTYLE
  5
2F
102
{ACAD_REACTORS
330
2A
102
}
102
{ACAD_XDICTIONARY
360
251
102
}
330
2A
100
AcDbVisualStyle
  2
2dWireframe
 70
     4
 71
     0
 72
     2
 73
     0
 90
        0
 40
0.6
 41
30.0
 62
     5
 63
     7
421
 16777215
 74
     1
 91
        4
 64
     7
 65
   257
 75
     1
175
     1
 42
1.0
 92
        0
 66
   257
 43
1.0
 76
     1
 77
     6
 78
     2
 67
     7
 79
     5
170
     0
171
     0
290
     0
174
     0
 93
        1
 44
0.0
173
     0
291
     0
 45
0.0
1001
ACAD
1000
AcDbSavedByObjectVersion
1070
     0
  0
VISUALSTYLE
  5
32
102
{ACAD_REACTORS
330
2A
102
}
102
{ACAD_XDICTIONARY
360
257
102
}
330
2A
100
AcDbVisualStyle
  2
Basic
 70
     7
 71
     1
 72
     0
 73
     1
 90
        0
 40
0.6
 41
30.0
 62
     5
 63
     7
421
 16777215
 74
     0
 91
        4
 64
     7
 65
   257
 75
     1
175
     1
 42
1.0
 92
        8
 66
     7
 43
1.0
 76
     1
 77
     6
 78
     2
 67
     7
 79
     5
170
     0
171
     0
290
     0
174
     0
 93
        1
 44
0.0
173
     0
291
     1
 45
0.0
1001
ACAD
1000
AcDbSavedByObjectVersion
1070
     0
  0
VISUALSTYLE
  5
36
102
{ACAD_REACTORS
330
2A
102
}
102
{ACAD_XDICTIONARY
360
25F
102
}
330
2A
100
AcDbVisualStyle
  2
Brighten
 70
    12
 71
     2
 72
     2
 73
     0
 90
        0
 40
0.6
 41
30.0
 62
     5
 63
     7
421
 16777215
 74
     1
 91
        4
 64
     7
 65
   257
 75
     1
175
     1
 42
1.0
 92
        8
 66
     7
 43
1.0
 76
     1
 77
     6
 78
     2
 67
     7
 79
     5
170
     0
171
     0
290
     0
174
     0
 93
        1
 44
50.0
173
     0
291
     1
 45
0.0
1001
ACAD
1000
AcDbSavedByObjectVersion
1070
     0
  0
VISUALSTYLE
  5
3A
102
{ACAD_REACTORS
330
2A
102
}
102
{ACAD_XDICTIONARY
360
267
102
}
330
2A
100
AcDbVisualStyle
  2
ColorChange
 70
    16
 71
     2
 72
     2
 73
     3
 90
        0
 40
0.6
 41
30.0
 62
     5
 63
     8
421
  8421504
 74
     1
 91
        4
 64
     7
 65
   257
 75
     1
175
     1
 42
1.0
 92
        8
 66
     8
424
  8421504
 43
1.0
 76
     1
 77
     6
 78
     2
 67
     7
 79
     5
170
     0
171
     0
290
     0
174
     0
 93
        1
 44
0.0
173
     0
291
     1
 45
0.0
1001
ACAD
1000
AcDbSavedByObjectVersion
1070
     0
  0
VISUALSTYLE
  5
34
102
{ACAD_REACTORS
330
2A
102
}
102
{ACAD_XDICTIONARY
360
25B
102
}
330
2A
100
AcDbVisualStyle
  2
Conceptual
 70
     9
 71
     3
 72
     2
 73
     0
 90
        0
 40
0.6
 41
30.0
 62
     5
 63
     7
421
 16777215
 74
     2
 91
        2
 64
     7
 65
   257
 75
     1
175
     1
 42
179.0
 92
        8
 66
     7
 43
1.0
 76
     1
 77
     6
 78
     2
 67
     7
 79
     3
170
     0
171
     0
290
     0
174
     0
 93
        1
 44
0.0
173
     0
291
     0
 45
0.0
1001
ACAD
1000
AcDbSavedByObjectVersion
1070
     0
  0
VISUALSTYLE
  5
35
102
{ACAD_REACTORS
330
2A
102
}
102
{ACAD_XDICTIONARY
360
25D
102
}
330
2A
100
AcDbVisualStyle
  2
Dim
 70
    11
 71
     2
 72
     2
 73
     0
 90
        0
 40
0.6
 41
30.0
 62
     5
 63
     7
421
 16777215
 74
     1
 91
        4
 64
     7
 65
   257
 75
     1
175
     1
 42
1.0
 92
        8
 66
     7
 43
1.0
 76
     1
 77
     6
 78
     2
 67
     7
 79
     5
170
     0
171
     0
290
     0
174
     0
 93
        1
 44
-50.0
173
     0
291
     1
 45
0.0
1001
ACAD
1000
AcDbSavedByObjectVersion
1070
     0
  0
VISUALSTYLE
  5
3D
102
{ACAD_REACTORS
330
2A
102
}
102
{ACAD_XDICTIONARY
360
26D
102
}
330
2A
100
AcDbVisualStyle
  2
EdgeColorOff
 70
    22
 71
     2
 72
     2
 73
     0
 90
        0
 40
0.6
 41
30.0
 62
     5
 63
     7
421
 16777215
 74
     1
 91
        4
 64
     7
 65
   257
 75
     1
175
     1
 42
1.0
 92
        8
 66
     7
 43
1.0
 76
     1
 77
     6
 78
     2
 67
     7
 79
     5
170
     0
171
     0
290
     0
174
     0
 93
        1
 44
0.0
173
     0
291
     1
 45
0.0
1001
ACAD
1000
AcDbSavedByObjectVersion
1070
     0
  0
VISUALSTYLE
  5
39
102
{ACAD_REACTORS
330
2A
102
}
102
{ACAD_XDICTIONARY
360
265
102
}
330
2A
100
AcDbVisualStyle
  2
Facepattern
 70
    15
 71
     2
 72
     2
 73
     0
 90
        0
 40
0.6
 41
30.0
 62
     5
 63
     7
421
 16777215
 74
     1
 91
        4
 64
     7
 65
   257
 75
     1
175
     1
 42
1.0
 92
        8
 66
     7
 43
1.0
 76
     1
 77
     6
 78
     2
 67
     7
 79
     5
170
     0
171
     0
290
     0
174
     0
 93
        1
 44
0.0
173
     0
291
     1
 45
0.0
1001
ACAD
1000
AcDbSavedByObjectVersion
1070
     0
  0
VISUALSTYLE
  5
2B
102
{ACAD_REACTORS
330
2A
102
}
102
{ACAD_XDICTIONARY
360
249
102
}
330
2A
100
AcDbVisualStyle
  2
Flat
 70
     0
 71
     2
 72
     1
 73
     1
 90
        2
 40
0.6
 41
30.0
 62
     5
 63
     7
421
 16777215
 74
     0
 91
        0
 64
     7
 65
   257
 75
     1
175
     1
 42
1.0
 92
        8
 66
     7
 43
1.0
 76
     1
 77
     6
 78
     2
 67
     7
 79
     5
170
     0
171
     0
290
     0
174
     0
 93
       13
 44
0.0
173
     0
291
     1
 45
0.0
1001
ACAD
1000
AcDbSavedByObjectVersion
1070
     0
  0
VISUALSTYLE
  5
2C
102
{ACAD_REACTORS
330
2A
102
}
102
{ACAD_XDICTIONARY
360
24B
102
}
330
2A
100
AcDbVisualStyle
  2
FlatWithEdges
 70
     1
 71
     2
 72
     1
 73
     1
 90
        2
 40
0.6
 41
30.0
 62
     5
 63
     7
421
 16777215
 74
     1
 91
        0
 64
     7
 65
   257
 75
     1
175
     1
 42
1.0
 92
        0
 66
   257
 43
1.0
 76
     1
 77
     6
 78
     2
 67
     7
 79
     5
170
     0
171
     0
290
     0
174
     0
 93
       13
 44
0.0
173
     0
291
     1
 45
0.0
1001
ACAD
1000
AcDbSavedByObjectVersion
1070
     0
  0
VISUALSTYLE
  5
2D
102
{ACAD_REACTORS
330
2A
102
}
102
{ACAD_XDICTIONARY
360
24D
102
}
330
2A
100
AcDbVisualStyle
  2
Gouraud
 70
     2
 71
     2
 72
     2
 73
     1
 90
        2
 40
0.6
 41
30.0
 62
     5
 63
     7
421
 16777215
 74
     0
 91
        0
 64
     7
 65
   257
 75
     1
175
     1
 42
1.0
 92
        0
 66
     7
 43
1.0
 76
     1
 77
     6
 78
     2
 67
     7
 79
     5
170
     0
171
     0
290
     0
174
     0
 93
       13
 44
0.0
173
     0
291
     1
 45
0.0
1001
ACAD
1000
AcDbSavedByObjectVersion
1070
     0
  0
VISUALSTYLE
  5
2E
102
{ACAD_REACTORS
330
2A
102
}
102
{ACAD_XDICTIONARY
360
24F
102
}
330
2A
100
AcDbVisualStyle
  2
GouraudWithEdges
 70
     3
 71
     2
 72
     2
 73
     1
 90
        2
 40
0.6
 41
30.0
 62
     5
 63
     7
421
 16777215
 74
     1
 91
        0
 64
     7
 65
   257
 75
     1
175
     1
 42
1.0
 92
        0
 66
   257
 43
1.0
 76
     1
 77
     6
 78
     2
 67
     7
 79
     5
170
     0
171
     0
290
     0
174
     0
 93
       13
 44
0.0
173
     0
291
     1
 45
0.0
1001
ACAD
1000
AcDbSavedByObjectVersion
1070
     0
  0
VISUALSTYLE
  5
31
102
{ACAD_REACTORS
330
2A
102
}
102
{ACAD_XDICTIONARY
360
255
102
}
330
2A
100
AcDbVisualStyle
  2
Hidden
 70
     6
 71
     1
 72
     2
 73
     2
 90
        0
 40
0.6
 41
30.0
 62
     5
 63
     7
421
 16777215
 74
     2
 91
        2
 64
     7
 65
   257
 75
     2
175
     1
 42
40.0
 92
        0
 66
   257
 43
1.0
 76
     1
 77
     6
 78
     2
 67
     7
 79
     3
170
     0
171
     0
290
     0
174
     0
 93
        1
 44
0.0
173
     0
291
     0
 45
0.0
1001
ACAD
1000
AcDbSavedByObjectVersion
1070
     0
  0
VISUALSTYLE
  5
3B
102
{ACAD_REACTORS
330
2A
102
}
102
{ACAD_XDICTIONARY
360
269
102
}
330
2A
100
AcDbVisualStyle
  2
JitterOff
 70
    20
 71
     2
 72
     2
 73
     0
 90
        0
 40
0.6
 41
30.0
 62
     5
 63
     7
421
 16777215
 74
     1
 91
        4
 64
     7
 65
   257
 75
     1
175
     1
 42
1.0
 92
       10
 66
     7
 43
1.0
 76
     1
 77
     6
 78
     2
 67
     7
 79
     5
170
     0
171
     0
290
     0
174
     0
 93
        1
 44
0.0
173
     0
291
     1
 45
0.0
1001
ACAD
1000
AcDbSavedByObjectVersion
1070
     0
  0
VISUALSTYLE
  5
38
102
{ACAD_REACTORS
330
2A
102
}
102
{ACAD_XDICTIONARY
360
263
102
}
330
2A
100
AcDbVisualStyle
  2
Linepattern
 70
    14
 71
     2
 72
     2
 73
     0
 90
        0
 40
0.6
 41
30.0
 62
     5
 63
     7
421
 16777215
 74
     1
 91
        4
 64
     7
 65
   257
 75
     7
175
     7
 42
1.0
 92
        8
 66
     7
 43
1.0
 76
     1
 77
     6
 78
     2
 67
     7
 79
     5
170
     0
171
     0
290
     0
174
     0
 93
        1
 44
0.0
173
     0
291
     1
 45
0.0
1001
ACAD
1000
AcDbSavedByObjectVersion
1070
     0
  0
VISUALSTYLE
  5
3C
102
{ACAD_REACTORS
330
2A
102
}
102
{ACAD_XDICTIONARY
360
26B
102
}
330
2A
100
AcDbVisualStyle
  2
OverhangOff
 70
    21
 71
     2
 72
     2
 73
     0
 90
        0
 40
0.6
 41
30.0
 62
     5
 63
     7
421
 16777215
 74
     1
 91
        4
 64
     7
 65
   257
 75
     1
175
     1
 42
1.0
 92
        9
 66
     7
 43
1.0
 76
     1
 77
     6
 78
     2
 67
     7
 79
     5
170
     0
171
     0
290
     0
174
     0
 93
        1
 44
0.0
173
     0
291
     1
 45
0.0
1001
ACAD
1000
AcDbSavedByObjectVersion
1070
     0
  0
VISUALSTYLE
  5
33
102
{ACAD_REACTORS
330
2A
102
}
102
{ACAD_XDICTIONARY
360
259
102
}
330
2A
100
AcDbVisualStyle
  2
Realistic
 70
     8
 71
     2
 72
     3
 73
     0
 90
        2
 40
0.6
 41
30.0
 62
     5
 63
     7
421
 16777215
 74
     0
 91
        0
 64
     7
 65
   257
 75
     1
175
     1
 42
1.0
 92
        8
 66
   257
 43
1.0
 76
     1
 77
     6
 78
     2
 67
     7
 79
     3
170
     0
171
     0
290
     0
174
     0
 93
       13
 44
0.0
173
     0
291
     0
 45
0.0
1001
ACAD
1000
AcDbSavedByObjectVersion
1070
     0
  0
VISUALSTYLE
  5
42
102
{ACAD_REACTORS
330
2A
102
}
102
{ACAD_XDICTIONARY
360
277
102
}
330
2A
100
AcDbVisualStyle
  2
Shaded
 70
    27
 71
     2
 72
     2
 73
     1
 90
        2
 40
0.6
 41
30.0
 62
     5
 63
     7
421
 16777215
 74
     0
 91
        4
 64
     7
 65
   257
 75
     1
175
     1
 42
1.0
 92
        8
 66
   257
 43
1.0
 76
     1
 77
     6
 78
     2
 67
     8
425
  7895160
 79
     3
170
     0
171
     0
290
     0
174
     0
 93
        5
 44
0.0
173
     0
291
     0
 45
0.0
1001
ACAD
1000
AcDbSavedByObjectVersion
1070
     0
  0
VISUALSTYLE
  5
41
102
{ACAD_REACTORS
330
2A
102
}
102
{ACAD_XDICTIONARY
360
275
102
}
330
2A
100
AcDbVisualStyle
  2
Shaded with edges
 70
    26
 71
     2
 72
     2
 73
     1
 90
        2
 40
0.6
 41
30.0
 62
     5
 63
     7
421
 16777215
 74
     1
 91
       10
 64
     7
 65
   257
 75
     2
175
     1
 42
1.0
 92
        8
 66
   257
 43
1.0
 76
     1
 77
     6
 78
     2
 67
     7
 79
     3
170
     0
171
     0
290
     0
174
     0
 93
        5
 44
0.0
173
     0
291
     0
 45
0.0
1001
ACAD
1000
AcDbSavedByObjectVersion
1070
     0
  0
VISUALSTYLE
  5
3E
102
{ACAD_REACTORS
330
2A
102
}
102
{ACAD_XDICTIONARY
360
26F
102
}
330
2A
100
AcDbVisualStyle
  2
Shades of Gray
 70
    23
 71
     2
 72
     2
 73
     3
 90
        0
 40
0.6
 41
30.0
 62
     5
 63
     7
421
 16777215
 74
     2
 91
        2
 64
     7
 65
     7
 75
     1
175
     1
 42
40.0
 92
        8
 66
     7
 43
1.0
 76
     1
 77
     6
 78
     2
 67
     7
 79
     3
170
     0
171
     0
290
     0
174
     0
 93
        1
 44
0.0
173
     0
291
     0
 45
0.0
1001
ACAD
1000
AcDbSavedByObjectVersion
1070
     0
  0
VISUALSTYLE
  5
3F
102
{ACAD_REACTORS
330
2A
102
}
102
{ACAD_XDICTIONARY
360
271
102
}
330
2A
100
AcDbVisualStyle
  2
Sketchy
 70
    24
 71
     1
 72
     2
 73
     2
 90
        0
 40
0.6
 41
30.0
 62
     5
 63
     7
421
 16777215
 74
     2
 91
        2
 64
     7
 65
     7
 75
     1
175
     1
 42
40.0
 92
       11
 66
     7
 43
1.0
 76
     1
 77
     6
 78
     2
 67
     7
 79
     6
170
     0
171
     0
290
     0
174
     0
 93
        1
 44
0.0
173
     0
291
     0
 45
0.0
1001
ACAD
1000
AcDbSavedByObjectVersion
1070
     0
  0
VISUALSTYLE
  5
37
102
{ACAD_REACTORS
330
2A
102
}
102
{ACAD_XDICTIONARY
360
261
102
}
330
2A
100
AcDbVisualStyle
  2
Thicken
 70
    13
 71
     2
 72
     2
 73
     0
 90
        0
 40
0.6
 41
30.0
 62
     5
 63
     7
421
 16777215
 74
     1
 91
        4
 64
     7
 65
   257
 75
     1
175
     1
 42
1.0
 92
       12
 66
     7
 43
1.0
 76
     1
 77
     6
 78
     2
 67
     7
 79
     5
170
     0
171
     0
290
     0
174
     0
 93
        1
 44
0.0
173
     0
291
     1
 45
0.0
1001
ACAD
1000
AcDbSavedByObjectVersion
1070
     0
  0
VISUALSTYLE
  5
30
102
{ACAD_REACTORS
330
2A
102
}
102
{ACAD_XDICTIONARY
360
253
102
}
330
2A
100
AcDbVisualStyle
  2
Wireframe
 70
     5
 71
     0
 72
     2
 73
     0
 90
        0
 40
0.6
 41
30.0
 62
     5
 63
     7
421
 16777215
 74
     1
 91
        4
 64
     7
 65
   257
 75
     1
175
     1
 42
1.0
 92
        0
 66
   257
 43
1.0
 76
     1
 77
     6
 78
     2
 67
     7
 79
     3
170
     0
171
     0
290
     0
174
     0
 93
        1
 44
0.0
173
     0
291
     0
 45
0.0
1001
ACAD
1000
AcDbSavedByObjectVersion
1070
     0
  0
VISUALSTYLE
  5
40
102
{ACAD_REACTORS
330
2A
102
}
102
{ACAD_XDICTIONARY
360
273
102
}
330
2A
100
AcDbVisualStyle
  2
X-Ray
 70
    25
 71
     2
 72
     2
 73
     1
 90
        1
 40
0.5
 41
30.0
 62
     5
 63
     7
421
 16777215
 74
     1
 91
        0
 64
     7
 65
   257
 75
     1
175
     1
 42
1.0
 92
        8
 66
     7
 43
1.0
 76
     1
 77
     6
 78
     2
 67
     7
 79
     3
170
     0
171
     0
290
     0
174
     0
 93
       13
 44
0.0
173
     0
291
     0
 45
0.0
1001
ACAD
1000
AcDbSavedByObjectVersion
1070
     0
  0
DICTIONARYVAR
  5
246
102
{ACAD_REACTORS
330
245
102
}
330
245
100
DictionaryVariables
280
     0
  1
1:1
  0
DICTIONARYVAR
  5
287
102
{ACAD_REACTORS
330
245
102
}
330
245
100
DictionaryVariables
280
     0
  1
Standard
  0
DICTIONARYVAR
  5
286
102
{ACAD_REACTORS
330
245
102
}
330
245
100
DictionaryVariables
280
     0
  1
Standard
  0
DICTIONARYVAR
  5
247
102
{ACAD_REACTORS
330
245
102
}
330
245
100
DictionaryVariables
280
     0
  1
1
  0
DICTIONARYVAR
  5
248
102
{ACAD_REACTORS
330
245
102
}
330
245
100
DictionaryVariables
280
     0
  1
2
  0
DICTIONARY
  5
27B
330
45
100
AcDbDictionary
280
     1
281
     1
  3
ACAD_XREC_ROUNDTRIP
360
27C
  0
DICTIONARY
  5
279
330
44
100
AcDbDictionary
280
     1
281
     1
  3
ACAD_XREC_ROUNDTRIP
360
27A
  0
DICTIONARY
  5
27D
330
46
100
AcDbDictionary
280
     1
281
     1
  3
ACAD_XREC_ROUNDTRIP
360
27E
  0
DICTIONARY
  5
283
330
6C
100
AcDbDictionary
280
     1
281
     1
  3
ACAD_XREC_ROUNDTRIP
360
284
  0
DICTIONARY
  5
27F
330
6A
100
AcDbDictionary
280
     1
281
     1
  3
ACAD_ROUNDTRIP_2008_TABLESTYLE_CELLSTYLEMAP
360
281
  3
ACAD_XREC_ROUNDTRIP
360
280
  0
DICTIONARY
  5
251
330
2F
100
AcDbDictionary
280
     1
281
     1
  3
ACAD_XREC_ROUNDTRIP
360
252
  0
DICTIONARY
  5
257
330
32
100
AcDbDictionary
280
     1
281
     1
  3
ACAD_XREC_ROUNDTRIP
360
258
  0
DICTIONARY
  5
25F
330
36
100
AcDbDictionary
280
     1
281
     1
  3
ACAD_XREC_ROUNDTRIP
360
260
  0
DICTIONARY
  5
267
330
3A
100
AcDbDictionary
280
     1
281
     1
  3
ACAD_XREC_ROUNDTRIP
360
268
  0
DICTIONARY
  5
25B
330
34
100
AcDbDictionary
280
     1
281
     1
  3
ACAD_XREC_ROUNDTRIP
360
25C
  0
DICTIONARY
  5
25D
330
35
100
AcDbDictionary
280
     1
281
     1
  3
ACAD_XREC_ROUNDTRIP
360
25E
  0
DICTIONARY
  5
26D
330
3D
100
AcDbDictionary
280
     1
281
     1
  3
ACAD_XREC_ROUNDTRIP
360
26E
  0
DICTIONARY
  5
265
330
39
100
AcDbDictionary
280
     1
281
     1
  3
ACAD_XREC_ROUNDTRIP
360
266
  0
DICTIONARY
  5
249
330
2B
100
AcDbDictionary
280
     1
281
     1
  3
ACAD_XREC_ROUNDTRIP
360
24A
  0
DICTIONARY
  5
24B
330
2C
100
AcDbDictionary
280
     1
281
     1
  3
ACAD_XREC_ROUNDTRIP
360
24C
  0
DICTIONARY
  5
24D
330
2D
100
AcDbDictionary
280
     1
281
     1
  3
ACAD_XREC_ROUNDTRIP
360
24E
  0
DICTIONARY
  5
24F
330
2E
100
AcDbDictionary
280
     1
281
     1
  3
ACAD_XREC_ROUNDTRIP
360
250
  0
DICTIONARY
  5
255
330
31
100
AcDbDictionary
280
     1
281
     1
  3
ACAD_XREC_ROUNDTRIP
360
256
  0
DICTIONARY
  5
269
330
3B
100
AcDbDictionary
280
     1
281
     1
  3
ACAD_XREC_ROUNDTRIP
360
26A
  0
DICTIONARY
  5
263
330
38
100
AcDbDictionary
280
     1
281
     1
  3
ACAD_XREC_ROUNDTRIP
360
264
  0
DICTIONARY
  5
26B
330
3C
100
AcDbDictionary
280
     1
281
     1
  3
ACAD_XREC_ROUNDTRIP
360
26C
  0
DICTIONARY
  5
259
330
33
100
AcDbDictionary
280
     1
281
     1
  3
ACAD_XREC_ROUNDTRIP
360
25A
  0
DICTIONARY
  5
277
330
42
100
AcDbDictionary
280
     1
281
     1
  3
ACAD_XREC_ROUNDTRIP
360
278
  0
DICTIONARY
  5
275
330
41
100
AcDbDictionary
280
     1
281
     1
  3
ACAD_XREC_ROUNDTRIP
360
276
  0
DICTIONARY
  5
26F
330
3E
100
AcDbDictionary
280
     1
281
     1
  3
ACAD_XREC_ROUNDTRIP
360
270
  0
DICTIONARY
  5
271
330
3F
100
AcDbDictionary
280
     1
281
     1
  3
ACAD_XREC_ROUNDTRIP
360
272
  0
DICTIONARY
  5
261
330
37
100
AcDbDictionary
280
     1
281
     1
  3
ACAD_XREC_ROUNDTRIP
360
262
  0
DICTIONARY
  5
253
330
30
100
AcDbDictionary
280
     1
281
     1
  3
ACAD_XREC_ROUNDTRIP
360
254
  0
DICTIONARY
  5
273
330
40
100
AcDbDictionary
280
     1
281
     1
  3
ACAD_XREC_ROUNDTRIP
360
274
  0
XRECORD
  5
27C
102
{ACAD_REACTORS
330
27B
102
}
330
27B
100
AcDbXrecord
280
     1
102
MATERIAL
148
0.0
149
0.0
149
0.0
 93
        0
 94
      127
282
     0
 72
     1
 77
     1
171
     1
175
     1
179
     1
273
     0
  0
XRECORD
  5
27A
102
{ACAD_REACTORS
330
279
102
}
330
279
100
AcDbXrecord
280
     1
102
MATERIAL
148
0.0
149
0.0
149
0.0
 93
        0
 94
      127
282
     0
 72
     1
 77
     1
171
     1
175
     1
179
     1
273
     0
  0
XRECORD
  5
27E
102
{ACAD_REACTORS
330
27D
102
}
330
27D
100
AcDbXrecord
280
     1
102
MATERIAL
148
0.0
149
0.0
149
0.0
 93
        0
 94
      127
282
     0
 72
     1
 77
     1
171
     1
175
     1
179
     1
273
     0
  0
XRECORD
  5
284
102
{ACAD_REACTORS
330
283
102
}
330
283
100
AcDbXrecord
280
     1
102
ACAD_ROUNDTRIP_2010_MLEADER_STYLE
  0
CELLSTYLEMAP
  5
281
102
{ACAD_REACTORS
330
27F
102
}
330
27F
100
AcDbCellStyleMap
 90
        3
300
CELLSTYLE
  1
TABLEFORMAT_BEGIN
 90
        5
170
     1
 91
        0
 92
    32768
 62
   257
 93
        1
300
CONTENTFORMAT
  1
CONTENTFORMAT_BEGIN
 90
        0
 91
        0
 92
        4
 93
        0
300

 40
0.0
140
1.0
 94
        5
 62
     0
340
11
144
0.25
309
CONTENTFORMAT_END
171
     1
301
MARGIN
  1
CELLMARGIN_BEGIN
 40
0.06
 40
0.06
 40
0.06
 40
0.06
 40
0.06
 40
0.06
309
CELLMARGIN_END
 94
        6
 95
        1
302
GRIDFORMAT
  1
GRIDFORMAT_BEGIN
 90
        0
 91
        1
 62
     0
 92
       -2
340
14
 93
        0
 40
0.045
309
GRIDFORMAT_END
 95
        2
302
GRIDFORMAT
  1
GRIDFORMAT_BEGIN
 90
        0
 91
        1
 62
     0
 92
       -2
340
14
 93
        0
 40
0.045
309
GRIDFORMAT_END
 95
        4
302
GRIDFORMAT
  1
GRIDFORMAT_BEGIN
 90
        0
 91
        1
 62
     0
 92
       -2
340
14
 93
        0
 40
0.045
309
GRIDFORMAT_END
 95
        8
302
GRIDFORMAT
  1
GRIDFORMAT_BEGIN
 90
        0
 91
        1
 62
     0
 92
       -2
340
14
 93
        0
 40
0.045
309
GRIDFORMAT_END
 95
       16
302
GRIDFORMAT
  1
GRIDFORMAT_BEGIN
 90
        0
 91
        1
 62
     0
 92
       -2
340
14
 93
        0
 40
0.045
309
GRIDFORMAT_END
 95
       32
302
GRIDFORMAT
  1
GRIDFORMAT_BEGIN
 90
        0
 91
        1
 62
     0
 92
       -2
340
14
 93
        0
 40
0.045
309
GRIDFORMAT_END
309
TABLEFORMAT_END
  1
CELLSTYLE_BEGIN
 90
        1
 91
        1
300
_TITLE
309
CELLSTYLE_END
300
CELLSTYLE
  1
TABLEFORMAT_BEGIN
 90
        5
170
     1
 91
        0
 92
        0
 62
   257
 93
        1
300
CONTENTFORMAT
  1
CONTENTFORMAT_BEGIN
 90
        0
 91
        0
 92
        4
 93
        0
300

 40
0.0
140
1.0
 94
        5
 62
     0
340
11
144
0.18
309
CONTENTFORMAT_END
171
     1
301
MARGIN
  1
CELLMARGIN_BEGIN
 40
0.06
 40
0.06
 40
0.06
 40
0.06
 40
0.06
 40
0.06
309
CELLMARGIN_END
 94
        6
 95
        1
302
GRIDFORMAT
  1
GRIDFORMAT_BEGIN
 90
        0
 91
        1
 62
     0
 92
       -2
340
14
 93
        0
 40
0.045
309
GRIDFORMAT_END
 95
        2
302
GRIDFORMAT
  1
GRIDFORMAT_BEGIN
 90
        0
 91
        1
 62
     0
 92
       -2
340
14
 93
        0
 40
0.045
309
GRIDFORMAT_END
 95
        4
302
GRIDFORMAT
  1
GRIDFORMAT_BEGIN
 90
        0
 91
        1
 62
     0
 92
       -2
340
14
 93
        0
 40
0.045
309
GRIDFORMAT_END
 95
        8
302
GRIDFORMAT
  1
GRIDFORMAT_BEGIN
 90
        0
 91
        1
 62
     0
 92
       -2
340
14
 93
        0
 40
0.045
309
GRIDFORMAT_END
 95
       16
302
GRIDFORMAT
  1
GRIDFORMAT_BEGIN
 90
        0
 91
        1
 62
     0
 92
       -2
340
14
 93
        0
 40
0.045
309
GRIDFORMAT_END
 95
       32
302
GRIDFORMAT
  1
GRIDFORMAT_BEGIN
 90
        0
 91
        1
 62
     0
 92
       -2
340
14
 93
        0
 40
0.045
309
GRIDFORMAT_END
309
TABLEFORMAT_END
  1
CELLSTYLE_BEGIN
 90
        2
 91
        1
300
_HEADER
309
CELLSTYLE_END
300
CELLSTYLE
  1
TABLEFORMAT_BEGIN
 90
        5
170
     1
 91
        0
 92
        0
 62
   257
 93
        1
300
CONTENTFORMAT
  1
CONTENTFORMAT_BEGIN
 90
        0
 91
        0
 92
        4
 93
        0
300

 40
0.0
140
1.0
 94
        2
 62
     0
340
11
144
0.18
309
CONTENTFORMAT_END
171
     1
301
MARGIN
  1
CELLMARGIN_BEGIN
 40
0.06
 40
0.06
 40
0.06
 40
0.06
 40
0.06
 40
0.06
309
CELLMARGIN_END
 94
        6
 95
        1
302
GRIDFORMAT
  1
GRIDFORMAT_BEGIN
 90
        0
 91
        1
 62
     0
 92
       -2
340
14
 93
        0
 40
0.045
309
GRIDFORMAT_END
 95
        2
302
GRIDFORMAT
  1
GRIDFORMAT_BEGIN
 90
        0
 91
        1
 62
     0
 92
       -2
340
14
 93
        0
 40
0.045
309
GRIDFORMAT_END
 95
        4
302
GRIDFORMAT
  1
GRIDFORMAT_BEGIN
 90
        0
 91
        1
 62
     0
 92
       -2
340
14
 93
        0
 40
0.045
309
GRIDFORMAT_END
 95
        8
302
GRIDFORMAT
  1
GRIDFORMAT_BEGIN
 90
        0
 91
        1
 62
     0
 92
       -2
340
14
 93
        0
 40
0.045
309
GRIDFORMAT_END
 95
       16
302
GRIDFORMAT
  1
GRIDFORMAT_BEGIN
 90
        0
 91
        1
 62
     0
 92
       -2
340
14
 93
        0
 40
0.045
309
GRIDFORMAT_END
 95
       32
302
GRIDFORMAT
  1
GRIDFORMAT_BEGIN
 90
        0
 91
        1
 62
     0
 92
       -2
340
14
 93
        0
 40
0.045
309
GRIDFORMAT_END
309
TABLEFORMAT_END
  1
CELLSTYLE_BEGIN
 90
        3
 91
        2
300
_DATA
309
CELLSTYLE_END
  0
XRECORD
  5
280
102
{ACAD_REACTORS
330
27F
102
}
330
27F
100
AcDbXrecord
280
     1
102
ACAD_ROUNDTRIP_PRE2007_TABLESTYLE
 90
        4
 91
        0
  1

 92
        4
 93
        0
  2

 94
        4
 95
        0
  3

  0
XRECORD
  5
252
102
{ACAD_REACTORS
330
251
102
}
330
251
100
AcDbXrecord
280
     1
102
RTVSPropertyOp0
 70
     1
102
RTVSPropertyOp1
 70
     1
102
RTVSPropertyOp2
 70
     1
102
RTVSPropertyOp3
 70
     1
102
RTVSPropertyOp4
 70
     1
102
RTVSPropertyOp5
 70
     1
102
RTVSPropertyOp6
 70
     1
102
RTVSPropertyOp7
 70
     1
102
RTVSPropertyOp8
 70
     1
102
RTVSPropertyOp9
 70
     1
102
RTVSPropertyOp10
 70
     1
102
RTVSPropertyOp11
 70
     1
102
RTVSPropertyOp12
 70
     1
102
RTVSPropertyOp13
 70
     1
102
RTVSPropertyOp14
 70
     1
102
RTVSPropertyOp15
 70
     1
102
RTVSPropertyOp16
 70
     1
102
RTVSPropertyOp17
 70
     1
102
RTVSPropertyOp18
 70
     1
102
RTVSPropertyOp19
 70
     1
102
RTVSPropertyOp20
 70
     1
102
RTVSPropertyOp21
 70
     1
102
RTVSPropertyOp22
 70
     1
102
RTVSPropertyOp23
 70
     1
102
RTVSPropertyOp24
 70
     1
102
RTVSPropertyOp25
 70
     1
102
RTVSPropertyOp26
 70
     1
102
RTVSPropertyOp27
 70
     1
102
RTVSPropertyOp28
 70
     1
102
RTVSPropertyOp29
 70
     1
102
RTVSPropertyOp30
 70
     1
102
RTVSPropertyOp31
 70
     1
102
RTVSPropertyOp32
 70
     1
102
RTVSPropertyOp33
 70
     1
102
RTVSPropertyOp34
 70
     1
102
RTVSPropertyOp35
 70
     1
102
RTVSPropertyOp36
 70
     1
102
RTVSPropertyOp37
 70
     1
102
RTVSPropertyOp38
 70
     1
102
RTVSPropertyOp39
 70
     1
102
RTVSPropertyOp40
 70
     1
102
RTVSPropertyOp41
 70
     1
102
RTVSPropertyOp42
 70
     1
102
RTVSPropertyOp43
 70
     1
102
RTVSPropertyOp44
 70
     1
102
RTVSPropertyOp45
 70
     1
102
RTVSPropertyOp46
 70
     1
102
RTVSPropertyOp47
 70
     1
102
RTVSPropertyOp48
 70
     1
102
RTVSPropertyOp49
 70
     1
102
RTVSPropertyOp50
 70
     1
102
RTVSPropertyOp51
 70
     0
102
RTVSPropertyOp52
 70
     0
102
RTVSPropertyOp53
 70
     1
102
RTVSPropertyOp54
 70
     1
102
RTVSPropertyOp55
 70
     1
102
RTVSPropertyOp56
 70
     1
102
RTVSPropertyOp57
 70
     1
102
RTVSPost2010Prop28
280
     1
102
RTVSPost2010PropOp28
 70
     1
102
RTVSPost2010Prop29
280
     1
102
RTVSPost2010PropOp29
 70
     1
102
RTVSPost2010Prop30
280
     0
102
RTVSPost2010PropOp30
 70
     1
102
RTVSPost2010Prop31
280
     0
102
RTVSPost2010PropOp31
 70
     1
102
RTVSPost2010Prop32
280
     0
102
RTVSPost2010PropOp32
 70
     1
102
RTVSPost2010Prop33
280
     0
102
RTVSPost2010PropOp33
 70
     1
102
RTVSPost2010Prop34
280
     0
102
RTVSPost2010PropOp34
 70
     1
102
RTVSPost2010Prop35
280
     0
102
RTVSPost2010PropOp35
 70
     1
102
RTVSPost2010Prop36
280
     0
102
RTVSPost2010PropOp36
 70
     1
102
RTVSPost2010Prop37
 90
       50
102
RTVSPost2010PropOp37
 70
     1
102
RTVSPost2010Prop38
140
0.0
102
RTVSPost2010PropOp38
 70
     1
102
RTVSPost2010Prop39
140
1.0
102
RTVSPost2010PropOp39
 70
     1
102
RTVSPost2010Prop40
 90
        0
102
RTVSPost2010PropOp40
 70
     1
102
RTVSPost2010Prop41ColorIndex
 90
       18
102
RTVSPost2010Prop41ColorRGB
 90
        0
102
RTVSPost2010PropOp41
 70
     1
102
RTVSPost2010Prop42
 90
       50
102
RTVSPost2010PropOp42
 70
     1
102
RTVSPost2010Prop43
 90
        3
102
RTVSPost2010PropOp43
 70
     1
102
RTVSPost2010Prop44ColorIndex
 90
        5
102
RTVSPost2010Prop44ColorRGB
 90
      255
102
RTVSPost2010PropOp44
 70
     1
102
RTVSPost2010Prop45
280
     0
102
RTVSPost2010PropOp45
 70
     1
102
RTVSPost2010Prop46
 90
       50
102
RTVSPost2010PropOp46
 70
     1
102
RTVSPost2010Prop47
 90
       50
102
RTVSPost2010PropOp47
 70
     1
102
RTVSPost2010Prop48
 90
       50
102
RTVSPost2010PropOp48
 70
     1
102
RTVSPost2010Prop49
280
     0
102
RTVSPost2010PropOp49
 70
     1
102
RTVSPost2010Prop50
 90
       50
102
RTVSPost2010PropOp50
 70
     1
102
RTVSPost2010Prop51ColorIndex
 90
      256
102
RTVSPost2010Prop51ColorRGB
 90
-16777216
102
RTVSPost2010PropOp51
 70
     0
102
RTVSPost2010Prop52
140
1.0
102
RTVSPost2010PropOp52
 70
     0
102
RTVSPost2010Prop53
 90
        2
102
RTVSPost2010PropOp53
 70
     1
102
RTVSPost2010Prop54
  1
strokes_ogs.tif
102
RTVSPost2010PropOp54
 70
     1
102
RTVSPost2010Prop55
280
     0
102
RTVSPost2010PropOp55
 70
     1
102
RTVSPost2010Prop56
140
1.0
102
RTVSPost2010PropOp56
 70
     1
102
RTVSPost2010Prop57
140
1.0
102
RTVSPost2010PropOp57
 70
     1
  0
XRECORD
  5
258
102
{ACAD_REACTORS
330
257
102
}
330
257
100
AcDbXrecord
280
     1
102
RTVSPropertyOp0
 70
     1
102
RTVSPropertyOp1
 70
     1
102
RTVSPropertyOp2
 70
     1
102
RTVSPropertyOp3
 70
     1
102
RTVSPropertyOp4
 70
     1
102
RTVSPropertyOp5
 70
     1
102
RTVSPropertyOp6
 70
     1
102
RTVSPropertyOp7
 70
     1
102
RTVSPropertyOp8
 70
     1
102
RTVSPropertyOp9
 70
     1
102
RTVSPropertyOp10
 70
     1
102
RTVSPropertyOp11
 70
     1
102
RTVSPropertyOp12
 70
     1
102
RTVSPropertyOp13
 70
     1
102
RTVSPropertyOp14
 70
     1
102
RTVSPropertyOp15
 70
     1
102
RTVSPropertyOp16
 70
     1
102
RTVSPropertyOp17
 70
     1
102
RTVSPropertyOp18
 70
     1
102
RTVSPropertyOp19
 70
     1
102
RTVSPropertyOp20
 70
     1
102
RTVSPropertyOp21
 70
     1
102
RTVSPropertyOp22
 70
     1
102
RTVSPropertyOp23
 70
     1
102
RTVSPropertyOp24
 70
     1
102
RTVSPropertyOp25
 70
     1
102
RTVSPropertyOp26
 70
     1
102
RTVSPropertyOp27
 70
     1
102
RTVSPropertyOp28
 70
     1
102
RTVSPropertyOp29
 70
     1
102
RTVSPropertyOp30
 70
     1
102
RTVSPropertyOp31
 70
     1
102
RTVSPropertyOp32
 70
     1
102
RTVSPropertyOp33
 70
     1
102
RTVSPropertyOp34
 70
     1
102
RTVSPropertyOp35
 70
     1
102
RTVSPropertyOp36
 70
     1
102
RTVSPropertyOp37
 70
     1
102
RTVSPropertyOp38
 70
     1
102
RTVSPropertyOp39
 70
     1
102
RTVSPropertyOp40
 70
     1
102
RTVSPropertyOp41
 70
     1
102
RTVSPropertyOp42
 70
     1
102
RTVSPropertyOp43
 70
     1
102
RTVSPropertyOp44
 70
     1
102
RTVSPropertyOp45
 70
     1
102
RTVSPropertyOp46
 70
     1
102
RTVSPropertyOp47
 70
     1
102
RTVSPropertyOp48
 70
     1
102
RTVSPropertyOp49
 70
     1
102
RTVSPropertyOp50
 70
     1
102
RTVSPropertyOp51
 70
     0
102
RTVSPropertyOp52
 70
     0
102
RTVSPropertyOp53
 70
     1
102
RTVSPropertyOp54
 70
     1
102
RTVSPropertyOp55
 70
     1
102
RTVSPropertyOp56
 70
     1
102
RTVSPropertyOp57
 70
     1
102
RTVSPost2010Prop28
280
     0
102
RTVSPost2010PropOp28
 70
     1
102
RTVSPost2010Prop29
280
     1
102
RTVSPost2010PropOp29
 70
     1
102
RTVSPost2010Prop30
280
     1
102
RTVSPost2010PropOp30
 70
     1
102
RTVSPost2010Prop31
280
     0
102
RTVSPost2010PropOp31
 70
     1
102
RTVSPost2010Prop32
280
     0
102
RTVSPost2010PropOp32
 70
     1
102
RTVSPost2010Prop33
280
     0
102
RTVSPost2010PropOp33
 70
     1
102
RTVSPost2010Prop34
280
     0
102
RTVSPost2010PropOp34
 70
     1
102
RTVSPost2010Prop35
280
     0
102
RTVSPost2010PropOp35
 70
     1
102
RTVSPost2010Prop36
280
     0
102
RTVSPost2010PropOp36
 70
     1
102
RTVSPost2010Prop37
 90
       50
102
RTVSPost2010PropOp37
 70
     1
102
RTVSPost2010Prop38
140
0.0
102
RTVSPost2010PropOp38
 70
     1
102
RTVSPost2010Prop39
140
1.0
102
RTVSPost2010PropOp39
 70
     1
102
RTVSPost2010Prop40
 90
        0
102
RTVSPost2010PropOp40
 70
     1
102
RTVSPost2010Prop41ColorIndex
 90
       18
102
RTVSPost2010Prop41ColorRGB
 90
        0
102
RTVSPost2010PropOp41
 70
     1
102
RTVSPost2010Prop42
 90
       50
102
RTVSPost2010PropOp42
 70
     1
102
RTVSPost2010Prop43
 90
        3
102
RTVSPost2010PropOp43
 70
     1
102
RTVSPost2010Prop44ColorIndex
 90
        5
102
RTVSPost2010Prop44ColorRGB
 90
      255
102
RTVSPost2010PropOp44
 70
     1
102
RTVSPost2010Prop45
280
     0
102
RTVSPost2010PropOp45
 70
     1
102
RTVSPost2010Prop46
 90
       50
102
RTVSPost2010PropOp46
 70
     1
102
RTVSPost2010Prop47
 90
       50
102
RTVSPost2010PropOp47
 70
     1
102
RTVSPost2010Prop48
 90
       50
102
RTVSPost2010PropOp48
 70
     1
102
RTVSPost2010Prop49
280
     0
102
RTVSPost2010PropOp49
 70
     1
102
RTVSPost2010Prop50
 90
       50
102
RTVSPost2010PropOp50
 70
     1
102
RTVSPost2010Prop51ColorIndex
 90
      256
102
RTVSPost2010Prop51ColorRGB
 90
-16777216
102
RTVSPost2010PropOp51
 70
     0
102
RTVSPost2010Prop52
140
1.0
102
RTVSPost2010PropOp52
 70
     0
102
RTVSPost2010Prop53
 90
        2
102
RTVSPost2010PropOp53
 70
     1
102
RTVSPost2010Prop54
  1
strokes_ogs.tif
102
RTVSPost2010PropOp54
 70
     1
102
RTVSPost2010Prop55
280
     0
102
RTVSPost2010PropOp55
 70
     1
102
RTVSPost2010Prop56
140
1.0
102
RTVSPost2010PropOp56
 70
     1
102
RTVSPost2010Prop57
140
1.0
102
RTVSPost2010PropOp57
 70
     1
  0
XRECORD
  5
260
102
{ACAD_REACTORS
330
25F
102
}
330
25F
100
AcDbXrecord
280
     1
102
RTVSPropertyOp0
 70
     1
102
RTVSPropertyOp1
 70
     1
102
RTVSPropertyOp2
 70
     1
102
RTVSPropertyOp3
 70
     1
102
RTVSPropertyOp4
 70
     1
102
RTVSPropertyOp5
 70
     1
102
RTVSPropertyOp6
 70
     1
102
RTVSPropertyOp7
 70
     1
102
RTVSPropertyOp8
 70
     1
102
RTVSPropertyOp9
 70
     1
102
RTVSPropertyOp10
 70
     1
102
RTVSPropertyOp11
 70
     1
102
RTVSPropertyOp12
 70
     1
102
RTVSPropertyOp13
 70
     1
102
RTVSPropertyOp14
 70
     1
102
RTVSPropertyOp15
 70
     1
102
RTVSPropertyOp16
 70
     1
102
RTVSPropertyOp17
 70
     1
102
RTVSPropertyOp18
 70
     1
102
RTVSPropertyOp19
 70
     1
102
RTVSPropertyOp20
 70
     1
102
RTVSPropertyOp21
 70
     1
102
RTVSPropertyOp22
 70
     1
102
RTVSPropertyOp23
 70
     1
102
RTVSPropertyOp24
 70
     1
102
RTVSPropertyOp25
 70
     1
102
RTVSPropertyOp26
 70
     1
102
RTVSPropertyOp27
 70
     1
102
RTVSPropertyOp28
 70
     1
102
RTVSPropertyOp29
 70
     1
102
RTVSPropertyOp30
 70
     1
102
RTVSPropertyOp31
 70
     1
102
RTVSPropertyOp32
 70
     1
102
RTVSPropertyOp33
 70
     1
102
RTVSPropertyOp34
 70
     1
102
RTVSPropertyOp35
 70
     1
102
RTVSPropertyOp36
 70
     1
102
RTVSPropertyOp37
 70
     1
102
RTVSPropertyOp38
 70
     1
102
RTVSPropertyOp39
 70
     1
102
RTVSPropertyOp40
 70
     1
102
RTVSPropertyOp41
 70
     1
102
RTVSPropertyOp42
 70
     1
102
RTVSPropertyOp43
 70
     1
102
RTVSPropertyOp44
 70
     1
102
RTVSPropertyOp45
 70
     1
102
RTVSPropertyOp46
 70
     1
102
RTVSPropertyOp47
 70
     1
102
RTVSPropertyOp48
 70
     1
102
RTVSPropertyOp49
 70
     1
102
RTVSPropertyOp50
 70
     1
102
RTVSPropertyOp51
 70
     0
102
RTVSPropertyOp52
 70
     0
102
RTVSPropertyOp53
 70
     1
102
RTVSPropertyOp54
 70
     1
102
RTVSPropertyOp55
 70
     1
102
RTVSPropertyOp56
 70
     1
102
RTVSPropertyOp57
 70
     1
102
RTVSPost2010Prop28
280
     0
102
RTVSPost2010PropOp28
 70
     1
102
RTVSPost2010Prop29
280
     1
102
RTVSPost2010PropOp29
 70
     1
102
RTVSPost2010Prop30
280
     1
102
RTVSPost2010PropOp30
 70
     1
102
RTVSPost2010Prop31
280
     0
102
RTVSPost2010PropOp31
 70
     1
102
RTVSPost2010Prop32
280
     0
102
RTVSPost2010PropOp32
 70
     1
102
RTVSPost2010Prop33
280
     0
102
RTVSPost2010PropOp33
 70
     1
102
RTVSPost2010Prop34
280
     0
102
RTVSPost2010PropOp34
 70
     1
102
RTVSPost2010Prop35
280
     0
102
RTVSPost2010PropOp35
 70
     1
102
RTVSPost2010Prop36
280
     0
102
RTVSPost2010PropOp36
 70
     1
102
RTVSPost2010Prop37
 90
       50
102
RTVSPost2010PropOp37
 70
     1
102
RTVSPost2010Prop38
140
0.0
102
RTVSPost2010PropOp38
 70
     1
102
RTVSPost2010Prop39
140
1.0
102
RTVSPost2010PropOp39
 70
     1
102
RTVSPost2010Prop40
 90
        0
102
RTVSPost2010PropOp40
 70
     1
102
RTVSPost2010Prop41ColorIndex
 90
       18
102
RTVSPost2010Prop41ColorRGB
 90
        0
102
RTVSPost2010PropOp41
 70
     1
102
RTVSPost2010Prop42
 90
       50
102
RTVSPost2010PropOp42
 70
     1
102
RTVSPost2010Prop43
 90
        3
102
RTVSPost2010PropOp43
 70
     1
102
RTVSPost2010Prop44ColorIndex
 90
        5
102
RTVSPost2010Prop44ColorRGB
 90
      255
102
RTVSPost2010PropOp44
 70
     1
102
RTVSPost2010Prop45
280
     0
102
RTVSPost2010PropOp45
 70
     1
102
RTVSPost2010Prop46
 90
       50
102
RTVSPost2010PropOp46
 70
     1
102
RTVSPost2010Prop47
 90
       50
102
RTVSPost2010PropOp47
 70
     1
102
RTVSPost2010Prop48
 90
       50
102
RTVSPost2010PropOp48
 70
     1
102
RTVSPost2010Prop49
280
     0
102
RTVSPost2010PropOp49
 70
     1
102
RTVSPost2010Prop50
 90
       50
102
RTVSPost2010PropOp50
 70
     1
102
RTVSPost2010Prop51ColorIndex
 90
      256
102
RTVSPost2010Prop51ColorRGB
 90
-16777216
102
RTVSPost2010PropOp51
 70
     0
102
RTVSPost2010Prop52
140
1.0
102
RTVSPost2010PropOp52
 70
     0
102
RTVSPost2010Prop53
 90
        2
102
RTVSPost2010PropOp53
 70
     1
102
RTVSPost2010Prop54
  1
strokes_ogs.tif
102
RTVSPost2010PropOp54
 70
     1
102
RTVSPost2010Prop55
280
     0
102
RTVSPost2010PropOp55
 70
     1
102
RTVSPost2010Prop56
140
1.0
102
RTVSPost2010PropOp56
 70
     1
102
RTVSPost2010Prop57
140
1.0
102
RTVSPost2010PropOp57
 70
     1
  0
XRECORD
  5
268
102
{ACAD_REACTORS
330
267
102
}
330
267
100
AcDbXrecord
280
     1
102
RTVSPropertyOp0
 70
     1
102
RTVSPropertyOp1
 70
     1
102
RTVSPropertyOp2
 70
     1
102
RTVSPropertyOp3
 70
     1
102
RTVSPropertyOp4
 70
     1
102
RTVSPropertyOp5
 70
     1
102
RTVSPropertyOp6
 70
     1
102
RTVSPropertyOp7
 70
     1
102
RTVSPropertyOp8
 70
     1
102
RTVSPropertyOp9
 70
     1
102
RTVSPropertyOp10
 70
     1
102
RTVSPropertyOp11
 70
     1
102
RTVSPropertyOp12
 70
     1
102
RTVSPropertyOp13
 70
     1
102
RTVSPropertyOp14
 70
     1
102
RTVSPropertyOp15
 70
     1
102
RTVSPropertyOp16
 70
     1
102
RTVSPropertyOp17
 70
     1
102
RTVSPropertyOp18
 70
     1
102
RTVSPropertyOp19
 70
     1
102
RTVSPropertyOp20
 70
     1
102
RTVSPropertyOp21
 70
     1
102
RTVSPropertyOp22
 70
     1
102
RTVSPropertyOp23
 70
     1
102
RTVSPropertyOp24
 70
     1
102
RTVSPropertyOp25
 70
     1
102
RTVSPropertyOp26
 70
     1
102
RTVSPropertyOp27
 70
     1
102
RTVSPropertyOp28
 70
     1
102
RTVSPropertyOp29
 70
     1
102
RTVSPropertyOp30
 70
     1
102
RTVSPropertyOp31
 70
     1
102
RTVSPropertyOp32
 70
     1
102
RTVSPropertyOp33
 70
     1
102
RTVSPropertyOp34
 70
     1
102
RTVSPropertyOp35
 70
     1
102
RTVSPropertyOp36
 70
     1
102
RTVSPropertyOp37
 70
     1
102
RTVSPropertyOp38
 70
     1
102
RTVSPropertyOp39
 70
     1
102
RTVSPropertyOp40
 70
     1
102
RTVSPropertyOp41
 70
     1
102
RTVSPropertyOp42
 70
     1
102
RTVSPropertyOp43
 70
     1
102
RTVSPropertyOp44
 70
     1
102
RTVSPropertyOp45
 70
     1
102
RTVSPropertyOp46
 70
     1
102
RTVSPropertyOp47
 70
     1
102
RTVSPropertyOp48
 70
     1
102
RTVSPropertyOp49
 70
     1
102
RTVSPropertyOp50
 70
     1
102
RTVSPropertyOp51
 70
     0
102
RTVSPropertyOp52
 70
     0
102
RTVSPropertyOp53
 70
     1
102
RTVSPropertyOp54
 70
     1
102
RTVSPropertyOp55
 70
     1
102
RTVSPropertyOp56
 70
     1
102
RTVSPropertyOp57
 70
     1
102
RTVSPost2010Prop28
280
     0
102
RTVSPost2010PropOp28
 70
     1
102
RTVSPost2010Prop29
280
     1
102
RTVSPost2010PropOp29
 70
     1
102
RTVSPost2010Prop30
280
     1
102
RTVSPost2010PropOp30
 70
     1
102
RTVSPost2010Prop31
280
     0
102
RTVSPost2010PropOp31
 70
     1
102
RTVSPost2010Prop32
280
     0
102
RTVSPost2010PropOp32
 70
     1
102
RTVSPost2010Prop33
280
     0
102
RTVSPost2010PropOp33
 70
     1
102
RTVSPost2010Prop34
280
     0
102
RTVSPost2010PropOp34
 70
     1
102
RTVSPost2010Prop35
280
     0
102
RTVSPost2010PropOp35
 70
     1
102
RTVSPost2010Prop36
280
     0
102
RTVSPost2010PropOp36
 70
     1
102
RTVSPost2010Prop37
 90
       50
102
RTVSPost2010PropOp37
 70
     1
102
RTVSPost2010Prop38
140
0.0
102
RTVSPost2010PropOp38
 70
     1
102
RTVSPost2010Prop39
140
1.0
102
RTVSPost2010PropOp39
 70
     1
102
RTVSPost2010Prop40
 90
        0
102
RTVSPost2010PropOp40
 70
     1
102
RTVSPost2010Prop41ColorIndex
 90
       18
102
RTVSPost2010Prop41ColorRGB
 90
        0
102
RTVSPost2010PropOp41
 70
     1
102
RTVSPost2010Prop42
 90
       50
102
RTVSPost2010PropOp42
 70
     1
102
RTVSPost2010Prop43
 90
        3
102
RTVSPost2010PropOp43
 70
     1
102
RTVSPost2010Prop44ColorIndex
 90
        5
102
RTVSPost2010Prop44ColorRGB
 90
      255
102
RTVSPost2010PropOp44
 70
     1
102
RTVSPost2010Prop45
280
     0
102
RTVSPost2010PropOp45
 70
     1
102
RTVSPost2010Prop46
 90
       50
102
RTVSPost2010PropOp46
 70
     1
102
RTVSPost2010Prop47
 90
       50
102
RTVSPost2010PropOp47
 70
     1
102
RTVSPost2010Prop48
 90
       50
102
RTVSPost2010PropOp48
 70
     1
102
RTVSPost2010Prop49
280
     0
102
RTVSPost2010PropOp49
 70
     1
102
RTVSPost2010Prop50
 90
       50
102
RTVSPost2010PropOp50
 70
     1
102
RTVSPost2010Prop51ColorIndex
 90
      256
102
RTVSPost2010Prop51ColorRGB
 90
-16777216
102
RTVSPost2010PropOp51
 70
     0
102
RTVSPost2010Prop52
140
1.0
102
RTVSPost2010PropOp52
 70
     0
102
RTVSPost2010Prop53
 90
        2
102
RTVSPost2010PropOp53
 70
     1
102
RTVSPost2010Prop54
  1
strokes_ogs.tif
102
RTVSPost2010PropOp54
 70
     1
102
RTVSPost2010Prop55
280
     0
102
RTVSPost2010PropOp55
 70
     1
102
RTVSPost2010Prop56
140
1.0
102
RTVSPost2010PropOp56
 70
     1
102
RTVSPost2010Prop57
140
1.0
102
RTVSPost2010PropOp57
 70
     1
  0
XRECORD
  5
25C
102
{ACAD_REACTORS
330
25B
102
}
330
25B
100
AcDbXrecord
280
     1
102
RTVSPropertyOp0
 70
     1
102
RTVSPropertyOp1
 70
     1
102
RTVSPropertyOp2
 70
     1
102
RTVSPropertyOp3
 70
     1
102
RTVSPropertyOp4
 70
     1
102
RTVSPropertyOp5
 70
     1
102
RTVSPropertyOp6
 70
     1
102
RTVSPropertyOp7
 70
     1
102
RTVSPropertyOp8
 70
     1
102
RTVSPropertyOp9
 70
     1
102
RTVSPropertyOp10
 70
     1
102
RTVSPropertyOp11
 70
     1
102
RTVSPropertyOp12
 70
     1
102
RTVSPropertyOp13
 70
     1
102
RTVSPropertyOp14
 70
     1
102
RTVSPropertyOp15
 70
     1
102
RTVSPropertyOp16
 70
     1
102
RTVSPropertyOp17
 70
     1
102
RTVSPropertyOp18
 70
     1
102
RTVSPropertyOp19
 70
     1
102
RTVSPropertyOp20
 70
     1
102
RTVSPropertyOp21
 70
     1
102
RTVSPropertyOp22
 70
     1
102
RTVSPropertyOp23
 70
     1
102
RTVSPropertyOp24
 70
     1
102
RTVSPropertyOp25
 70
     1
102
RTVSPropertyOp26
 70
     1
102
RTVSPropertyOp27
 70
     1
102
RTVSPropertyOp28
 70
     1
102
RTVSPropertyOp29
 70
     1
102
RTVSPropertyOp30
 70
     1
102
RTVSPropertyOp31
 70
     1
102
RTVSPropertyOp32
 70
     1
102
RTVSPropertyOp33
 70
     1
102
RTVSPropertyOp34
 70
     1
102
RTVSPropertyOp35
 70
     1
102
RTVSPropertyOp36
 70
     1
102
RTVSPropertyOp37
 70
     1
102
RTVSPropertyOp38
 70
     1
102
RTVSPropertyOp39
 70
     1
102
RTVSPropertyOp40
 70
     1
102
RTVSPropertyOp41
 70
     1
102
RTVSPropertyOp42
 70
     1
102
RTVSPropertyOp43
 70
     1
102
RTVSPropertyOp44
 70
     1
102
RTVSPropertyOp45
 70
     1
102
RTVSPropertyOp46
 70
     1
102
RTVSPropertyOp47
 70
     1
102
RTVSPropertyOp48
 70
     1
102
RTVSPropertyOp49
 70
     1
102
RTVSPropertyOp50
 70
     1
102
RTVSPropertyOp51
 70
     0
102
RTVSPropertyOp52
 70
     0
102
RTVSPropertyOp53
 70
     1
102
RTVSPropertyOp54
 70
     1
102
RTVSPropertyOp55
 70
     1
102
RTVSPropertyOp56
 70
     1
102
RTVSPropertyOp57
 70
     1
102
RTVSPost2010Prop28
280
     0
102
RTVSPost2010PropOp28
 70
     1
102
RTVSPost2010Prop29
280
     1
102
RTVSPost2010PropOp29
 70
     1
102
RTVSPost2010Prop30
280
     1
102
RTVSPost2010PropOp30
 70
     1
102
RTVSPost2010Prop31
280
     0
102
RTVSPost2010PropOp31
 70
     1
102
RTVSPost2010Prop32
280
     0
102
RTVSPost2010PropOp32
 70
     1
102
RTVSPost2010Prop33
280
     0
102
RTVSPost2010PropOp33
 70
     1
102
RTVSPost2010Prop34
280
     0
102
RTVSPost2010PropOp34
 70
     1
102
RTVSPost2010Prop35
280
     0
102
RTVSPost2010PropOp35
 70
     1
102
RTVSPost2010Prop36
280
     0
102
RTVSPost2010PropOp36
 70
     1
102
RTVSPost2010Prop37
 90
       50
102
RTVSPost2010PropOp37
 70
     1
102
RTVSPost2010Prop38
140
0.0
102
RTVSPost2010PropOp38
 70
     1
102
RTVSPost2010Prop39
140
1.0
102
RTVSPost2010PropOp39
 70
     1
102
RTVSPost2010Prop40
 90
        0
102
RTVSPost2010PropOp40
 70
     1
102
RTVSPost2010Prop41ColorIndex
 90
       18
102
RTVSPost2010Prop41ColorRGB
 90
        0
102
RTVSPost2010PropOp41
 70
     1
102
RTVSPost2010Prop42
 90
       50
102
RTVSPost2010PropOp42
 70
     1
102
RTVSPost2010Prop43
 90
        3
102
RTVSPost2010PropOp43
 70
     1
102
RTVSPost2010Prop44ColorIndex
 90
        5
102
RTVSPost2010Prop44ColorRGB
 90
      255
102
RTVSPost2010PropOp44
 70
     1
102
RTVSPost2010Prop45
280
     0
102
RTVSPost2010PropOp45
 70
     1
102
RTVSPost2010Prop46
 90
       50
102
RTVSPost2010PropOp46
 70
     1
102
RTVSPost2010Prop47
 90
       50
102
RTVSPost2010PropOp47
 70
     1
102
RTVSPost2010Prop48
 90
       50
102
RTVSPost2010PropOp48
 70
     1
102
RTVSPost2010Prop49
280
     0
102
RTVSPost2010PropOp49
 70
     1
102
RTVSPost2010Prop50
 90
       50
102
RTVSPost2010PropOp50
 70
     1
102
RTVSPost2010Prop51ColorIndex
 90
      256
102
RTVSPost2010Prop51ColorRGB
 90
-16777216
102
RTVSPost2010PropOp51
 70
     0
102
RTVSPost2010Prop52
140
1.0
102
RTVSPost2010PropOp52
 70
     0
102
RTVSPost2010Prop53
 90
        2
102
RTVSPost2010PropOp53
 70
     1
102
RTVSPost2010Prop54
  1
strokes_ogs.tif
102
RTVSPost2010PropOp54
 70
     1
102
RTVSPost2010Prop55
280
     0
102
RTVSPost2010PropOp55
 70
     1
102
RTVSPost2010Prop56
140
1.0
102
RTVSPost2010PropOp56
 70
     1
102
RTVSPost2010Prop57
140
1.0
102
RTVSPost2010PropOp57
 70
     1
  0
XRECORD
  5
25E
102
{ACAD_REACTORS
330
25D
102
}
330
25D
100
AcDbXrecord
280
     1
102
RTVSPropertyOp0
 70
     1
102
RTVSPropertyOp1
 70
     1
102
RTVSPropertyOp2
 70
     1
102
RTVSPropertyOp3
 70
     1
102
RTVSPropertyOp4
 70
     1
102
RTVSPropertyOp5
 70
     1
102
RTVSPropertyOp6
 70
     1
102
RTVSPropertyOp7
 70
     1
102
RTVSPropertyOp8
 70
     1
102
RTVSPropertyOp9
 70
     1
102
RTVSPropertyOp10
 70
     1
102
RTVSPropertyOp11
 70
     1
102
RTVSPropertyOp12
 70
     1
102
RTVSPropertyOp13
 70
     1
102
RTVSPropertyOp14
 70
     1
102
RTVSPropertyOp15
 70
     1
102
RTVSPropertyOp16
 70
     1
102
RTVSPropertyOp17
 70
     1
102
RTVSPropertyOp18
 70
     1
102
RTVSPropertyOp19
 70
     1
102
RTVSPropertyOp20
 70
     1
102
RTVSPropertyOp21
 70
     1
102
RTVSPropertyOp22
 70
     1
102
RTVSPropertyOp23
 70
     1
102
RTVSPropertyOp24
 70
     1
102
RTVSPropertyOp25
 70
     1
102
RTVSPropertyOp26
 70
     1
102
RTVSPropertyOp27
 70
     1
102
RTVSPropertyOp28
 70
     1
102
RTVSPropertyOp29
 70
     1
102
RTVSPropertyOp30
 70
     1
102
RTVSPropertyOp31
 70
     1
102
RTVSPropertyOp32
 70
     1
102
RTVSPropertyOp33
 70
     1
102
RTVSPropertyOp34
 70
     1
102
RTVSPropertyOp35
 70
     1
102
RTVSPropertyOp36
 70
     1
102
RTVSPropertyOp37
 70
     1
102
RTVSPropertyOp38
 70
     1
102
RTVSPropertyOp39
 70
     1
102
RTVSPropertyOp40
 70
     1
102
RTVSPropertyOp41
 70
     1
102
RTVSPropertyOp42
 70
     1
102
RTVSPropertyOp43
 70
     1
102
RTVSPropertyOp44
 70
     1
102
RTVSPropertyOp45
 70
     1
102
RTVSPropertyOp46
 70
     1
102
RTVSPropertyOp47
 70
     1
102
RTVSPropertyOp48
 70
     1
102
RTVSPropertyOp49
 70
     1
102
RTVSPropertyOp50
 70
     1
102
RTVSPropertyOp51
 70
     0
102
RTVSPropertyOp52
 70
     0
102
RTVSPropertyOp53
 70
     1
102
RTVSPropertyOp54
 70
     1
102
RTVSPropertyOp55
 70
     1
102
RTVSPropertyOp56
 70
     1
102
RTVSPropertyOp57
 70
     1
102
RTVSPost2010Prop28
280
     0
102
RTVSPost2010PropOp28
 70
     1
102
RTVSPost2010Prop29
280
     1
102
RTVSPost2010PropOp29
 70
     1
102
RTVSPost2010Prop30
280
     1
102
RTVSPost2010PropOp30
 70
     1
102
RTVSPost2010Prop31
280
     0
102
RTVSPost2010PropOp31
 70
     1
102
RTVSPost2010Prop32
280
     0
102
RTVSPost2010PropOp32
 70
     1
102
RTVSPost2010Prop33
280
     0
102
RTVSPost2010PropOp33
 70
     1
102
RTVSPost2010Prop34
280
     0
102
RTVSPost2010PropOp34
 70
     1
102
RTVSPost2010Prop35
280
     0
102
RTVSPost2010PropOp35
 70
     1
102
RTVSPost2010Prop36
280
     0
102
RTVSPost2010PropOp36
 70
     1
102
RTVSPost2010Prop37
 90
       50
102
RTVSPost2010PropOp37
 70
     1
102
RTVSPost2010Prop38
140
0.0
102
RTVSPost2010PropOp38
 70
     1
102
RTVSPost2010Prop39
140
1.0
102
RTVSPost2010PropOp39
 70
     1
102
RTVSPost2010Prop40
 90
        0
102
RTVSPost2010PropOp40
 70
     1
102
RTVSPost2010Prop41ColorIndex
 90
       18
102
RTVSPost2010Prop41ColorRGB
 90
        0
102
RTVSPost2010PropOp41
 70
     1
102
RTVSPost2010Prop42
 90
       50
102
RTVSPost2010PropOp42
 70
     1
102
RTVSPost2010Prop43
 90
        3
102
RTVSPost2010PropOp43
 70
     1
102
RTVSPost2010Prop44ColorIndex
 90
        5
102
RTVSPost2010Prop44ColorRGB
 90
      255
102
RTVSPost2010PropOp44
 70
     1
102
RTVSPost2010Prop45
280
     0
102
RTVSPost2010PropOp45
 70
     1
102
RTVSPost2010Prop46
 90
       50
102
RTVSPost2010PropOp46
 70
     1
102
RTVSPost2010Prop47
 90
       50
102
RTVSPost2010PropOp47
 70
     1
102
RTVSPost2010Prop48
 90
       50
102
RTVSPost2010PropOp48
 70
     1
102
RTVSPost2010Prop49
280
     0
102
RTVSPost2010PropOp49
 70
     1
102
RTVSPost2010Prop50
 90
       50
102
RTVSPost2010PropOp50
 70
     1
102
RTVSPost2010Prop51ColorIndex
 90
      256
102
RTVSPost2010Prop51ColorRGB
 90
-16777216
102
RTVSPost2010PropOp51
 70
     0
102
RTVSPost2010Prop52
140
1.0
102
RTVSPost2010PropOp52
 70
     0
102
RTVSPost2010Prop53
 90
        2
102
RTVSPost2010PropOp53
 70
     1
102
RTVSPost2010Prop54
  1
strokes_ogs.tif
102
RTVSPost2010PropOp54
 70
     1
102
RTVSPost2010Prop55
280
     0
102
RTVSPost2010PropOp55
 70
     1
102
RTVSPost2010Prop56
140
1.0
102
RTVSPost2010PropOp56
 70
     1
102
RTVSPost2010Prop57
140
1.0
102
RTVSPost2010PropOp57
 70
     1
  0
XRECORD
  5
26E
102
{ACAD_REACTORS
330
26D
102
}
330
26D
100
AcDbXrecord
280
     1
102
RTVSPropertyOp0
 70
     0
102
RTVSPropertyOp1
 70
     0
102
RTVSPropertyOp2
 70
     0
102
RTVSPropertyOp3
 70
     0
102
RTVSPropertyOp4
 70
     0
102
RTVSPropertyOp5
 70
     0
102
RTVSPropertyOp6
 70
     0
102
RTVSPropertyOp7
 70
     0
102
RTVSPropertyOp8
 70
     0
102
RTVSPropertyOp9
 70
     0
102
RTVSPropertyOp10
 70
     0
102
RTVSPropertyOp11
 70
     0
102
RTVSPropertyOp12
 70
     0
102
RTVSPropertyOp13
 70
     0
102
RTVSPropertyOp14
 70
     2
102
RTVSPropertyOp15
 70
     0
102
RTVSPropertyOp16
 70
     0
102
RTVSPropertyOp17
 70
     0
102
RTVSPropertyOp18
 70
     0
102
RTVSPropertyOp19
 70
     0
102
RTVSPropertyOp20
 70
     0
102
RTVSPropertyOp21
 70
     0
102
RTVSPropertyOp22
 70
     0
102
RTVSPropertyOp23
 70
     0
102
RTVSPropertyOp24
 70
     0
102
RTVSPropertyOp25
 70
     0
102
RTVSPropertyOp26
 70
     0
102
RTVSPropertyOp27
 70
     0
102
RTVSPropertyOp28
 70
     0
102
RTVSPropertyOp29
 70
     0
102
RTVSPropertyOp30
 70
     0
102
RTVSPropertyOp31
 70
     0
102
RTVSPropertyOp32
 70
     0
102
RTVSPropertyOp33
 70
     0
102
RTVSPropertyOp34
 70
     0
102
RTVSPropertyOp35
 70
     0
102
RTVSPropertyOp36
 70
     0
102
RTVSPropertyOp37
 70
     0
102
RTVSPropertyOp38
 70
     0
102
RTVSPropertyOp39
 70
     0
102
RTVSPropertyOp40
 70
     0
102
RTVSPropertyOp41
 70
     0
102
RTVSPropertyOp42
 70
     0
102
RTVSPropertyOp43
 70
     0
102
RTVSPropertyOp44
 70
     0
102
RTVSPropertyOp45
 70
     0
102
RTVSPropertyOp46
 70
     0
102
RTVSPropertyOp47
 70
     0
102
RTVSPropertyOp48
 70
     0
102
RTVSPropertyOp49
 70
     0
102
RTVSPropertyOp50
 70
     0
102
RTVSPropertyOp51
 70
     0
102
RTVSPropertyOp52
 70
     0
102
RTVSPropertyOp53
 70
     0
102
RTVSPropertyOp54
 70
     0
102
RTVSPropertyOp55
 70
     0
102
RTVSPropertyOp56
 70
     0
102
RTVSPropertyOp57
 70
     0
102
RTVSPost2010Prop28
280
     0
102
RTVSPost2010PropOp28
 70
     0
102
RTVSPost2010Prop29
280
     1
102
RTVSPost2010PropOp29
 70
     0
102
RTVSPost2010Prop30
280
     1
102
RTVSPost2010PropOp30
 70
     0
102
RTVSPost2010Prop31
280
     0
102
RTVSPost2010PropOp31
 70
     0
102
RTVSPost2010Prop32
280
     0
102
RTVSPost2010PropOp32
 70
     0
102
RTVSPost2010Prop33
280
     0
102
RTVSPost2010PropOp33
 70
     0
102
RTVSPost2010Prop34
280
     0
102
RTVSPost2010PropOp34
 70
     0
102
RTVSPost2010Prop35
280
     0
102
RTVSPost2010PropOp35
 70
     0
102
RTVSPost2010Prop36
280
     0
102
RTVSPost2010PropOp36
 70
     0
102
RTVSPost2010Prop37
 90
       50
102
RTVSPost2010PropOp37
 70
     0
102
RTVSPost2010Prop38
140
0.0
102
RTVSPost2010PropOp38
 70
     0
102
RTVSPost2010Prop39
140
1.0
102
RTVSPost2010PropOp39
 70
     0
102
RTVSPost2010Prop40
 90
        0
102
RTVSPost2010PropOp40
 70
     0
102
RTVSPost2010Prop41ColorIndex
 90
       18
102
RTVSPost2010Prop41ColorRGB
 90
        0
102
RTVSPost2010PropOp41
 70
     0
102
RTVSPost2010Prop42
 90
       50
102
RTVSPost2010PropOp42
 70
     0
102
RTVSPost2010Prop43
 90
        3
102
RTVSPost2010PropOp43
 70
     0
102
RTVSPost2010Prop44ColorIndex
 90
        5
102
RTVSPost2010Prop44ColorRGB
 90
      255
102
RTVSPost2010PropOp44
 70
     0
102
RTVSPost2010Prop45
280
     0
102
RTVSPost2010PropOp45
 70
     0
102
RTVSPost2010Prop46
 90
       50
102
RTVSPost2010PropOp46
 70
     0
102
RTVSPost2010Prop47
 90
       50
102
RTVSPost2010PropOp47
 70
     0
102
RTVSPost2010Prop48
 90
       50
102
RTVSPost2010PropOp48
 70
     0
102
RTVSPost2010Prop49
280
     0
102
RTVSPost2010PropOp49
 70
     0
102
RTVSPost2010Prop50
 90
       50
102
RTVSPost2010PropOp50
 70
     0
102
RTVSPost2010Prop51ColorIndex
 90
      256
102
RTVSPost2010Prop51ColorRGB
 90
-16777216
102
RTVSPost2010PropOp51
 70
     0
102
RTVSPost2010Prop52
140
1.0
102
RTVSPost2010PropOp52
 70
     0
102
RTVSPost2010Prop53
 90
        2
102
RTVSPost2010PropOp53
 70
     0
102
RTVSPost2010Prop54
  1
strokes_ogs.tif
102
RTVSPost2010PropOp54
 70
     0
102
RTVSPost2010Prop55
280
     0
102
RTVSPost2010PropOp55
 70
     0
102
RTVSPost2010Prop56
140
1.0
102
RTVSPost2010PropOp56
 70
     0
102
RTVSPost2010Prop57
140
1.0
102
RTVSPost2010PropOp57
 70
     0
  0
XRECORD
  5
266
102
{ACAD_REACTORS
330
265
102
}
330
265
100
AcDbXrecord
280
     1
102
RTVSPropertyOp0
 70
     1
102
RTVSPropertyOp1
 70
     1
102
RTVSPropertyOp2
 70
     1
102
RTVSPropertyOp3
 70
     1
102
RTVSPropertyOp4
 70
     1
102
RTVSPropertyOp5
 70
     1
102
RTVSPropertyOp6
 70
     1
102
RTVSPropertyOp7
 70
     1
102
RTVSPropertyOp8
 70
     1
102
RTVSPropertyOp9
 70
     1
102
RTVSPropertyOp10
 70
     1
102
RTVSPropertyOp11
 70
     1
102
RTVSPropertyOp12
 70
     1
102
RTVSPropertyOp13
 70
     1
102
RTVSPropertyOp14
 70
     1
102
RTVSPropertyOp15
 70
     1
102
RTVSPropertyOp16
 70
     1
102
RTVSPropertyOp17
 70
     1
102
RTVSPropertyOp18
 70
     1
102
RTVSPropertyOp19
 70
     1
102
RTVSPropertyOp20
 70
     1
102
RTVSPropertyOp21
 70
     1
102
RTVSPropertyOp22
 70
     1
102
RTVSPropertyOp23
 70
     1
102
RTVSPropertyOp24
 70
     1
102
RTVSPropertyOp25
 70
     1
102
RTVSPropertyOp26
 70
     1
102
RTVSPropertyOp27
 70
     1
102
RTVSPropertyOp28
 70
     1
102
RTVSPropertyOp29
 70
     1
102
RTVSPropertyOp30
 70
     1
102
RTVSPropertyOp31
 70
     1
102
RTVSPropertyOp32
 70
     1
102
RTVSPropertyOp33
 70
     1
102
RTVSPropertyOp34
 70
     1
102
RTVSPropertyOp35
 70
     1
102
RTVSPropertyOp36
 70
     1
102
RTVSPropertyOp37
 70
     1
102
RTVSPropertyOp38
 70
     1
102
RTVSPropertyOp39
 70
     1
102
RTVSPropertyOp40
 70
     1
102
RTVSPropertyOp41
 70
     1
102
RTVSPropertyOp42
 70
     1
102
RTVSPropertyOp43
 70
     1
102
RTVSPropertyOp44
 70
     1
102
RTVSPropertyOp45
 70
     1
102
RTVSPropertyOp46
 70
     1
102
RTVSPropertyOp47
 70
     1
102
RTVSPropertyOp48
 70
     1
102
RTVSPropertyOp49
 70
     1
102
RTVSPropertyOp50
 70
     1
102
RTVSPropertyOp51
 70
     0
102
RTVSPropertyOp52
 70
     0
102
RTVSPropertyOp53
 70
     1
102
RTVSPropertyOp54
 70
     1
102
RTVSPropertyOp55
 70
     1
102
RTVSPropertyOp56
 70
     1
102
RTVSPropertyOp57
 70
     1
102
RTVSPost2010Prop28
280
     0
102
RTVSPost2010PropOp28
 70
     1
102
RTVSPost2010Prop29
280
     1
102
RTVSPost2010PropOp29
 70
     1
102
RTVSPost2010Prop30
280
     1
102
RTVSPost2010PropOp30
 70
     1
102
RTVSPost2010Prop31
280
     0
102
RTVSPost2010PropOp31
 70
     1
102
RTVSPost2010Prop32
280
     0
102
RTVSPost2010PropOp32
 70
     1
102
RTVSPost2010Prop33
280
     0
102
RTVSPost2010PropOp33
 70
     1
102
RTVSPost2010Prop34
280
     0
102
RTVSPost2010PropOp34
 70
     1
102
RTVSPost2010Prop35
280
     0
102
RTVSPost2010PropOp35
 70
     1
102
RTVSPost2010Prop36
280
     0
102
RTVSPost2010PropOp36
 70
     1
102
RTVSPost2010Prop37
 90
       50
102
RTVSPost2010PropOp37
 70
     1
102
RTVSPost2010Prop38
140
0.0
102
RTVSPost2010PropOp38
 70
     1
102
RTVSPost2010Prop39
140
1.0
102
RTVSPost2010PropOp39
 70
     1
102
RTVSPost2010Prop40
 90
        0
102
RTVSPost2010PropOp40
 70
     1
102
RTVSPost2010Prop41ColorIndex
 90
       18
102
RTVSPost2010Prop41ColorRGB
 90
        0
102
RTVSPost2010PropOp41
 70
     1
102
RTVSPost2010Prop42
 90
       50
102
RTVSPost2010PropOp42
 70
     1
102
RTVSPost2010Prop43
 90
        3
102
RTVSPost2010PropOp43
 70
     1
102
RTVSPost2010Prop44ColorIndex
 90
        5
102
RTVSPost2010Prop44ColorRGB
 90
      255
102
RTVSPost2010PropOp44
 70
     1
102
RTVSPost2010Prop45
280
     0
102
RTVSPost2010PropOp45
 70
     1
102
RTVSPost2010Prop46
 90
       50
102
RTVSPost2010PropOp46
 70
     1
102
RTVSPost2010Prop47
 90
       50
102
RTVSPost2010PropOp47
 70
     1
102
RTVSPost2010Prop48
 90
       50
102
RTVSPost2010PropOp48
 70
     1
102
RTVSPost2010Prop49
280
     0
102
RTVSPost2010PropOp49
 70
     1
102
RTVSPost2010Prop50
 90
       50
102
RTVSPost2010PropOp50
 70
     1
102
RTVSPost2010Prop51ColorIndex
 90
      256
102
RTVSPost2010Prop51ColorRGB
 90
-16777216
102
RTVSPost2010PropOp51
 70
     0
102
RTVSPost2010Prop52
140
1.0
102
RTVSPost2010PropOp52
 70
     0
102
RTVSPost2010Prop53
 90
        2
102
RTVSPost2010PropOp53
 70
     1
102
RTVSPost2010Prop54
  1
strokes_ogs.tif
102
RTVSPost2010PropOp54
 70
     1
102
RTVSPost2010Prop55
280
     0
102
RTVSPost2010PropOp55
 70
     1
102
RTVSPost2010Prop56
140
1.0
102
RTVSPost2010PropOp56
 70
     1
102
RTVSPost2010Prop57
140
1.0
102
RTVSPost2010PropOp57
 70
     1
  0
XRECORD
  5
24A
102
{ACAD_REACTORS
330
249
102
}
330
249
100
AcDbXrecord
280
     1
102
RTVSPropertyOp0
 70
     1
102
RTVSPropertyOp1
 70
     1
102
RTVSPropertyOp2
 70
     1
102
RTVSPropertyOp3
 70
     1
102
RTVSPropertyOp4
 70
     1
102
RTVSPropertyOp5
 70
     1
102
RTVSPropertyOp6
 70
     1
102
RTVSPropertyOp7
 70
     1
102
RTVSPropertyOp8
 70
     1
102
RTVSPropertyOp9
 70
     1
102
RTVSPropertyOp10
 70
     1
102
RTVSPropertyOp11
 70
     1
102
RTVSPropertyOp12
 70
     1
102
RTVSPropertyOp13
 70
     1
102
RTVSPropertyOp14
 70
     1
102
RTVSPropertyOp15
 70
     1
102
RTVSPropertyOp16
 70
     1
102
RTVSPropertyOp17
 70
     1
102
RTVSPropertyOp18
 70
     1
102
RTVSPropertyOp19
 70
     1
102
RTVSPropertyOp20
 70
     1
102
RTVSPropertyOp21
 70
     1
102
RTVSPropertyOp22
 70
     1
102
RTVSPropertyOp23
 70
     1
102
RTVSPropertyOp24
 70
     1
102
RTVSPropertyOp25
 70
     1
102
RTVSPropertyOp26
 70
     1
102
RTVSPropertyOp27
 70
     1
102
RTVSPropertyOp28
 70
     1
102
RTVSPropertyOp29
 70
     1
102
RTVSPropertyOp30
 70
     1
102
RTVSPropertyOp31
 70
     1
102
RTVSPropertyOp32
 70
     1
102
RTVSPropertyOp33
 70
     1
102
RTVSPropertyOp34
 70
     1
102
RTVSPropertyOp35
 70
     1
102
RTVSPropertyOp36
 70
     1
102
RTVSPropertyOp37
 70
     1
102
RTVSPropertyOp38
 70
     1
102
RTVSPropertyOp39
 70
     1
102
RTVSPropertyOp40
 70
     1
102
RTVSPropertyOp41
 70
     1
102
RTVSPropertyOp42
 70
     1
102
RTVSPropertyOp43
 70
     1
102
RTVSPropertyOp44
 70
     1
102
RTVSPropertyOp45
 70
     1
102
RTVSPropertyOp46
 70
     1
102
RTVSPropertyOp47
 70
     1
102
RTVSPropertyOp48
 70
     1
102
RTVSPropertyOp49
 70
     1
102
RTVSPropertyOp50
 70
     1
102
RTVSPropertyOp51
 70
     0
102
RTVSPropertyOp52
 70
     0
102
RTVSPropertyOp53
 70
     1
102
RTVSPropertyOp54
 70
     1
102
RTVSPropertyOp55
 70
     1
102
RTVSPropertyOp56
 70
     1
102
RTVSPropertyOp57
 70
     1
102
RTVSPost2010Prop28
280
     0
102
RTVSPost2010PropOp28
 70
     1
102
RTVSPost2010Prop29
280
     1
102
RTVSPost2010PropOp29
 70
     1
102
RTVSPost2010Prop30
280
     1
102
RTVSPost2010PropOp30
 70
     1
102
RTVSPost2010Prop31
280
     0
102
RTVSPost2010PropOp31
 70
     1
102
RTVSPost2010Prop32
280
     0
102
RTVSPost2010PropOp32
 70
     1
102
RTVSPost2010Prop33
280
     0
102
RTVSPost2010PropOp33
 70
     1
102
RTVSPost2010Prop34
280
     0
102
RTVSPost2010PropOp34
 70
     1
102
RTVSPost2010Prop35
280
     0
102
RTVSPost2010PropOp35
 70
     1
102
RTVSPost2010Prop36
280
     0
102
RTVSPost2010PropOp36
 70
     1
102
RTVSPost2010Prop37
 90
       50
102
RTVSPost2010PropOp37
 70
     1
102
RTVSPost2010Prop38
140
0.0
102
RTVSPost2010PropOp38
 70
     1
102
RTVSPost2010Prop39
140
1.0
102
RTVSPost2010PropOp39
 70
     1
102
RTVSPost2010Prop40
 90
        0
102
RTVSPost2010PropOp40
 70
     1
102
RTVSPost2010Prop41ColorIndex
 90
       18
102
RTVSPost2010Prop41ColorRGB
 90
        0
102
RTVSPost2010PropOp41
 70
     1
102
RTVSPost2010Prop42
 90
       50
102
RTVSPost2010PropOp42
 70
     1
102
RTVSPost2010Prop43
 90
        3
102
RTVSPost2010PropOp43
 70
     1
102
RTVSPost2010Prop44ColorIndex
 90
        5
102
RTVSPost2010Prop44ColorRGB
 90
      255
102
RTVSPost2010PropOp44
 70
     1
102
RTVSPost2010Prop45
280
     0
102
RTVSPost2010PropOp45
 70
     1
102
RTVSPost2010Prop46
 90
       50
102
RTVSPost2010PropOp46
 70
     1
102
RTVSPost2010Prop47
 90
       50
102
RTVSPost2010PropOp47
 70
     1
102
RTVSPost2010Prop48
 90
       50
102
RTVSPost2010PropOp48
 70
     1
102
RTVSPost2010Prop49
280
     0
102
RTVSPost2010PropOp49
 70
     1
102
RTVSPost2010Prop50
 90
       50
102
RTVSPost2010PropOp50
 70
     1
102
RTVSPost2010Prop51ColorIndex
 90
      256
102
RTVSPost2010Prop51ColorRGB
 90
-16777216
102
RTVSPost2010PropOp51
 70
     0
102
RTVSPost2010Prop52
140
1.0
102
RTVSPost2010PropOp52
 70
     0
102
RTVSPost2010Prop53
 90
        2
102
RTVSPost2010PropOp53
 70
     1
102
RTVSPost2010Prop54
  1
strokes_ogs.tif
102
RTVSPost2010PropOp54
 70
     1
102
RTVSPost2010Prop55
280
     0
102
RTVSPost2010PropOp55
 70
     1
102
RTVSPost2010Prop56
140
1.0
102
RTVSPost2010PropOp56
 70
     1
102
RTVSPost2010Prop57
140
1.0
102
RTVSPost2010PropOp57
 70
     1
  0
XRECORD
  5
24C
102
{ACAD_REACTORS
330
24B
102
}
330
24B
100
AcDbXrecord
280
     1
102
RTVSPropertyOp0
 70
     1
102
RTVSPropertyOp1
 70
     1
102
RTVSPropertyOp2
 70
     1
102
RTVSPropertyOp3
 70
     1
102
RTVSPropertyOp4
 70
     1
102
RTVSPropertyOp5
 70
     1
102
RTVSPropertyOp6
 70
     1
102
RTVSPropertyOp7
 70
     1
102
RTVSPropertyOp8
 70
     1
102
RTVSPropertyOp9
 70
     1
102
RTVSPropertyOp10
 70
     1
102
RTVSPropertyOp11
 70
     1
102
RTVSPropertyOp12
 70
     1
102
RTVSPropertyOp13
 70
     1
102
RTVSPropertyOp14
 70
     1
102
RTVSPropertyOp15
 70
     1
102
RTVSPropertyOp16
 70
     1
102
RTVSPropertyOp17
 70
     1
102
RTVSPropertyOp18
 70
     1
102
RTVSPropertyOp19
 70
     1
102
RTVSPropertyOp20
 70
     1
102
RTVSPropertyOp21
 70
     1
102
RTVSPropertyOp22
 70
     1
102
RTVSPropertyOp23
 70
     1
102
RTVSPropertyOp24
 70
     1
102
RTVSPropertyOp25
 70
     1
102
RTVSPropertyOp26
 70
     1
102
RTVSPropertyOp27
 70
     1
102
RTVSPropertyOp28
 70
     1
102
RTVSPropertyOp29
 70
     1
102
RTVSPropertyOp30
 70
     1
102
RTVSPropertyOp31
 70
     1
102
RTVSPropertyOp32
 70
     1
102
RTVSPropertyOp33
 70
     1
102
RTVSPropertyOp34
 70
     1
102
RTVSPropertyOp35
 70
     1
102
RTVSPropertyOp36
 70
     1
102
RTVSPropertyOp37
 70
     1
102
RTVSPropertyOp38
 70
     1
102
RTVSPropertyOp39
 70
     1
102
RTVSPropertyOp40
 70
     1
102
RTVSPropertyOp41
 70
     1
102
RTVSPropertyOp42
 70
     1
102
RTVSPropertyOp43
 70
     1
102
RTVSPropertyOp44
 70
     1
102
RTVSPropertyOp45
 70
     1
102
RTVSPropertyOp46
 70
     1
102
RTVSPropertyOp47
 70
     1
102
RTVSPropertyOp48
 70
     1
102
RTVSPropertyOp49
 70
     1
102
RTVSPropertyOp50
 70
     1
102
RTVSPropertyOp51
 70
     0
102
RTVSPropertyOp52
 70
     0
102
RTVSPropertyOp53
 70
     1
102
RTVSPropertyOp54
 70
     1
102
RTVSPropertyOp55
 70
     1
102
RTVSPropertyOp56
 70
     1
102
RTVSPropertyOp57
 70
     1
102
RTVSPost2010Prop28
280
     0
102
RTVSPost2010PropOp28
 70
     1
102
RTVSPost2010Prop29
280
     1
102
RTVSPost2010PropOp29
 70
     1
102
RTVSPost2010Prop30
280
     1
102
RTVSPost2010PropOp30
 70
     1
102
RTVSPost2010Prop31
280
     0
102
RTVSPost2010PropOp31
 70
     1
102
RTVSPost2010Prop32
280
     0
102
RTVSPost2010PropOp32
 70
     1
102
RTVSPost2010Prop33
280
     0
102
RTVSPost2010PropOp33
 70
     1
102
RTVSPost2010Prop34
280
     0
102
RTVSPost2010PropOp34
 70
     1
102
RTVSPost2010Prop35
280
     0
102
RTVSPost2010PropOp35
 70
     1
102
RTVSPost2010Prop36
280
     0
102
RTVSPost2010PropOp36
 70
     1
102
RTVSPost2010Prop37
 90
       50
102
RTVSPost2010PropOp37
 70
     1
102
RTVSPost2010Prop38
140
0.0
102
RTVSPost2010PropOp38
 70
     1
102
RTVSPost2010Prop39
140
1.0
102
RTVSPost2010PropOp39
 70
     1
102
RTVSPost2010Prop40
 90
        0
102
RTVSPost2010PropOp40
 70
     1
102
RTVSPost2010Prop41ColorIndex
 90
       18
102
RTVSPost2010Prop41ColorRGB
 90
        0
102
RTVSPost2010PropOp41
 70
     1
102
RTVSPost2010Prop42
 90
       50
102
RTVSPost2010PropOp42
 70
     1
102
RTVSPost2010Prop43
 90
        3
102
RTVSPost2010PropOp43
 70
     1
102
RTVSPost2010Prop44ColorIndex
 90
        5
102
RTVSPost2010Prop44ColorRGB
 90
      255
102
RTVSPost2010PropOp44
 70
     1
102
RTVSPost2010Prop45
280
     0
102
RTVSPost2010PropOp45
 70
     1
102
RTVSPost2010Prop46
 90
       50
102
RTVSPost2010PropOp46
 70
     1
102
RTVSPost2010Prop47
 90
       50
102
RTVSPost2010PropOp47
 70
     1
102
RTVSPost2010Prop48
 90
       50
102
RTVSPost2010PropOp48
 70
     1
102
RTVSPost2010Prop49
280
     0
102
RTVSPost2010PropOp49
 70
     1
102
RTVSPost2010Prop50
 90
       50
102
RTVSPost2010PropOp50
 70
     1
102
RTVSPost2010Prop51ColorIndex
 90
      256
102
RTVSPost2010Prop51ColorRGB
 90
-16777216
102
RTVSPost2010PropOp51
 70
     0
102
RTVSPost2010Prop52
140
1.0
102
RTVSPost2010PropOp52
 70
     0
102
RTVSPost2010Prop53
 90
        2
102
RTVSPost2010PropOp53
 70
     1
102
RTVSPost2010Prop54
  1
strokes_ogs.tif
102
RTVSPost2010PropOp54
 70
     1
102
RTVSPost2010Prop55
280
     0
102
RTVSPost2010PropOp55
 70
     1
102
RTVSPost2010Prop56
140
1.0
102
RTVSPost2010PropOp56
 70
     1
102
RTVSPost2010Prop57
140
1.0
102
RTVSPost2010PropOp57
 70
     1
  0
XRECORD
  5
24E
102
{ACAD_REACTORS
330
24D
102
}
330
24D
100
AcDbXrecord
280
     1
102
RTVSPropertyOp0
 70
     1
102
RTVSPropertyOp1
 70
     1
102
RTVSPropertyOp2
 70
     1
102
RTVSPropertyOp3
 70
     1
102
RTVSPropertyOp4
 70
     1
102
RTVSPropertyOp5
 70
     1
102
RTVSPropertyOp6
 70
     1
102
RTVSPropertyOp7
 70
     1
102
RTVSPropertyOp8
 70
     1
102
RTVSPropertyOp9
 70
     1
102
RTVSPropertyOp10
 70
     1
102
RTVSPropertyOp11
 70
     1
102
RTVSPropertyOp12
 70
     1
102
RTVSPropertyOp13
 70
     1
102
RTVSPropertyOp14
 70
     1
102
RTVSPropertyOp15
 70
     1
102
RTVSPropertyOp16
 70
     1
102
RTVSPropertyOp17
 70
     1
102
RTVSPropertyOp18
 70
     1
102
RTVSPropertyOp19
 70
     1
102
RTVSPropertyOp20
 70
     1
102
RTVSPropertyOp21
 70
     1
102
RTVSPropertyOp22
 70
     1
102
RTVSPropertyOp23
 70
     1
102
RTVSPropertyOp24
 70
     1
102
RTVSPropertyOp25
 70
     1
102
RTVSPropertyOp26
 70
     1
102
RTVSPropertyOp27
 70
     1
102
RTVSPropertyOp28
 70
     1
102
RTVSPropertyOp29
 70
     1
102
RTVSPropertyOp30
 70
     1
102
RTVSPropertyOp31
 70
     1
102
RTVSPropertyOp32
 70
     1
102
RTVSPropertyOp33
 70
     1
102
RTVSPropertyOp34
 70
     1
102
RTVSPropertyOp35
 70
     1
102
RTVSPropertyOp36
 70
     1
102
RTVSPropertyOp37
 70
     1
102
RTVSPropertyOp38
 70
     1
102
RTVSPropertyOp39
 70
     1
102
RTVSPropertyOp40
 70
     1
102
RTVSPropertyOp41
 70
     1
102
RTVSPropertyOp42
 70
     1
102
RTVSPropertyOp43
 70
     1
102
RTVSPropertyOp44
 70
     1
102
RTVSPropertyOp45
 70
     1
102
RTVSPropertyOp46
 70
     1
102
RTVSPropertyOp47
 70
     1
102
RTVSPropertyOp48
 70
     1
102
RTVSPropertyOp49
 70
     1
102
RTVSPropertyOp50
 70
     1
102
RTVSPropertyOp51
 70
     0
102
RTVSPropertyOp52
 70
     0
102
RTVSPropertyOp53
 70
     1
102
RTVSPropertyOp54
 70
     1
102
RTVSPropertyOp55
 70
     1
102
RTVSPropertyOp56
 70
     1
102
RTVSPropertyOp57
 70
     1
102
RTVSPost2010Prop28
280
     0
102
RTVSPost2010PropOp28
 70
     1
102
RTVSPost2010Prop29
280
     1
102
RTVSPost2010PropOp29
 70
     1
102
RTVSPost2010Prop30
280
     1
102
RTVSPost2010PropOp30
 70
     1
102
RTVSPost2010Prop31
280
     0
102
RTVSPost2010PropOp31
 70
     1
102
RTVSPost2010Prop32
280
     0
102
RTVSPost2010PropOp32
 70
     1
102
RTVSPost2010Prop33
280
     0
102
RTVSPost2010PropOp33
 70
     1
102
RTVSPost2010Prop34
280
     0
102
RTVSPost2010PropOp34
 70
     1
102
RTVSPost2010Prop35
280
     0
102
RTVSPost2010PropOp35
 70
     1
102
RTVSPost2010Prop36
280
     0
102
RTVSPost2010PropOp36
 70
     1
102
RTVSPost2010Prop37
 90
       50
102
RTVSPost2010PropOp37
 70
     1
102
RTVSPost2010Prop38
140
0.0
102
RTVSPost2010PropOp38
 70
     1
102
RTVSPost2010Prop39
140
1.0
102
RTVSPost2010PropOp39
 70
     1
102
RTVSPost2010Prop40
 90
        0
102
RTVSPost2010PropOp40
 70
     1
102
RTVSPost2010Prop41ColorIndex
 90
       18
102
RTVSPost2010Prop41ColorRGB
 90
        0
102
RTVSPost2010PropOp41
 70
     1
102
RTVSPost2010Prop42
 90
       50
102
RTVSPost2010PropOp42
 70
     1
102
RTVSPost2010Prop43
 90
        3
102
RTVSPost2010PropOp43
 70
     1
102
RTVSPost2010Prop44ColorIndex
 90
        5
102
RTVSPost2010Prop44ColorRGB
 90
      255
102
RTVSPost2010PropOp44
 70
     1
102
RTVSPost2010Prop45
280
     0
102
RTVSPost2010PropOp45
 70
     1
102
RTVSPost2010Prop46
 90
       50
102
RTVSPost2010PropOp46
 70
     1
102
RTVSPost2010Prop47
 90
       50
102
RTVSPost2010PropOp47
 70
     1
102
RTVSPost2010Prop48
 90
       50
102
RTVSPost2010PropOp48
 70
     1
102
RTVSPost2010Prop49
280
     0
102
RTVSPost2010PropOp49
 70
     1
102
RTVSPost2010Prop50
 90
       50
102
RTVSPost2010PropOp50
 70
     1
102
RTVSPost2010Prop51ColorIndex
 90
      256
102
RTVSPost2010Prop51ColorRGB
 90
-16777216
102
RTVSPost2010PropOp51
 70
     0
102
RTVSPost2010Prop52
140
1.0
102
RTVSPost2010PropOp52
 70
     0
102
RTVSPost2010Prop53
 90
        2
102
RTVSPost2010PropOp53
 70
     1
102
RTVSPost2010Prop54
  1
strokes_ogs.tif
102
RTVSPost2010PropOp54
 70
     1
102
RTVSPost2010Prop55
280
     0
102
RTVSPost2010PropOp55
 70
     1
102
RTVSPost2010Prop56
140
1.0
102
RTVSPost2010PropOp56
 70
     1
102
RTVSPost2010Prop57
140
1.0
102
RTVSPost2010PropOp57
 70
     1
  0
XRECORD
  5
250
102
{ACAD_REACTORS
330
24F
102
}
330
24F
100
AcDbXrecord
280
     1
102
RTVSPropertyOp0
 70
     1
102
RTVSPropertyOp1
 70
     1
102
RTVSPropertyOp2
 70
     1
102
RTVSPropertyOp3
 70
     1
102
RTVSPropertyOp4
 70
     1
102
RTVSPropertyOp5
 70
     1
102
RTVSPropertyOp6
 70
     1
102
RTVSPropertyOp7
 70
     1
102
RTVSPropertyOp8
 70
     1
102
RTVSPropertyOp9
 70
     1
102
RTVSPropertyOp10
 70
     1
102
RTVSPropertyOp11
 70
     1
102
RTVSPropertyOp12
 70
     1
102
RTVSPropertyOp13
 70
     1
102
RTVSPropertyOp14
 70
     1
102
RTVSPropertyOp15
 70
     1
102
RTVSPropertyOp16
 70
     1
102
RTVSPropertyOp17
 70
     1
102
RTVSPropertyOp18
 70
     1
102
RTVSPropertyOp19
 70
     1
102
RTVSPropertyOp20
 70
     1
102
RTVSPropertyOp21
 70
     1
102
RTVSPropertyOp22
 70
     1
102
RTVSPropertyOp23
 70
     1
102
RTVSPropertyOp24
 70
     1
102
RTVSPropertyOp25
 70
     1
102
RTVSPropertyOp26
 70
     1
102
RTVSPropertyOp27
 70
     1
102
RTVSPropertyOp28
 70
     1
102
RTVSPropertyOp29
 70
     1
102
RTVSPropertyOp30
 70
     1
102
RTVSPropertyOp31
 70
     1
102
RTVSPropertyOp32
 70
     1
102
RTVSPropertyOp33
 70
     1
102
RTVSPropertyOp34
 70
     1
102
RTVSPropertyOp35
 70
     1
102
RTVSPropertyOp36
 70
     1
102
RTVSPropertyOp37
 70
     1
102
RTVSPropertyOp38
 70
     1
102
RTVSPropertyOp39
 70
     1
102
RTVSPropertyOp40
 70
     1
102
RTVSPropertyOp41
 70
     1
102
RTVSPropertyOp42
 70
     1
102
RTVSPropertyOp43
 70
     1
102
RTVSPropertyOp44
 70
     1
102
RTVSPropertyOp45
 70
     1
102
RTVSPropertyOp46
 70
     1
102
RTVSPropertyOp47
 70
     1
102
RTVSPropertyOp48
 70
     1
102
RTVSPropertyOp49
 70
     1
102
RTVSPropertyOp50
 70
     1
102
RTVSPropertyOp51
 70
     0
102
RTVSPropertyOp52
 70
     0
102
RTVSPropertyOp53
 70
     1
102
RTVSPropertyOp54
 70
     1
102
RTVSPropertyOp55
 70
     1
102
RTVSPropertyOp56
 70
     1
102
RTVSPropertyOp57
 70
     1
102
RTVSPost2010Prop28
280
     0
102
RTVSPost2010PropOp28
 70
     1
102
RTVSPost2010Prop29
280
     1
102
RTVSPost2010PropOp29
 70
     1
102
RTVSPost2010Prop30
280
     1
102
RTVSPost2010PropOp30
 70
     1
102
RTVSPost2010Prop31
280
     0
102
RTVSPost2010PropOp31
 70
     1
102
RTVSPost2010Prop32
280
     0
102
RTVSPost2010PropOp32
 70
     1
102
RTVSPost2010Prop33
280
     0
102
RTVSPost2010PropOp33
 70
     1
102
RTVSPost2010Prop34
280
     0
102
RTVSPost2010PropOp34
 70
     1
102
RTVSPost2010Prop35
280
     0
102
RTVSPost2010PropOp35
 70
     1
102
RTVSPost2010Prop36
280
     0
102
RTVSPost2010PropOp36
 70
     1
102
RTVSPost2010Prop37
 90
       50
102
RTVSPost2010PropOp37
 70
     1
102
RTVSPost2010Prop38
140
0.0
102
RTVSPost2010PropOp38
 70
     1
102
RTVSPost2010Prop39
140
1.0
102
RTVSPost2010PropOp39
 70
     1
102
RTVSPost2010Prop40
 90
        0
102
RTVSPost2010PropOp40
 70
     1
102
RTVSPost2010Prop41ColorIndex
 90
       18
102
RTVSPost2010Prop41ColorRGB
 90
        0
102
RTVSPost2010PropOp41
 70
     1
102
RTVSPost2010Prop42
 90
       50
102
RTVSPost2010PropOp42
 70
     1
102
RTVSPost2010Prop43
 90
        3
102
RTVSPost2010PropOp43
 70
     1
102
RTVSPost2010Prop44ColorIndex
 90
        5
102
RTVSPost2010Prop44ColorRGB
 90
      255
102
RTVSPost2010PropOp44
 70
     1
102
RTVSPost2010Prop45
280
     0
102
RTVSPost2010PropOp45
 70
     1
102
RTVSPost2010Prop46
 90
       50
102
RTVSPost2010PropOp46
 70
     1
102
RTVSPost2010Prop47
 90
       50
102
RTVSPost2010PropOp47
 70
     1
102
RTVSPost2010Prop48
 90
       50
102
RTVSPost2010PropOp48
 70
     1
102
RTVSPost2010Prop49
280
     0
102
RTVSPost2010PropOp49
 70
     1
102
RTVSPost2010Prop50
 90
       50
102
RTVSPost2010PropOp50
 70
     1
102
RTVSPost2010Prop51ColorIndex
 90
      256
102
RTVSPost2010Prop51ColorRGB
 90
-16777216
102
RTVSPost2010PropOp51
 70
     0
102
RTVSPost2010Prop52
140
1.0
102
RTVSPost2010PropOp52
 70
     0
102
RTVSPost2010Prop53
 90
        2
102
RTVSPost2010PropOp53
 70
     1
102
RTVSPost2010Prop54
  1
strokes_ogs.tif
102
RTVSPost2010PropOp54
 70
     1
102
RTVSPost2010Prop55
280
     0
102
RTVSPost2010PropOp55
 70
     1
102
RTVSPost2010Prop56
140
1.0
102
RTVSPost2010PropOp56
 70
     1
102
RTVSPost2010Prop57
140
1.0
102
RTVSPost2010PropOp57
 70
     1
  0
XRECORD
  5
256
102
{ACAD_REACTORS
330
255
102
}
330
255
100
AcDbXrecord
280
     1
102
RTVSPropertyOp0
 70
     1
102
RTVSPropertyOp1
 70
     1
102
RTVSPropertyOp2
 70
     1
102
RTVSPropertyOp3
 70
     1
102
RTVSPropertyOp4
 70
     1
102
RTVSPropertyOp5
 70
     1
102
RTVSPropertyOp6
 70
     1
102
RTVSPropertyOp7
 70
     1
102
RTVSPropertyOp8
 70
     1
102
RTVSPropertyOp9
 70
     1
102
RTVSPropertyOp10
 70
     1
102
RTVSPropertyOp11
 70
     1
102
RTVSPropertyOp12
 70
     1
102
RTVSPropertyOp13
 70
     1
102
RTVSPropertyOp14
 70
     1
102
RTVSPropertyOp15
 70
     1
102
RTVSPropertyOp16
 70
     1
102
RTVSPropertyOp17
 70
     1
102
RTVSPropertyOp18
 70
     1
102
RTVSPropertyOp19
 70
     1
102
RTVSPropertyOp20
 70
     1
102
RTVSPropertyOp21
 70
     1
102
RTVSPropertyOp22
 70
     1
102
RTVSPropertyOp23
 70
     1
102
RTVSPropertyOp24
 70
     1
102
RTVSPropertyOp25
 70
     1
102
RTVSPropertyOp26
 70
     1
102
RTVSPropertyOp27
 70
     1
102
RTVSPropertyOp28
 70
     1
102
RTVSPropertyOp29
 70
     1
102
RTVSPropertyOp30
 70
     1
102
RTVSPropertyOp31
 70
     1
102
RTVSPropertyOp32
 70
     1
102
RTVSPropertyOp33
 70
     1
102
RTVSPropertyOp34
 70
     1
102
RTVSPropertyOp35
 70
     1
102
RTVSPropertyOp36
 70
     1
102
RTVSPropertyOp37
 70
     1
102
RTVSPropertyOp38
 70
     1
102
RTVSPropertyOp39
 70
     1
102
RTVSPropertyOp40
 70
     1
102
RTVSPropertyOp41
 70
     1
102
RTVSPropertyOp42
 70
     1
102
RTVSPropertyOp43
 70
     1
102
RTVSPropertyOp44
 70
     1
102
RTVSPropertyOp45
 70
     1
102
RTVSPropertyOp46
 70
     1
102
RTVSPropertyOp47
 70
     1
102
RTVSPropertyOp48
 70
     1
102
RTVSPropertyOp49
 70
     1
102
RTVSPropertyOp50
 70
     1
102
RTVSPropertyOp51
 70
     0
102
RTVSPropertyOp52
 70
     0
102
RTVSPropertyOp53
 70
     1
102
RTVSPropertyOp54
 70
     1
102
RTVSPropertyOp55
 70
     1
102
RTVSPropertyOp56
 70
     1
102
RTVSPropertyOp57
 70
     1
102
RTVSPost2010Prop28
280
     0
102
RTVSPost2010PropOp28
 70
     1
102
RTVSPost2010Prop29
280
     1
102
RTVSPost2010PropOp29
 70
     1
102
RTVSPost2010Prop30
280
     1
102
RTVSPost2010PropOp30
 70
     1
102
RTVSPost2010Prop31
280
     0
102
RTVSPost2010PropOp31
 70
     1
102
RTVSPost2010Prop32
280
     0
102
RTVSPost2010PropOp32
 70
     1
102
RTVSPost2010Prop33
280
     0
102
RTVSPost2010PropOp33
 70
     1
102
RTVSPost2010Prop34
280
     0
102
RTVSPost2010PropOp34
 70
     1
102
RTVSPost2010Prop35
280
     0
102
RTVSPost2010PropOp35
 70
     1
102
RTVSPost2010Prop36
280
     0
102
RTVSPost2010PropOp36
 70
     1
102
RTVSPost2010Prop37
 90
       50
102
RTVSPost2010PropOp37
 70
     1
102
RTVSPost2010Prop38
140
0.0
102
RTVSPost2010PropOp38
 70
     1
102
RTVSPost2010Prop39
140
1.0
102
RTVSPost2010PropOp39
 70
     1
102
RTVSPost2010Prop40
 90
        0
102
RTVSPost2010PropOp40
 70
     1
102
RTVSPost2010Prop41ColorIndex
 90
       18
102
RTVSPost2010Prop41ColorRGB
 90
        0
102
RTVSPost2010PropOp41
 70
     1
102
RTVSPost2010Prop42
 90
       50
102
RTVSPost2010PropOp42
 70
     1
102
RTVSPost2010Prop43
 90
        3
102
RTVSPost2010PropOp43
 70
     1
102
RTVSPost2010Prop44ColorIndex
 90
        5
102
RTVSPost2010Prop44ColorRGB
 90
      255
102
RTVSPost2010PropOp44
 70
     1
102
RTVSPost2010Prop45
280
     0
102
RTVSPost2010PropOp45
 70
     1
102
RTVSPost2010Prop46
 90
       50
102
RTVSPost2010PropOp46
 70
     1
102
RTVSPost2010Prop47
 90
       50
102
RTVSPost2010PropOp47
 70
     1
102
RTVSPost2010Prop48
 90
       50
102
RTVSPost2010PropOp48
 70
     1
102
RTVSPost2010Prop49
280
     0
102
RTVSPost2010PropOp49
 70
     1
102
RTVSPost2010Prop50
 90
       50
102
RTVSPost2010PropOp50
 70
     1
102
RTVSPost2010Prop51ColorIndex
 90
      256
102
RTVSPost2010Prop51ColorRGB
 90
-16777216
102
RTVSPost2010PropOp51
 70
     0
102
RTVSPost2010Prop52
140
1.0
102
RTVSPost2010PropOp52
 70
     0
102
RTVSPost2010Prop53
 90
        2
102
RTVSPost2010PropOp53
 70
     1
102
RTVSPost2010Prop54
  1
strokes_ogs.tif
102
RTVSPost2010PropOp54
 70
     1
102
RTVSPost2010Prop55
280
     0
102
RTVSPost2010PropOp55
 70
     1
102
RTVSPost2010Prop56
140
1.0
102
RTVSPost2010PropOp56
 70
     1
102
RTVSPost2010Prop57
140
1.0
102
RTVSPost2010PropOp57
 70
     1
  0
XRECORD
  5
26A
102
{ACAD_REACTORS
330
269
102
}
330
269
100
AcDbXrecord
280
     1
102
RTVSPropertyOp0
 70
     0
102
RTVSPropertyOp1
 70
     0
102
RTVSPropertyOp2
 70
     0
102
RTVSPropertyOp3
 70
     0
102
RTVSPropertyOp4
 70
     0
102
RTVSPropertyOp5
 70
     0
102
RTVSPropertyOp6
 70
     0
102
RTVSPropertyOp7
 70
     0
102
RTVSPropertyOp8
 70
     0
102
RTVSPropertyOp9
 70
     0
102
RTVSPropertyOp10
 70
     0
102
RTVSPropertyOp11
 70
     0
102
RTVSPropertyOp12
 70
     0
102
RTVSPropertyOp13
 70
     0
102
RTVSPropertyOp14
 70
     2
102
RTVSPropertyOp15
 70
     0
102
RTVSPropertyOp16
 70
     0
102
RTVSPropertyOp17
 70
     0
102
RTVSPropertyOp18
 70
     0
102
RTVSPropertyOp19
 70
     0
102
RTVSPropertyOp20
 70
     0
102
RTVSPropertyOp21
 70
     0
102
RTVSPropertyOp22
 70
     0
102
RTVSPropertyOp23
 70
     0
102
RTVSPropertyOp24
 70
     0
102
RTVSPropertyOp25
 70
     0
102
RTVSPropertyOp26
 70
     0
102
RTVSPropertyOp27
 70
     0
102
RTVSPropertyOp28
 70
     0
102
RTVSPropertyOp29
 70
     0
102
RTVSPropertyOp30
 70
     0
102
RTVSPropertyOp31
 70
     0
102
RTVSPropertyOp32
 70
     0
102
RTVSPropertyOp33
 70
     0
102
RTVSPropertyOp34
 70
     0
102
RTVSPropertyOp35
 70
     0
102
RTVSPropertyOp36
 70
     0
102
RTVSPropertyOp37
 70
     0
102
RTVSPropertyOp38
 70
     0
102
RTVSPropertyOp39
 70
     0
102
RTVSPropertyOp40
 70
     0
102
RTVSPropertyOp41
 70
     0
102
RTVSPropertyOp42
 70
     0
102
RTVSPropertyOp43
 70
     0
102
RTVSPropertyOp44
 70
     0
102
RTVSPropertyOp45
 70
     0
102
RTVSPropertyOp46
 70
     0
102
RTVSPropertyOp47
 70
     0
102
RTVSPropertyOp48
 70
     0
102
RTVSPropertyOp49
 70
     0
102
RTVSPropertyOp50
 70
     0
102
RTVSPropertyOp51
 70
     0
102
RTVSPropertyOp52
 70
     0
102
RTVSPropertyOp53
 70
     0
102
RTVSPropertyOp54
 70
     0
102
RTVSPropertyOp55
 70
     0
102
RTVSPropertyOp56
 70
     0
102
RTVSPropertyOp57
 70
     0
102
RTVSPost2010Prop28
280
     0
102
RTVSPost2010PropOp28
 70
     0
102
RTVSPost2010Prop29
280
     1
102
RTVSPost2010PropOp29
 70
     0
102
RTVSPost2010Prop30
280
     1
102
RTVSPost2010PropOp30
 70
     0
102
RTVSPost2010Prop31
280
     0
102
RTVSPost2010PropOp31
 70
     0
102
RTVSPost2010Prop32
280
     0
102
RTVSPost2010PropOp32
 70
     0
102
RTVSPost2010Prop33
280
     0
102
RTVSPost2010PropOp33
 70
     0
102
RTVSPost2010Prop34
280
     0
102
RTVSPost2010PropOp34
 70
     0
102
RTVSPost2010Prop35
280
     0
102
RTVSPost2010PropOp35
 70
     0
102
RTVSPost2010Prop36
280
     0
102
RTVSPost2010PropOp36
 70
     0
102
RTVSPost2010Prop37
 90
       50
102
RTVSPost2010PropOp37
 70
     0
102
RTVSPost2010Prop38
140
0.0
102
RTVSPost2010PropOp38
 70
     0
102
RTVSPost2010Prop39
140
1.0
102
RTVSPost2010PropOp39
 70
     0
102
RTVSPost2010Prop40
 90
        0
102
RTVSPost2010PropOp40
 70
     0
102
RTVSPost2010Prop41ColorIndex
 90
       18
102
RTVSPost2010Prop41ColorRGB
 90
        0
102
RTVSPost2010PropOp41
 70
     0
102
RTVSPost2010Prop42
 90
       50
102
RTVSPost2010PropOp42
 70
     0
102
RTVSPost2010Prop43
 90
        3
102
RTVSPost2010PropOp43
 70
     0
102
RTVSPost2010Prop44ColorIndex
 90
        5
102
RTVSPost2010Prop44ColorRGB
 90
      255
102
RTVSPost2010PropOp44
 70
     0
102
RTVSPost2010Prop45
280
     0
102
RTVSPost2010PropOp45
 70
     0
102
RTVSPost2010Prop46
 90
       50
102
RTVSPost2010PropOp46
 70
     0
102
RTVSPost2010Prop47
 90
       50
102
RTVSPost2010PropOp47
 70
     0
102
RTVSPost2010Prop48
 90
       50
102
RTVSPost2010PropOp48
 70
     0
102
RTVSPost2010Prop49
280
     0
102
RTVSPost2010PropOp49
 70
     0
102
RTVSPost2010Prop50
 90
       50
102
RTVSPost2010PropOp50
 70
     0
102
RTVSPost2010Prop51ColorIndex
 90
      256
102
RTVSPost2010Prop51ColorRGB
 90
-16777216
102
RTVSPost2010PropOp51
 70
     0
102
RTVSPost2010Prop52
140
1.0
102
RTVSPost2010PropOp52
 70
     0
102
RTVSPost2010Prop53
 90
        2
102
RTVSPost2010PropOp53
 70
     0
102
RTVSPost2010Prop54
  1
strokes_ogs.tif
102
RTVSPost2010PropOp54
 70
     0
102
RTVSPost2010Prop55
280
     0
102
RTVSPost2010PropOp55
 70
     0
102
RTVSPost2010Prop56
140
1.0
102
RTVSPost2010PropOp56
 70
     0
102
RTVSPost2010Prop57
140
1.0
102
RTVSPost2010PropOp57
 70
     0
  0
XRECORD
  5
264
102
{ACAD_REACTORS
330
263
102
}
330
263
100
AcDbXrecord
280
     1
102
RTVSPropertyOp0
 70
     1
102
RTVSPropertyOp1
 70
     1
102
RTVSPropertyOp2
 70
     1
102
RTVSPropertyOp3
 70
     1
102
RTVSPropertyOp4
 70
     1
102
RTVSPropertyOp5
 70
     1
102
RTVSPropertyOp6
 70
     1
102
RTVSPropertyOp7
 70
     1
102
RTVSPropertyOp8
 70
     1
102
RTVSPropertyOp9
 70
     1
102
RTVSPropertyOp10
 70
     1
102
RTVSPropertyOp11
 70
     1
102
RTVSPropertyOp12
 70
     1
102
RTVSPropertyOp13
 70
     1
102
RTVSPropertyOp14
 70
     1
102
RTVSPropertyOp15
 70
     1
102
RTVSPropertyOp16
 70
     1
102
RTVSPropertyOp17
 70
     1
102
RTVSPropertyOp18
 70
     1
102
RTVSPropertyOp19
 70
     1
102
RTVSPropertyOp20
 70
     1
102
RTVSPropertyOp21
 70
     1
102
RTVSPropertyOp22
 70
     1
102
RTVSPropertyOp23
 70
     1
102
RTVSPropertyOp24
 70
     1
102
RTVSPropertyOp25
 70
     1
102
RTVSPropertyOp26
 70
     1
102
RTVSPropertyOp27
 70
     1
102
RTVSPropertyOp28
 70
     1
102
RTVSPropertyOp29
 70
     1
102
RTVSPropertyOp30
 70
     1
102
RTVSPropertyOp31
 70
     1
102
RTVSPropertyOp32
 70
     1
102
RTVSPropertyOp33
 70
     1
102
RTVSPropertyOp34
 70
     1
102
RTVSPropertyOp35
 70
     1
102
RTVSPropertyOp36
 70
     1
102
RTVSPropertyOp37
 70
     1
102
RTVSPropertyOp38
 70
     1
102
RTVSPropertyOp39
 70
     1
102
RTVSPropertyOp40
 70
     1
102
RTVSPropertyOp41
 70
     1
102
RTVSPropertyOp42
 70
     1
102
RTVSPropertyOp43
 70
     1
102
RTVSPropertyOp44
 70
     1
102
RTVSPropertyOp45
 70
     1
102
RTVSPropertyOp46
 70
     1
102
RTVSPropertyOp47
 70
     1
102
RTVSPropertyOp48
 70
     1
102
RTVSPropertyOp49
 70
     1
102
RTVSPropertyOp50
 70
     1
102
RTVSPropertyOp51
 70
     0
102
RTVSPropertyOp52
 70
     0
102
RTVSPropertyOp53
 70
     1
102
RTVSPropertyOp54
 70
     1
102
RTVSPropertyOp55
 70
     1
102
RTVSPropertyOp56
 70
     1
102
RTVSPropertyOp57
 70
     1
102
RTVSPost2010Prop28
280
     0
102
RTVSPost2010PropOp28
 70
     1
102
RTVSPost2010Prop29
280
     1
102
RTVSPost2010PropOp29
 70
     1
102
RTVSPost2010Prop30
280
     1
102
RTVSPost2010PropOp30
 70
     1
102
RTVSPost2010Prop31
280
     0
102
RTVSPost2010PropOp31
 70
     1
102
RTVSPost2010Prop32
280
     0
102
RTVSPost2010PropOp32
 70
     1
102
RTVSPost2010Prop33
280
     0
102
RTVSPost2010PropOp33
 70
     1
102
RTVSPost2010Prop34
280
     0
102
RTVSPost2010PropOp34
 70
     1
102
RTVSPost2010Prop35
280
     0
102
RTVSPost2010PropOp35
 70
     1
102
RTVSPost2010Prop36
280
     0
102
RTVSPost2010PropOp36
 70
     1
102
RTVSPost2010Prop37
 90
       50
102
RTVSPost2010PropOp37
 70
     1
102
RTVSPost2010Prop38
140
0.0
102
RTVSPost2010PropOp38
 70
     1
102
RTVSPost2010Prop39
140
1.0
102
RTVSPost2010PropOp39
 70
     1
102
RTVSPost2010Prop40
 90
        0
102
RTVSPost2010PropOp40
 70
     1
102
RTVSPost2010Prop41ColorIndex
 90
       18
102
RTVSPost2010Prop41ColorRGB
 90
        0
102
RTVSPost2010PropOp41
 70
     1
102
RTVSPost2010Prop42
 90
       50
102
RTVSPost2010PropOp42
 70
     1
102
RTVSPost2010Prop43
 90
        3
102
RTVSPost2010PropOp43
 70
     1
102
RTVSPost2010Prop44ColorIndex
 90
        5
102
RTVSPost2010Prop44ColorRGB
 90
      255
102
RTVSPost2010PropOp44
 70
     1
102
RTVSPost2010Prop45
280
     0
102
RTVSPost2010PropOp45
 70
     1
102
RTVSPost2010Prop46
 90
       50
102
RTVSPost2010PropOp46
 70
     1
102
RTVSPost2010Prop47
 90
       50
102
RTVSPost2010PropOp47
 70
     1
102
RTVSPost2010Prop48
 90
       50
102
RTVSPost2010PropOp48
 70
     1
102
RTVSPost2010Prop49
280
     0
102
RTVSPost2010PropOp49
 70
     1
102
RTVSPost2010Prop50
 90
       50
102
RTVSPost2010PropOp50
 70
     1
102
RTVSPost2010Prop51ColorIndex
 90
      256
102
RTVSPost2010Prop51ColorRGB
 90
-16777216
102
RTVSPost2010PropOp51
 70
     0
102
RTVSPost2010Prop52
140
1.0
102
RTVSPost2010PropOp52
 70
     0
102
RTVSPost2010Prop53
 90
        2
102
RTVSPost2010PropOp53
 70
     1
102
RTVSPost2010Prop54
  1
strokes_ogs.tif
102
RTVSPost2010PropOp54
 70
     1
102
RTVSPost2010Prop55
280
     0
102
RTVSPost2010PropOp55
 70
     1
102
RTVSPost2010Prop56
140
1.0
102
RTVSPost2010PropOp56
 70
     1
102
RTVSPost2010Prop57
140
1.0
102
RTVSPost2010PropOp57
 70
     1
  0
XRECORD
  5
26C
102
{ACAD_REACTORS
330
26B
102
}
330
26B
100
AcDbXrecord
280
     1
102
RTVSPropertyOp0
 70
     0
102
RTVSPropertyOp1
 70
     0
102
RTVSPropertyOp2
 70
     0
102
RTVSPropertyOp3
 70
     0
102
RTVSPropertyOp4
 70
     0
102
RTVSPropertyOp5
 70
     0
102
RTVSPropertyOp6
 70
     0
102
RTVSPropertyOp7
 70
     0
102
RTVSPropertyOp8
 70
     0
102
RTVSPropertyOp9
 70
     0
102
RTVSPropertyOp10
 70
     0
102
RTVSPropertyOp11
 70
     0
102
RTVSPropertyOp12
 70
     0
102
RTVSPropertyOp13
 70
     0
102
RTVSPropertyOp14
 70
     2
102
RTVSPropertyOp15
 70
     0
102
RTVSPropertyOp16
 70
     0
102
RTVSPropertyOp17
 70
     0
102
RTVSPropertyOp18
 70
     0
102
RTVSPropertyOp19
 70
     0
102
RTVSPropertyOp20
 70
     0
102
RTVSPropertyOp21
 70
     0
102
RTVSPropertyOp22
 70
     0
102
RTVSPropertyOp23
 70
     0
102
RTVSPropertyOp24
 70
     0
102
RTVSPropertyOp25
 70
     0
102
RTVSPropertyOp26
 70
     0
102
RTVSPropertyOp27
 70
     0
102
RTVSPropertyOp28
 70
     0
102
RTVSPropertyOp29
 70
     0
102
RTVSPropertyOp30
 70
     0
102
RTVSPropertyOp31
 70
     0
102
RTVSPropertyOp32
 70
     0
102
RTVSPropertyOp33
 70
     0
102
RTVSPropertyOp34
 70
     0
102
RTVSPropertyOp35
 70
     0
102
RTVSPropertyOp36
 70
     0
102
RTVSPropertyOp37
 70
     0
102
RTVSPropertyOp38
 70
     0
102
RTVSPropertyOp39
 70
     0
102
RTVSPropertyOp40
 70
     0
102
RTVSPropertyOp41
 70
     0
102
RTVSPropertyOp42
 70
     0
102
RTVSPropertyOp43
 70
     0
102
RTVSPropertyOp44
 70
     0
102
RTVSPropertyOp45
 70
     0
102
RTVSPropertyOp46
 70
     0
102
RTVSPropertyOp47
 70
     0
102
RTVSPropertyOp48
 70
     0
102
RTVSPropertyOp49
 70
     0
102
RTVSPropertyOp50
 70
     0
102
RTVSPropertyOp51
 70
     0
102
RTVSPropertyOp52
 70
     0
102
RTVSPropertyOp53
 70
     0
102
RTVSPropertyOp54
 70
     0
102
RTVSPropertyOp55
 70
     0
102
RTVSPropertyOp56
 70
     0
102
RTVSPropertyOp57
 70
     0
102
RTVSPost2010Prop28
280
     0
102
RTVSPost2010PropOp28
 70
     0
102
RTVSPost2010Prop29
280
     1
102
RTVSPost2010PropOp29
 70
     0
102
RTVSPost2010Prop30
280
     1
102
RTVSPost2010PropOp30
 70
     0
102
RTVSPost2010Prop31
280
     0
102
RTVSPost2010PropOp31
 70
     0
102
RTVSPost2010Prop32
280
     0
102
RTVSPost2010PropOp32
 70
     0
102
RTVSPost2010Prop33
280
     0
102
RTVSPost2010PropOp33
 70
     0
102
RTVSPost2010Prop34
280
     0
102
RTVSPost2010PropOp34
 70
     0
102
RTVSPost2010Prop35
280
     0
102
RTVSPost2010PropOp35
 70
     0
102
RTVSPost2010Prop36
280
     0
102
RTVSPost2010PropOp36
 70
     0
102
RTVSPost2010Prop37
 90
       50
102
RTVSPost2010PropOp37
 70
     0
102
RTVSPost2010Prop38
140
0.0
102
RTVSPost2010PropOp38
 70
     0
102
RTVSPost2010Prop39
140
1.0
102
RTVSPost2010PropOp39
 70
     0
102
RTVSPost2010Prop40
 90
        0
102
RTVSPost2010PropOp40
 70
     0
102
RTVSPost2010Prop41ColorIndex
 90
       18
102
RTVSPost2010Prop41ColorRGB
 90
        0
102
RTVSPost2010PropOp41
 70
     0
102
RTVSPost2010Prop42
 90
       50
102
RTVSPost2010PropOp42
 70
     0
102
RTVSPost2010Prop43
 90
        3
102
RTVSPost2010PropOp43
 70
     0
102
RTVSPost2010Prop44ColorIndex
 90
        5
102
RTVSPost2010Prop44ColorRGB
 90
      255
102
RTVSPost2010PropOp44
 70
     0
102
RTVSPost2010Prop45
280
     0
102
RTVSPost2010PropOp45
 70
     0
102
RTVSPost2010Prop46
 90
       50
102
RTVSPost2010PropOp46
 70
     0
102
RTVSPost2010Prop47
 90
       50
102
RTVSPost2010PropOp47
 70
     0
102
RTVSPost2010Prop48
 90
       50
102
RTVSPost2010PropOp48
 70
     0
102
RTVSPost2010Prop49
280
     0
102
RTVSPost2010PropOp49
 70
     0
102
RTVSPost2010Prop50
 90
       50
102
RTVSPost2010PropOp50
 70
     0
102
RTVSPost2010Prop51ColorIndex
 90
      256
102
RTVSPost2010Prop51ColorRGB
 90
-16777216
102
RTVSPost2010PropOp51
 70
     0
102
RTVSPost2010Prop52
140
1.0
102
RTVSPost2010PropOp52
 70
     0
102
RTVSPost2010Prop53
 90
        2
102
RTVSPost2010PropOp53
 70
     0
102
RTVSPost2010Prop54
  1
strokes_ogs.tif
102
RTVSPost2010PropOp54
 70
     0
102
RTVSPost2010Prop55
280
     0
102
RTVSPost2010PropOp55
 70
     0
102
RTVSPost2010Prop56
140
1.0
102
RTVSPost2010PropOp56
 70
     0
102
RTVSPost2010Prop57
140
1.0
102
RTVSPost2010PropOp57
 70
     0
  0
XRECORD
  5
25A
102
{ACAD_REACTORS
330
259
102
}
330
259
100
AcDbXrecord
280
     1
102
RTVSPropertyOp0
 70
     1
102
RTVSPropertyOp1
 70
     1
102
RTVSPropertyOp2
 70
     1
102
RTVSPropertyOp3
 70
     1
102
RTVSPropertyOp4
 70
     1
102
RTVSPropertyOp5
 70
     1
102
RTVSPropertyOp6
 70
     1
102
RTVSPropertyOp7
 70
     1
102
RTVSPropertyOp8
 70
     1
102
RTVSPropertyOp9
 70
     1
102
RTVSPropertyOp10
 70
     1
102
RTVSPropertyOp11
 70
     1
102
RTVSPropertyOp12
 70
     1
102
RTVSPropertyOp13
 70
     1
102
RTVSPropertyOp14
 70
     1
102
RTVSPropertyOp15
 70
     1
102
RTVSPropertyOp16
 70
     1
102
RTVSPropertyOp17
 70
     1
102
RTVSPropertyOp18
 70
     1
102
RTVSPropertyOp19
 70
     1
102
RTVSPropertyOp20
 70
     1
102
RTVSPropertyOp21
 70
     1
102
RTVSPropertyOp22
 70
     1
102
RTVSPropertyOp23
 70
     1
102
RTVSPropertyOp24
 70
     1
102
RTVSPropertyOp25
 70
     1
102
RTVSPropertyOp26
 70
     1
102
RTVSPropertyOp27
 70
     1
102
RTVSPropertyOp28
 70
     1
102
RTVSPropertyOp29
 70
     1
102
RTVSPropertyOp30
 70
     1
102
RTVSPropertyOp31
 70
     1
102
RTVSPropertyOp32
 70
     1
102
RTVSPropertyOp33
 70
     1
102
RTVSPropertyOp34
 70
     1
102
RTVSPropertyOp35
 70
     1
102
RTVSPropertyOp36
 70
     1
102
RTVSPropertyOp37
 70
     1
102
RTVSPropertyOp38
 70
     1
102
RTVSPropertyOp39
 70
     1
102
RTVSPropertyOp40
 70
     1
102
RTVSPropertyOp41
 70
     1
102
RTVSPropertyOp42
 70
     1
102
RTVSPropertyOp43
 70
     1
102
RTVSPropertyOp44
 70
     1
102
RTVSPropertyOp45
 70
     1
102
RTVSPropertyOp46
 70
     1
102
RTVSPropertyOp47
 70
     1
102
RTVSPropertyOp48
 70
     1
102
RTVSPropertyOp49
 70
     1
102
RTVSPropertyOp50
 70
     1
102
RTVSPropertyOp51
 70
     0
102
RTVSPropertyOp52
 70
     0
102
RTVSPropertyOp53
 70
     1
102
RTVSPropertyOp54
 70
     1
102
RTVSPropertyOp55
 70
     1
102
RTVSPropertyOp56
 70
     1
102
RTVSPropertyOp57
 70
     1
102
RTVSPost2010Prop28
280
     0
102
RTVSPost2010PropOp28
 70
     1
102
RTVSPost2010Prop29
280
     1
102
RTVSPost2010PropOp29
 70
     1
102
RTVSPost2010Prop30
280
     1
102
RTVSPost2010PropOp30
 70
     1
102
RTVSPost2010Prop31
280
     0
102
RTVSPost2010PropOp31
 70
     1
102
RTVSPost2010Prop32
280
     0
102
RTVSPost2010PropOp32
 70
     1
102
RTVSPost2010Prop33
280
     0
102
RTVSPost2010PropOp33
 70
     1
102
RTVSPost2010Prop34
280
     0
102
RTVSPost2010PropOp34
 70
     1
102
RTVSPost2010Prop35
280
     0
102
RTVSPost2010PropOp35
 70
     1
102
RTVSPost2010Prop36
280
     0
102
RTVSPost2010PropOp36
 70
     1
102
RTVSPost2010Prop37
 90
       50
102
RTVSPost2010PropOp37
 70
     1
102
RTVSPost2010Prop38
140
0.0
102
RTVSPost2010PropOp38
 70
     1
102
RTVSPost2010Prop39
140
1.0
102
RTVSPost2010PropOp39
 70
     1
102
RTVSPost2010Prop40
 90
        0
102
RTVSPost2010PropOp40
 70
     1
102
RTVSPost2010Prop41ColorIndex
 90
       18
102
RTVSPost2010Prop41ColorRGB
 90
        0
102
RTVSPost2010PropOp41
 70
     1
102
RTVSPost2010Prop42
 90
       50
102
RTVSPost2010PropOp42
 70
     1
102
RTVSPost2010Prop43
 90
        3
102
RTVSPost2010PropOp43
 70
     1
102
RTVSPost2010Prop44ColorIndex
 90
        5
102
RTVSPost2010Prop44ColorRGB
 90
      255
102
RTVSPost2010PropOp44
 70
     1
102
RTVSPost2010Prop45
280
     0
102
RTVSPost2010PropOp45
 70
     1
102
RTVSPost2010Prop46
 90
       50
102
RTVSPost2010PropOp46
 70
     1
102
RTVSPost2010Prop47
 90
       50
102
RTVSPost2010PropOp47
 70
     1
102
RTVSPost2010Prop48
 90
       50
102
RTVSPost2010PropOp48
 70
     1
102
RTVSPost2010Prop49
280
     0
102
RTVSPost2010PropOp49
 70
     1
102
RTVSPost2010Prop50
 90
       50
102
RTVSPost2010PropOp50
 70
     1
102
RTVSPost2010Prop51ColorIndex
 90
      256
102
RTVSPost2010Prop51ColorRGB
 90
-16777216
102
RTVSPost2010PropOp51
 70
     0
102
RTVSPost2010Prop52
140
1.0
102
RTVSPost2010PropOp52
 70
     0
102
RTVSPost2010Prop53
 90
        2
102
RTVSPost2010PropOp53
 70
     1
102
RTVSPost2010Prop54
  1
strokes_ogs.tif
102
RTVSPost2010PropOp54
 70
     1
102
RTVSPost2010Prop55
280
     0
102
RTVSPost2010PropOp55
 70
     1
102
RTVSPost2010Prop56
140
1.0
102
RTVSPost2010PropOp56
 70
     1
102
RTVSPost2010Prop57
140
1.0
102
RTVSPost2010PropOp57
 70
     1
  0
XRECORD
  5
278
102
{ACAD_REACTORS
330
277
102
}
330
277
100
AcDbXrecord
280
     1
102
RTVSPropertyOp0
 70
     1
102
RTVSPropertyOp1
 70
     1
102
RTVSPropertyOp2
 70
     1
102
RTVSPropertyOp3
 70
     1
102
RTVSPropertyOp4
 70
     1
102
RTVSPropertyOp5
 70
     1
102
RTVSPropertyOp6
 70
     1
102
RTVSPropertyOp7
 70
     1
102
RTVSPropertyOp8
 70
     1
102
RTVSPropertyOp9
 70
     1
102
RTVSPropertyOp10
 70
     1
102
RTVSPropertyOp11
 70
     1
102
RTVSPropertyOp12
 70
     1
102
RTVSPropertyOp13
 70
     1
102
RTVSPropertyOp14
 70
     1
102
RTVSPropertyOp15
 70
     1
102
RTVSPropertyOp16
 70
     1
102
RTVSPropertyOp17
 70
     1
102
RTVSPropertyOp18
 70
     1
102
RTVSPropertyOp19
 70
     1
102
RTVSPropertyOp20
 70
     1
102
RTVSPropertyOp21
 70
     1
102
RTVSPropertyOp22
 70
     1
102
RTVSPropertyOp23
 70
     1
102
RTVSPropertyOp24
 70
     1
102
RTVSPropertyOp25
 70
     1
102
RTVSPropertyOp26
 70
     1
102
RTVSPropertyOp27
 70
     1
102
RTVSPropertyOp28
 70
     1
102
RTVSPropertyOp29
 70
     1
102
RTVSPropertyOp30
 70
     1
102
RTVSPropertyOp31
 70
     1
102
RTVSPropertyOp32
 70
     1
102
RTVSPropertyOp33
 70
     1
102
RTVSPropertyOp34
 70
     1
102
RTVSPropertyOp35
 70
     1
102
RTVSPropertyOp36
 70
     1
102
RTVSPropertyOp37
 70
     1
102
RTVSPropertyOp38
 70
     1
102
RTVSPropertyOp39
 70
     1
102
RTVSPropertyOp40
 70
     1
102
RTVSPropertyOp41
 70
     1
102
RTVSPropertyOp42
 70
     1
102
RTVSPropertyOp43
 70
     1
102
RTVSPropertyOp44
 70
     1
102
RTVSPropertyOp45
 70
     1
102
RTVSPropertyOp46
 70
     1
102
RTVSPropertyOp47
 70
     1
102
RTVSPropertyOp48
 70
     1
102
RTVSPropertyOp49
 70
     1
102
RTVSPropertyOp50
 70
     1
102
RTVSPropertyOp51
 70
     0
102
RTVSPropertyOp52
 70
     0
102
RTVSPropertyOp53
 70
     1
102
RTVSPropertyOp54
 70
     1
102
RTVSPropertyOp55
 70
     1
102
RTVSPropertyOp56
 70
     1
102
RTVSPropertyOp57
 70
     1
102
RTVSPost2010Prop28
280
     0
102
RTVSPost2010PropOp28
 70
     1
102
RTVSPost2010Prop29
280
     1
102
RTVSPost2010PropOp29
 70
     1
102
RTVSPost2010Prop30
280
     1
102
RTVSPost2010PropOp30
 70
     1
102
RTVSPost2010Prop31
280
     0
102
RTVSPost2010PropOp31
 70
     1
102
RTVSPost2010Prop32
280
     0
102
RTVSPost2010PropOp32
 70
     1
102
RTVSPost2010Prop33
280
     0
102
RTVSPost2010PropOp33
 70
     1
102
RTVSPost2010Prop34
280
     0
102
RTVSPost2010PropOp34
 70
     1
102
RTVSPost2010Prop35
280
     0
102
RTVSPost2010PropOp35
 70
     1
102
RTVSPost2010Prop36
280
     0
102
RTVSPost2010PropOp36
 70
     1
102
RTVSPost2010Prop37
 90
       50
102
RTVSPost2010PropOp37
 70
     1
102
RTVSPost2010Prop38
140
0.0
102
RTVSPost2010PropOp38
 70
     1
102
RTVSPost2010Prop39
140
1.0
102
RTVSPost2010PropOp39
 70
     1
102
RTVSPost2010Prop40
 90
        0
102
RTVSPost2010PropOp40
 70
     1
102
RTVSPost2010Prop41ColorIndex
 90
       18
102
RTVSPost2010Prop41ColorRGB
 90
        0
102
RTVSPost2010PropOp41
 70
     1
102
RTVSPost2010Prop42
 90
       50
102
RTVSPost2010PropOp42
 70
     1
102
RTVSPost2010Prop43
 90
        3
102
RTVSPost2010PropOp43
 70
     1
102
RTVSPost2010Prop44ColorIndex
 90
        5
102
RTVSPost2010Prop44ColorRGB
 90
      255
102
RTVSPost2010PropOp44
 70
     1
102
RTVSPost2010Prop45
280
     0
102
RTVSPost2010PropOp45
 70
     1
102
RTVSPost2010Prop46
 90
       50
102
RTVSPost2010PropOp46
 70
     1
102
RTVSPost2010Prop47
 90
       50
102
RTVSPost2010PropOp47
 70
     1
102
RTVSPost2010Prop48
 90
       50
102
RTVSPost2010PropOp48
 70
     1
102
RTVSPost2010Prop49
280
     0
102
RTVSPost2010PropOp49
 70
     1
102
RTVSPost2010Prop50
 90
       50
102
RTVSPost2010PropOp50
 70
     1
102
RTVSPost2010Prop51ColorIndex
 90
      256
102
RTVSPost2010Prop51ColorRGB
 90
-16777216
102
RTVSPost2010PropOp51
 70
     0
102
RTVSPost2010Prop52
140
1.0
102
RTVSPost2010PropOp52
 70
     0
102
RTVSPost2010Prop53
 90
        2
102
RTVSPost2010PropOp53
 70
     1
102
RTVSPost2010Prop54
  1
strokes_ogs.tif
102
RTVSPost2010PropOp54
 70
     1
102
RTVSPost2010Prop55
280
     0
102
RTVSPost2010PropOp55
 70
     1
102
RTVSPost2010Prop56
140
1.0
102
RTVSPost2010PropOp56
 70
     1
102
RTVSPost2010Prop57
140
1.0
102
RTVSPost2010PropOp57
 70
     1
  0
XRECORD
  5
276
102
{ACAD_REACTORS
330
275
102
}
330
275
100
AcDbXrecord
280
     1
102
RTVSPropertyOp0
 70
     1
102
RTVSPropertyOp1
 70
     1
102
RTVSPropertyOp2
 70
     1
102
RTVSPropertyOp3
 70
     1
102
RTVSPropertyOp4
 70
     1
102
RTVSPropertyOp5
 70
     1
102
RTVSPropertyOp6
 70
     1
102
RTVSPropertyOp7
 70
     1
102
RTVSPropertyOp8
 70
     1
102
RTVSPropertyOp9
 70
     1
102
RTVSPropertyOp10
 70
     1
102
RTVSPropertyOp11
 70
     1
102
RTVSPropertyOp12
 70
     1
102
RTVSPropertyOp13
 70
     1
102
RTVSPropertyOp14
 70
     1
102
RTVSPropertyOp15
 70
     1
102
RTVSPropertyOp16
 70
     1
102
RTVSPropertyOp17
 70
     1
102
RTVSPropertyOp18
 70
     1
102
RTVSPropertyOp19
 70
     1
102
RTVSPropertyOp20
 70
     1
102
RTVSPropertyOp21
 70
     1
102
RTVSPropertyOp22
 70
     1
102
RTVSPropertyOp23
 70
     1
102
RTVSPropertyOp24
 70
     1
102
RTVSPropertyOp25
 70
     1
102
RTVSPropertyOp26
 70
     1
102
RTVSPropertyOp27
 70
     1
102
RTVSPropertyOp28
 70
     1
102
RTVSPropertyOp29
 70
     1
102
RTVSPropertyOp30
 70
     1
102
RTVSPropertyOp31
 70
     1
102
RTVSPropertyOp32
 70
     1
102
RTVSPropertyOp33
 70
     1
102
RTVSPropertyOp34
 70
     1
102
RTVSPropertyOp35
 70
     1
102
RTVSPropertyOp36
 70
     1
102
RTVSPropertyOp37
 70
     1
102
RTVSPropertyOp38
 70
     1
102
RTVSPropertyOp39
 70
     1
102
RTVSPropertyOp40
 70
     1
102
RTVSPropertyOp41
 70
     1
102
RTVSPropertyOp42
 70
     1
102
RTVSPropertyOp43
 70
     1
102
RTVSPropertyOp44
 70
     1
102
RTVSPropertyOp45
 70
     1
102
RTVSPropertyOp46
 70
     1
102
RTVSPropertyOp47
 70
     1
102
RTVSPropertyOp48
 70
     1
102
RTVSPropertyOp49
 70
     1
102
RTVSPropertyOp50
 70
     1
102
RTVSPropertyOp51
 70
     0
102
RTVSPropertyOp52
 70
     0
102
RTVSPropertyOp53
 70
     1
102
RTVSPropertyOp54
 70
     1
102
RTVSPropertyOp55
 70
     1
102
RTVSPropertyOp56
 70
     1
102
RTVSPropertyOp57
 70
     1
102
RTVSPost2010Prop28
280
     0
102
RTVSPost2010PropOp28
 70
     1
102
RTVSPost2010Prop29
280
     1
102
RTVSPost2010PropOp29
 70
     1
102
RTVSPost2010Prop30
280
     1
102
RTVSPost2010PropOp30
 70
     1
102
RTVSPost2010Prop31
280
     0
102
RTVSPost2010PropOp31
 70
     1
102
RTVSPost2010Prop32
280
     0
102
RTVSPost2010PropOp32
 70
     1
102
RTVSPost2010Prop33
280
     0
102
RTVSPost2010PropOp33
 70
     1
102
RTVSPost2010Prop34
280
     0
102
RTVSPost2010PropOp34
 70
     1
102
RTVSPost2010Prop35
280
     0
102
RTVSPost2010PropOp35
 70
     1
102
RTVSPost2010Prop36
280
     0
102
RTVSPost2010PropOp36
 70
     1
102
RTVSPost2010Prop37
 90
       50
102
RTVSPost2010PropOp37
 70
     1
102
RTVSPost2010Prop38
140
0.0
102
RTVSPost2010PropOp38
 70
     1
102
RTVSPost2010Prop39
140
1.0
102
RTVSPost2010PropOp39
 70
     1
102
RTVSPost2010Prop40
 90
        0
102
RTVSPost2010PropOp40
 70
     1
102
RTVSPost2010Prop41ColorIndex
 90
       18
102
RTVSPost2010Prop41ColorRGB
 90
        0
102
RTVSPost2010PropOp41
 70
     1
102
RTVSPost2010Prop42
 90
       50
102
RTVSPost2010PropOp42
 70
     1
102
RTVSPost2010Prop43
 90
        3
102
RTVSPost2010PropOp43
 70
     1
102
RTVSPost2010Prop44ColorIndex
 90
        5
102
RTVSPost2010Prop44ColorRGB
 90
      255
102
RTVSPost2010PropOp44
 70
     1
102
RTVSPost2010Prop45
280
     0
102
RTVSPost2010PropOp45
 70
     1
102
RTVSPost2010Prop46
 90
       50
102
RTVSPost2010PropOp46
 70
     1
102
RTVSPost2010Prop47
 90
       50
102
RTVSPost2010PropOp47
 70
     1
102
RTVSPost2010Prop48
 90
       50
102
RTVSPost2010PropOp48
 70
     1
102
RTVSPost2010Prop49
280
     0
102
RTVSPost2010PropOp49
 70
     1
102
RTVSPost2010Prop50
 90
       50
102
RTVSPost2010PropOp50
 70
     1
102
RTVSPost2010Prop51ColorIndex
 90
      256
102
RTVSPost2010Prop51ColorRGB
 90
-16777216
102
RTVSPost2010PropOp51
 70
     0
102
RTVSPost2010Prop52
140
1.0
102
RTVSPost2010PropOp52
 70
     0
102
RTVSPost2010Prop53
 90
        2
102
RTVSPost2010PropOp53
 70
     1
102
RTVSPost2010Prop54
  1
strokes_ogs.tif
102
RTVSPost2010PropOp54
 70
     1
102
RTVSPost2010Prop55
280
     0
102
RTVSPost2010PropOp55
 70
     1
102
RTVSPost2010Prop56
140
1.0
102
RTVSPost2010PropOp56
 70
     1
102
RTVSPost2010Prop57
140
1.0
102
RTVSPost2010PropOp57
 70
     1
  0
XRECORD
  5
270
102
{ACAD_REACTORS
330
26F
102
}
330
26F
100
AcDbXrecord
280
     1
102
RTVSPropertyOp0
 70
     1
102
RTVSPropertyOp1
 70
     1
102
RTVSPropertyOp2
 70
     1
102
RTVSPropertyOp3
 70
     1
102
RTVSPropertyOp4
 70
     1
102
RTVSPropertyOp5
 70
     1
102
RTVSPropertyOp6
 70
     1
102
RTVSPropertyOp7
 70
     1
102
RTVSPropertyOp8
 70
     1
102
RTVSPropertyOp9
 70
     1
102
RTVSPropertyOp10
 70
     1
102
RTVSPropertyOp11
 70
     1
102
RTVSPropertyOp12
 70
     1
102
RTVSPropertyOp13
 70
     1
102
RTVSPropertyOp14
 70
     1
102
RTVSPropertyOp15
 70
     1
102
RTVSPropertyOp16
 70
     1
102
RTVSPropertyOp17
 70
     1
102
RTVSPropertyOp18
 70
     1
102
RTVSPropertyOp19
 70
     1
102
RTVSPropertyOp20
 70
     1
102
RTVSPropertyOp21
 70
     1
102
RTVSPropertyOp22
 70
     1
102
RTVSPropertyOp23
 70
     1
102
RTVSPropertyOp24
 70
     1
102
RTVSPropertyOp25
 70
     1
102
RTVSPropertyOp26
 70
     1
102
RTVSPropertyOp27
 70
     1
102
RTVSPropertyOp28
 70
     1
102
RTVSPropertyOp29
 70
     1
102
RTVSPropertyOp30
 70
     1
102
RTVSPropertyOp31
 70
     1
102
RTVSPropertyOp32
 70
     1
102
RTVSPropertyOp33
 70
     1
102
RTVSPropertyOp34
 70
     1
102
RTVSPropertyOp35
 70
     1
102
RTVSPropertyOp36
 70
     1
102
RTVSPropertyOp37
 70
     1
102
RTVSPropertyOp38
 70
     1
102
RTVSPropertyOp39
 70
     1
102
RTVSPropertyOp40
 70
     1
102
RTVSPropertyOp41
 70
     1
102
RTVSPropertyOp42
 70
     1
102
RTVSPropertyOp43
 70
     1
102
RTVSPropertyOp44
 70
     1
102
RTVSPropertyOp45
 70
     1
102
RTVSPropertyOp46
 70
     1
102
RTVSPropertyOp47
 70
     1
102
RTVSPropertyOp48
 70
     1
102
RTVSPropertyOp49
 70
     1
102
RTVSPropertyOp50
 70
     1
102
RTVSPropertyOp51
 70
     0
102
RTVSPropertyOp52
 70
     0
102
RTVSPropertyOp53
 70
     1
102
RTVSPropertyOp54
 70
     1
102
RTVSPropertyOp55
 70
     1
102
RTVSPropertyOp56
 70
     1
102
RTVSPropertyOp57
 70
     1
102
RTVSPost2010Prop28
280
     0
102
RTVSPost2010PropOp28
 70
     1
102
RTVSPost2010Prop29
280
     1
102
RTVSPost2010PropOp29
 70
     1
102
RTVSPost2010Prop30
280
     1
102
RTVSPost2010PropOp30
 70
     1
102
RTVSPost2010Prop31
280
     0
102
RTVSPost2010PropOp31
 70
     1
102
RTVSPost2010Prop32
280
     0
102
RTVSPost2010PropOp32
 70
     1
102
RTVSPost2010Prop33
280
     0
102
RTVSPost2010PropOp33
 70
     1
102
RTVSPost2010Prop34
280
     0
102
RTVSPost2010PropOp34
 70
     1
102
RTVSPost2010Prop35
280
     0
102
RTVSPost2010PropOp35
 70
     1
102
RTVSPost2010Prop36
280
     0
102
RTVSPost2010PropOp36
 70
     1
102
RTVSPost2010Prop37
 90
       50
102
RTVSPost2010PropOp37
 70
     1
102
RTVSPost2010Prop38
140
0.0
102
RTVSPost2010PropOp38
 70
     1
102
RTVSPost2010Prop39
140
1.0
102
RTVSPost2010PropOp39
 70
     1
102
RTVSPost2010Prop40
 90
        0
102
RTVSPost2010PropOp40
 70
     1
102
RTVSPost2010Prop41ColorIndex
 90
       18
102
RTVSPost2010Prop41ColorRGB
 90
        0
102
RTVSPost2010PropOp41
 70
     1
102
RTVSPost2010Prop42
 90
       50
102
RTVSPost2010PropOp42
 70
     1
102
RTVSPost2010Prop43
 90
        3
102
RTVSPost2010PropOp43
 70
     1
102
RTVSPost2010Prop44ColorIndex
 90
        5
102
RTVSPost2010Prop44ColorRGB
 90
      255
102
RTVSPost2010PropOp44
 70
     1
102
RTVSPost2010Prop45
280
     0
102
RTVSPost2010PropOp45
 70
     1
102
RTVSPost2010Prop46
 90
       50
102
RTVSPost2010PropOp46
 70
     1
102
RTVSPost2010Prop47
 90
       50
102
RTVSPost2010PropOp47
 70
     1
102
RTVSPost2010Prop48
 90
       50
102
RTVSPost2010PropOp48
 70
     1
102
RTVSPost2010Prop49
280
     0
102
RTVSPost2010PropOp49
 70
     1
102
RTVSPost2010Prop50
 90
       50
102
RTVSPost2010PropOp50
 70
     1
102
RTVSPost2010Prop51ColorIndex
 90
      256
102
RTVSPost2010Prop51ColorRGB
 90
-16777216
102
RTVSPost2010PropOp51
 70
     0
102
RTVSPost2010Prop52
140
1.0
102
RTVSPost2010PropOp52
 70
     0
102
RTVSPost2010Prop53
 90
        2
102
RTVSPost2010PropOp53
 70
     1
102
RTVSPost2010Prop54
  1
strokes_ogs.tif
102
RTVSPost2010PropOp54
 70
     1
102
RTVSPost2010Prop55
280
     0
102
RTVSPost2010PropOp55
 70
     1
102
RTVSPost2010Prop56
140
1.0
102
RTVSPost2010PropOp56
 70
     1
102
RTVSPost2010Prop57
140
1.0
102
RTVSPost2010PropOp57
 70
     1
  0
XRECORD
  5
272
102
{ACAD_REACTORS
330
271
102
}
330
271
100
AcDbXrecord
280
     1
102
RTVSPropertyOp0
 70
     1
102
RTVSPropertyOp1
 70
     1
102
RTVSPropertyOp2
 70
     1
102
RTVSPropertyOp3
 70
     1
102
RTVSPropertyOp4
 70
     1
102
RTVSPropertyOp5
 70
     1
102
RTVSPropertyOp6
 70
     1
102
RTVSPropertyOp7
 70
     1
102
RTVSPropertyOp8
 70
     1
102
RTVSPropertyOp9
 70
     1
102
RTVSPropertyOp10
 70
     1
102
RTVSPropertyOp11
 70
     1
102
RTVSPropertyOp12
 70
     1
102
RTVSPropertyOp13
 70
     1
102
RTVSPropertyOp14
 70
     1
102
RTVSPropertyOp15
 70
     1
102
RTVSPropertyOp16
 70
     1
102
RTVSPropertyOp17
 70
     1
102
RTVSPropertyOp18
 70
     1
102
RTVSPropertyOp19
 70
     1
102
RTVSPropertyOp20
 70
     1
102
RTVSPropertyOp21
 70
     1
102
RTVSPropertyOp22
 70
     1
102
RTVSPropertyOp23
 70
     1
102
RTVSPropertyOp24
 70
     1
102
RTVSPropertyOp25
 70
     1
102
RTVSPropertyOp26
 70
     1
102
RTVSPropertyOp27
 70
     1
102
RTVSPropertyOp28
 70
     1
102
RTVSPropertyOp29
 70
     1
102
RTVSPropertyOp30
 70
     1
102
RTVSPropertyOp31
 70
     1
102
RTVSPropertyOp32
 70
     1
102
RTVSPropertyOp33
 70
     1
102
RTVSPropertyOp34
 70
     1
102
RTVSPropertyOp35
 70
     1
102
RTVSPropertyOp36
 70
     1
102
RTVSPropertyOp37
 70
     1
102
RTVSPropertyOp38
 70
     1
102
RTVSPropertyOp39
 70
     1
102
RTVSPropertyOp40
 70
     1
102
RTVSPropertyOp41
 70
     1
102
RTVSPropertyOp42
 70
     1
102
RTVSPropertyOp43
 70
     1
102
RTVSPropertyOp44
 70
     1
102
RTVSPropertyOp45
 70
     1
102
RTVSPropertyOp46
 70
     1
102
RTVSPropertyOp47
 70
     1
102
RTVSPropertyOp48
 70
     1
102
RTVSPropertyOp49
 70
     1
102
RTVSPropertyOp50
 70
     1
102
RTVSPropertyOp51
 70
     0
102
RTVSPropertyOp52
 70
     0
102
RTVSPropertyOp53
 70
     1
102
RTVSPropertyOp54
 70
     1
102
RTVSPropertyOp55
 70
     1
102
RTVSPropertyOp56
 70
     1
102
RTVSPropertyOp57
 70
     1
102
RTVSPost2010Prop28
280
     0
102
RTVSPost2010PropOp28
 70
     1
102
RTVSPost2010Prop29
280
     1
102
RTVSPost2010PropOp29
 70
     1
102
RTVSPost2010Prop30
280
     1
102
RTVSPost2010PropOp30
 70
     1
102
RTVSPost2010Prop31
280
     0
102
RTVSPost2010PropOp31
 70
     1
102
RTVSPost2010Prop32
280
     0
102
RTVSPost2010PropOp32
 70
     1
102
RTVSPost2010Prop33
280
     0
102
RTVSPost2010PropOp33
 70
     1
102
RTVSPost2010Prop34
280
     0
102
RTVSPost2010PropOp34
 70
     1
102
RTVSPost2010Prop35
280
     0
102
RTVSPost2010PropOp35
 70
     1
102
RTVSPost2010Prop36
280
     0
102
RTVSPost2010PropOp36
 70
     1
102
RTVSPost2010Prop37
 90
       50
102
RTVSPost2010PropOp37
 70
     1
102
RTVSPost2010Prop38
140
0.0
102
RTVSPost2010PropOp38
 70
     1
102
RTVSPost2010Prop39
140
1.0
102
RTVSPost2010PropOp39
 70
     1
102
RTVSPost2010Prop40
 90
        0
102
RTVSPost2010PropOp40
 70
     1
102
RTVSPost2010Prop41ColorIndex
 90
       18
102
RTVSPost2010Prop41ColorRGB
 90
        0
102
RTVSPost2010PropOp41
 70
     1
102
RTVSPost2010Prop42
 90
       50
102
RTVSPost2010PropOp42
 70
     1
102
RTVSPost2010Prop43
 90
        3
102
RTVSPost2010PropOp43
 70
     1
102
RTVSPost2010Prop44ColorIndex
 90
        5
102
RTVSPost2010Prop44ColorRGB
 90
      255
102
RTVSPost2010PropOp44
 70
     1
102
RTVSPost2010Prop45
280
     0
102
RTVSPost2010PropOp45
 70
     1
102
RTVSPost2010Prop46
 90
       50
102
RTVSPost2010PropOp46
 70
     1
102
RTVSPost2010Prop47
 90
       50
102
RTVSPost2010PropOp47
 70
     1
102
RTVSPost2010Prop48
 90
       50
102
RTVSPost2010PropOp48
 70
     1
102
RTVSPost2010Prop49
280
     0
102
RTVSPost2010PropOp49
 70
     1
102
RTVSPost2010Prop50
 90
       50
102
RTVSPost2010PropOp50
 70
     1
102
RTVSPost2010Prop51ColorIndex
 90
      256
102
RTVSPost2010Prop51ColorRGB
 90
-16777216
102
RTVSPost2010PropOp51
 70
     0
102
RTVSPost2010Prop52
140
1.0
102
RTVSPost2010PropOp52
 70
     0
102
RTVSPost2010Prop53
 90
        2
102
RTVSPost2010PropOp53
 70
     1
102
RTVSPost2010Prop54
  1
strokes_ogs.tif
102
RTVSPost2010PropOp54
 70
     1
102
RTVSPost2010Prop55
280
     0
102
RTVSPost2010PropOp55
 70
     1
102
RTVSPost2010Prop56
140
1.0
102
RTVSPost2010PropOp56
 70
     1
102
RTVSPost2010Prop57
140
1.0
102
RTVSPost2010PropOp57
 70
     1
  0
XRECORD
  5
262
102
{ACAD_REACTORS
330
261
102
}
330
261
100
AcDbXrecord
280
     1
102
RTVSPropertyOp0
 70
     1
102
RTVSPropertyOp1
 70
     1
102
RTVSPropertyOp2
 70
     1
102
RTVSPropertyOp3
 70
     1
102
RTVSPropertyOp4
 70
     1
102
RTVSPropertyOp5
 70
     1
102
RTVSPropertyOp6
 70
     1
102
RTVSPropertyOp7
 70
     1
102
RTVSPropertyOp8
 70
     1
102
RTVSPropertyOp9
 70
     1
102
RTVSPropertyOp10
 70
     1
102
RTVSPropertyOp11
 70
     1
102
RTVSPropertyOp12
 70
     1
102
RTVSPropertyOp13
 70
     1
102
RTVSPropertyOp14
 70
     1
102
RTVSPropertyOp15
 70
     1
102
RTVSPropertyOp16
 70
     1
102
RTVSPropertyOp17
 70
     1
102
RTVSPropertyOp18
 70
     1
102
RTVSPropertyOp19
 70
     1
102
RTVSPropertyOp20
 70
     1
102
RTVSPropertyOp21
 70
     1
102
RTVSPropertyOp22
 70
     1
102
RTVSPropertyOp23
 70
     1
102
RTVSPropertyOp24
 70
     1
102
RTVSPropertyOp25
 70
     1
102
RTVSPropertyOp26
 70
     1
102
RTVSPropertyOp27
 70
     1
102
RTVSPropertyOp28
 70
     1
102
RTVSPropertyOp29
 70
     1
102
RTVSPropertyOp30
 70
     1
102
RTVSPropertyOp31
 70
     1
102
RTVSPropertyOp32
 70
     1
102
RTVSPropertyOp33
 70
     1
102
RTVSPropertyOp34
 70
     1
102
RTVSPropertyOp35
 70
     1
102
RTVSPropertyOp36
 70
     1
102
RTVSPropertyOp37
 70
     1
102
RTVSPropertyOp38
 70
     1
102
RTVSPropertyOp39
 70
     1
102
RTVSPropertyOp40
 70
     1
102
RTVSPropertyOp41
 70
     1
102
RTVSPropertyOp42
 70
     1
102
RTVSPropertyOp43
 70
     1
102
RTVSPropertyOp44
 70
     1
102
RTVSPropertyOp45
 70
     1
102
RTVSPropertyOp46
 70
     1
102
RTVSPropertyOp47
 70
     1
102
RTVSPropertyOp48
 70
     1
102
RTVSPropertyOp49
 70
     1
102
RTVSPropertyOp50
 70
     1
102
RTVSPropertyOp51
 70
     0
102
RTVSPropertyOp52
 70
     0
102
RTVSPropertyOp53
 70
     1
102
RTVSPropertyOp54
 70
     1
102
RTVSPropertyOp55
 70
     1
102
RTVSPropertyOp56
 70
     1
102
RTVSPropertyOp57
 70
     1
102
RTVSPost2010Prop28
280
     0
102
RTVSPost2010PropOp28
 70
     1
102
RTVSPost2010Prop29
280
     1
102
RTVSPost2010PropOp29
 70
     1
102
RTVSPost2010Prop30
280
     1
102
RTVSPost2010PropOp30
 70
     1
102
RTVSPost2010Prop31
280
     0
102
RTVSPost2010PropOp31
 70
     1
102
RTVSPost2010Prop32
280
     0
102
RTVSPost2010PropOp32
 70
     1
102
RTVSPost2010Prop33
280
     0
102
RTVSPost2010PropOp33
 70
     1
102
RTVSPost2010Prop34
280
     0
102
RTVSPost2010PropOp34
 70
     1
102
RTVSPost2010Prop35
280
     0
102
RTVSPost2010PropOp35
 70
     1
102
RTVSPost2010Prop36
280
     0
102
RTVSPost2010PropOp36
 70
     1
102
RTVSPost2010Prop37
 90
       50
102
RTVSPost2010PropOp37
 70
     1
102
RTVSPost2010Prop38
140
0.0
102
RTVSPost2010PropOp38
 70
     1
102
RTVSPost2010Prop39
140
1.0
102
RTVSPost2010PropOp39
 70
     1
102
RTVSPost2010Prop40
 90
        0
102
RTVSPost2010PropOp40
 70
     1
102
RTVSPost2010Prop41ColorIndex
 90
       18
102
RTVSPost2010Prop41ColorRGB
 90
        0
102
RTVSPost2010PropOp41
 70
     1
102
RTVSPost2010Prop42
 90
       50
102
RTVSPost2010PropOp42
 70
     1
102
RTVSPost2010Prop43
 90
        3
102
RTVSPost2010PropOp43
 70
     1
102
RTVSPost2010Prop44ColorIndex
 90
        5
102
RTVSPost2010Prop44ColorRGB
 90
      255
102
RTVSPost2010PropOp44
 70
     1
102
RTVSPost2010Prop45
280
     0
102
RTVSPost2010PropOp45
 70
     1
102
RTVSPost2010Prop46
 90
       50
102
RTVSPost2010PropOp46
 70
     1
102
RTVSPost2010Prop47
 90
       50
102
RTVSPost2010PropOp47
 70
     1
102
RTVSPost2010Prop48
 90
       50
102
RTVSPost2010PropOp48
 70
     1
102
RTVSPost2010Prop49
280
     0
102
RTVSPost2010PropOp49
 70
     1
102
RTVSPost2010Prop50
 90
       50
102
RTVSPost2010PropOp50
 70
     1
102
RTVSPost2010Prop51ColorIndex
 90
      256
102
RTVSPost2010Prop51ColorRGB
 90
-16777216
102
RTVSPost2010PropOp51
 70
     0
102
RTVSPost2010Prop52
140
1.0
102
RTVSPost2010PropOp52
 70
     0
102
RTVSPost2010Prop53
 90
        2
102
RTVSPost2010PropOp53
 70
     1
102
RTVSPost2010Prop54
  1
strokes_ogs.tif
102
RTVSPost2010PropOp54
 70
     1
102
RTVSPost2010Prop55
280
     0
102
RTVSPost2010PropOp55
 70
     1
102
RTVSPost2010Prop56
140
1.0
102
RTVSPost2010PropOp56
 70
     1
102
RTVSPost2010Prop57
140
1.0
102
RTVSPost2010PropOp57
 70
     1
  0
XRECORD
  5
254
102
{ACAD_REACTORS
330
253
102
}
330
253
100
AcDbXrecord
280
     1
102
RTVSPropertyOp0
 70
     1
102
RTVSPropertyOp1
 70
     1
102
RTVSPropertyOp2
 70
     1
102
RTVSPropertyOp3
 70
     1
102
RTVSPropertyOp4
 70
     1
102
RTVSPropertyOp5
 70
     1
102
RTVSPropertyOp6
 70
     1
102
RTVSPropertyOp7
 70
     1
102
RTVSPropertyOp8
 70
     1
102
RTVSPropertyOp9
 70
     1
102
RTVSPropertyOp10
 70
     1
102
RTVSPropertyOp11
 70
     1
102
RTVSPropertyOp12
 70
     1
102
RTVSPropertyOp13
 70
     1
102
RTVSPropertyOp14
 70
     1
102
RTVSPropertyOp15
 70
     1
102
RTVSPropertyOp16
 70
     1
102
RTVSPropertyOp17
 70
     1
102
RTVSPropertyOp18
 70
     1
102
RTVSPropertyOp19
 70
     1
102
RTVSPropertyOp20
 70
     1
102
RTVSPropertyOp21
 70
     1
102
RTVSPropertyOp22
 70
     1
102
RTVSPropertyOp23
 70
     1
102
RTVSPropertyOp24
 70
     1
102
RTVSPropertyOp25
 70
     1
102
RTVSPropertyOp26
 70
     1
102
RTVSPropertyOp27
 70
     1
102
RTVSPropertyOp28
 70
     1
102
RTVSPropertyOp29
 70
     1
102
RTVSPropertyOp30
 70
     1
102
RTVSPropertyOp31
 70
     1
102
RTVSPropertyOp32
 70
     1
102
RTVSPropertyOp33
 70
     1
102
RTVSPropertyOp34
 70
     1
102
RTVSPropertyOp35
 70
     1
102
RTVSPropertyOp36
 70
     1
102
RTVSPropertyOp37
 70
     1
102
RTVSPropertyOp38
 70
     1
102
RTVSPropertyOp39
 70
     1
102
RTVSPropertyOp40
 70
     1
102
RTVSPropertyOp41
 70
     1
102
RTVSPropertyOp42
 70
     1
102
RTVSPropertyOp43
 70
     1
102
RTVSPropertyOp44
 70
     1
102
RTVSPropertyOp45
 70
     1
102
RTVSPropertyOp46
 70
     1
102
RTVSPropertyOp47
 70
     1
102
RTVSPropertyOp48
 70
     1
102
RTVSPropertyOp49
 70
     1
102
RTVSPropertyOp50
 70
     1
102
RTVSPropertyOp51
 70
     0
102
RTVSPropertyOp52
 70
     0
102
RTVSPropertyOp53
 70
     1
102
RTVSPropertyOp54
 70
     1
102
RTVSPropertyOp55
 70
     1
102
RTVSPropertyOp56
 70
     1
102
RTVSPropertyOp57
 70
     1
102
RTVSPost2010Prop28
280
     0
102
RTVSPost2010PropOp28
 70
     1
102
RTVSPost2010Prop29
280
     1
102
RTVSPost2010PropOp29
 70
     1
102
RTVSPost2010Prop30
280
     1
102
RTVSPost2010PropOp30
 70
     1
102
RTVSPost2010Prop31
280
     0
102
RTVSPost2010PropOp31
 70
     1
102
RTVSPost2010Prop32
280
     0
102
RTVSPost2010PropOp32
 70
     1
102
RTVSPost2010Prop33
280
     0
102
RTVSPost2010PropOp33
 70
     1
102
RTVSPost2010Prop34
280
     0
102
RTVSPost2010PropOp34
 70
     1
102
RTVSPost2010Prop35
280
     0
102
RTVSPost2010PropOp35
 70
     1
102
RTVSPost2010Prop36
280
     0
102
RTVSPost2010PropOp36
 70
     1
102
RTVSPost2010Prop37
 90
       50
102
RTVSPost2010PropOp37
 70
     1
102
RTVSPost2010Prop38
140
0.0
102
RTVSPost2010PropOp38
 70
     1
102
RTVSPost2010Prop39
140
1.0
102
RTVSPost2010PropOp39
 70
     1
102
RTVSPost2010Prop40
 90
        0
102
RTVSPost2010PropOp40
 70
     1
102
RTVSPost2010Prop41ColorIndex
 90
       18
102
RTVSPost2010Prop41ColorRGB
 90
        0
102
RTVSPost2010PropOp41
 70
     1
102
RTVSPost2010Prop42
 90
       50
102
RTVSPost2010PropOp42
 70
     1
102
RTVSPost2010Prop43
 90
        3
102
RTVSPost2010PropOp43
 70
     1
102
RTVSPost2010Prop44ColorIndex
 90
        5
102
RTVSPost2010Prop44ColorRGB
 90
      255
102
RTVSPost2010PropOp44
 70
     1
102
RTVSPost2010Prop45
280
     0
102
RTVSPost2010PropOp45
 70
     1
102
RTVSPost2010Prop46
 90
       50
102
RTVSPost2010PropOp46
 70
     1
102
RTVSPost2010Prop47
 90
       50
102
RTVSPost2010PropOp47
 70
     1
102
RTVSPost2010Prop48
 90
       50
102
RTVSPost2010PropOp48
 70
     1
102
RTVSPost2010Prop49
280
     0
102
RTVSPost2010PropOp49
 70
     1
102
RTVSPost2010Prop50
 90
       50
102
RTVSPost2010PropOp50
 70
     1
102
RTVSPost2010Prop51ColorIndex
 90
      256
102
RTVSPost2010Prop51ColorRGB
 90
-16777216
102
RTVSPost2010PropOp51
 70
     0
102
RTVSPost2010Prop52
140
1.0
102
RTVSPost2010PropOp52
 70
     0
102
RTVSPost2010Prop53
 90
        2
102
RTVSPost2010PropOp53
 70
     1
102
RTVSPost2010Prop54
  1
strokes_ogs.tif
102
RTVSPost2010PropOp54
 70
     1
102
RTVSPost2010Prop55
280
     0
102
RTVSPost2010PropOp55
 70
     1
102
RTVSPost2010Prop56
140
1.0
102
RTVSPost2010PropOp56
 70
     1
102
RTVSPost2010Prop57
140
1.0
102
RTVSPost2010PropOp57
 70
     1
  0
XRECORD
  5
274
102
{ACAD_REACTORS
330
273
102
}
330
273
100
AcDbXrecord
280
     1
102
RTVSPropertyOp0
 70
     1
102
RTVSPropertyOp1
 70
     1
102
RTVSPropertyOp2
 70
     1
102
RTVSPropertyOp3
 70
     1
102
RTVSPropertyOp4
 70
     1
102
RTVSPropertyOp5
 70
     1
102
RTVSPropertyOp6
 70
     1
102
RTVSPropertyOp7
 70
     1
102
RTVSPropertyOp8
 70
     1
102
RTVSPropertyOp9
 70
     1
102
RTVSPropertyOp10
 70
     1
102
RTVSPropertyOp11
 70
     1
102
RTVSPropertyOp12
 70
     1
102
RTVSPropertyOp13
 70
     1
102
RTVSPropertyOp14
 70
     1
102
RTVSPropertyOp15
 70
     1
102
RTVSPropertyOp16
 70
     1
102
RTVSPropertyOp17
 70
     1
102
RTVSPropertyOp18
 70
     1
102
RTVSPropertyOp19
 70
     1
102
RTVSPropertyOp20
 70
     1
102
RTVSPropertyOp21
 70
     1
102
RTVSPropertyOp22
 70
     1
102
RTVSPropertyOp23
 70
     1
102
RTVSPropertyOp24
 70
     1
102
RTVSPropertyOp25
 70
     1
102
RTVSPropertyOp26
 70
     1
102
RTVSPropertyOp27
 70
     1
102
RTVSPropertyOp28
 70
     1
102
RTVSPropertyOp29
 70
     1
102
RTVSPropertyOp30
 70
     1
102
RTVSPropertyOp31
 70
     1
102
RTVSPropertyOp32
 70
     1
102
RTVSPropertyOp33
 70
     1
102
RTVSPropertyOp34
 70
     1
102
RTVSPropertyOp35
 70
     1
102
RTVSPropertyOp36
 70
     1
102
RTVSPropertyOp37
 70
     1
102
RTVSPropertyOp38
 70
     1
102
RTVSPropertyOp39
 70
     1
102
RTVSPropertyOp40
 70
     1
102
RTVSPropertyOp41
 70
     1
102
RTVSPropertyOp42
 70
     1
102
RTVSPropertyOp43
 70
     1
102
RTVSPropertyOp44
 70
     1
102
RTVSPropertyOp45
 70
     1
102
RTVSPropertyOp46
 70
     1
102
RTVSPropertyOp47
 70
     1
102
RTVSPropertyOp48
 70
     1
102
RTVSPropertyOp49
 70
     1
102
RTVSPropertyOp50
 70
     1
102
RTVSPropertyOp51
 70
     0
102
RTVSPropertyOp52
 70
     0
102
RTVSPropertyOp53
 70
     1
102
RTVSPropertyOp54
 70
     1
102
RTVSPropertyOp55
 70
     1
102
RTVSPropertyOp56
 70
     1
102
RTVSPropertyOp57
 70
     1
102
RTVSPost2010Prop28
280
     0
102
RTVSPost2010PropOp28
 70
     1
102
RTVSPost2010Prop29
280
     1
102
RTVSPost2010PropOp29
 70
     1
102
RTVSPost2010Prop30
280
     1
102
RTVSPost2010PropOp30
 70
     1
102
RTVSPost2010Prop31
280
     0
102
RTVSPost2010PropOp31
 70
     1
102
RTVSPost2010Prop32
280
     0
102
RTVSPost2010PropOp32
 70
     1
102
RTVSPost2010Prop33
280
     0
102
RTVSPost2010PropOp33
 70
     1
102
RTVSPost2010Prop34
280
     0
102
RTVSPost2010PropOp34
 70
     1
102
RTVSPost2010Prop35
280
     0
102
RTVSPost2010PropOp35
 70
     1
102
RTVSPost2010Prop36
280
     0
102
RTVSPost2010PropOp36
 70
     1
102
RTVSPost2010Prop37
 90
       50
102
RTVSPost2010PropOp37
 70
     1
102
RTVSPost2010Prop38
140
0.0
102
RTVSPost2010PropOp38
 70
     1
102
RTVSPost2010Prop39
140
1.0
102
RTVSPost2010PropOp39
 70
     1
102
RTVSPost2010Prop40
 90
        0
102
RTVSPost2010PropOp40
 70
     1
102
RTVSPost2010Prop41ColorIndex
 90
       18
102
RTVSPost2010Prop41ColorRGB
 90
        0
102
RTVSPost2010PropOp41
 70
     1
102
RTVSPost2010Prop42
 90
       50
102
RTVSPost2010PropOp42
 70
     1
102
RTVSPost2010Prop43
 90
        3
102
RTVSPost2010PropOp43
 70
     1
102
RTVSPost2010Prop44ColorIndex
 90
        5
102
RTVSPost2010Prop44ColorRGB
 90
      255
102
RTVSPost2010PropOp44
 70
     1
102
RTVSPost2010Prop45
280
     0
102
RTVSPost2010PropOp45
 70
     1
102
RTVSPost2010Prop46
 90
       50
102
RTVSPost2010PropOp46
 70
     1
102
RTVSPost2010Prop47
 90
       50
102
RTVSPost2010PropOp47
 70
     1
102
RTVSPost2010Prop48
 90
       50
102
RTVSPost2010PropOp48
 70
     1
102
RTVSPost2010Prop49
280
     0
102
RTVSPost2010PropOp49
 70
     1
102
RTVSPost2010Prop50
 90
       50
102
RTVSPost2010PropOp50
 70
     1
102
RTVSPost2010Prop51ColorIndex
 90
      256
102
RTVSPost2010Prop51ColorRGB
 90
-16777216
102
RTVSPost2010PropOp51
 70
     0
102
RTVSPost2010Prop52
140
1.0
102
RTVSPost2010PropOp52
 70
     0
102
RTVSPost2010Prop53
 90
        2
102
RTVSPost2010PropOp53
 70
     1
102
RTVSPost2010Prop54
  1
strokes_ogs.tif
102
RTVSPost2010PropOp54
 70
     1
102
RTVSPost2010Prop55
280
     0
102
RTVSPost2010PropOp55
 70
     1
102
RTVSPost2010Prop56
140
1.0
102
RTVSPost2010PropOp56
 70
     1
102
RTVSPost2010Prop57
140
1.0
102
RTVSPost2010PropOp57
 70
     1
  0
ENDSEC
  0
EOF
