  0
SECTION
  2
HEADER
  9
$ACADVER
  1
AC1018
  9
$ACADMAINTVER
 70
     0
  9
$DWGCODEPAGE
  3
ANSI_1252
  9
$INSBASE
 10
0.0
 20
0.0
 30
0.0
  9
$EXTMIN
 10
0.6426056300498517
 20
-20.99999999999999
 30
19.18209472552186
  9
$EXTMAX
 10
48.64260563005051
 20
12.99999999999999
 30
44.18209472552187
  9
$LIMMIN
 10
0.0
 20
0.0
  9
$LIMMAX
 10
12.0
 20
9.0
  9
$ORTHOMODE
 70
     0
  9
$REGENMODE
 70
     1
  9
$FILLMODE
 70
     1
  9
$QTEXTMODE
 70
     0
  9
$MIRRTEXT
 70
     1
  9
$LTSCALE
 40
1.0
  9
$ATTMODE
 70
     1
  9
$TEXTSIZE
 40
0.2
  9
$TRACEWID
 40
0.05
  9
$TEXTSTYLE
  7
Standard
  9
$CLAYER
  8
0
  9
$CELTYPE
  6
ByLayer
  9
$CECOLOR
 62
   256
  9
$CELTSCALE
 40
1.0
  9
$DISPSILH
 70
     0
  9
$DIMSCALE
 40
1.0
  9
$DIMASZ
 40
0.18
  9
$DIMEXO
 40
0.0625
  9
$DIMDLI
 40
0.38
  9
$DIMRND
 40
0.0
  9
$DIMDLE
 40
0.0
  9
$DIMEXE
 40
0.18
  9
$DIMTP
 40
0.0
  9
$DIMTM
 40
0.0
  9
$DIMTXT
 40
0.18
  9
$DIMCEN
 40
0.09
  9
$DIMTSZ
 40
0.0
  9
$DIMTOL
 70
     0
  9
$DIMLIM
 70
     0
  9
$DIMTIH
 70
     1
  9
$DIMTOH
 70
     1
  9
$DIMSE1
 70
     0
  9
$DIMSE2
 70
     0
  9
$DIMTAD
 70
     0
  9
$DIMZIN
 70
     0
  9
$DIMBLK
  1

  9
$DIMASO
 70
     1
  9
$DIMSHO
 70
     1
  9
$DIMPOST
  1

  9
$DIMAPOST
  1

  9
$DIMALT
 70
     0
  9
$DIMALTD
 70
     2
  9
$DIMALTF
 40
25.4
  9
$DIMLFAC
 40
1.0
  9
$DIMTOFL
 70
     0
  9
$DIMTVP
 40
0.0
  9
$DIMTIX
 70
     0
  9
$DIMSOXD
 70
     0
  9
$DIMSAH
 70
     0
  9
$DIMBLK1
  1

  9
$DIMBLK2
  1

  9
$DIMSTYLE
  2
Standard
  9
$DIMCLRD
 70
     0
  9
$DIMCLRE
 70
     0
  9
$DIMCLRT
 70
     0
  9
$DIMTFAC
 40
1.0
  9
$DIMGAP
 40
0.09
  9
$DIMJUST
 70
     0
  9
$DIMSD1
 70
     0
  9
$DIMSD2
 70
     0
  9
$DIMTOLJ
 70
     1
  9
$DIMTZIN
 70
     0
  9
$DIMALTZ
 70
     0
  9
$DIMALTTZ
 70
     0
  9
$DIMUPT
 70
     0
  9
$DIMDEC
 70
     4
  9
$DIMTDEC
 70
     4
  9
$DIMALTU
 70
     2
  9
$DIMALTTD
 70
     2
  9
$DIMTXSTY
  7
Standard
  9
$DIMAUNIT
 70
     0
  9
$DIMADEC
 70
     0
  9
$DIMALTRND
 40
0.0
  9
$DIMAZIN
 70
     0
  9
$DIMDSEP
 70
    46
  9
$DIMATFIT
 70
     3
  9
$DIMFRAC
 70
     0
  9
$DIMLDRBLK
  1

  9
$DIMLUNIT
 70
     2
  9
$DIMLWD
 70
    -2
  9
$DIMLWE
 70
    -2
  9
$DIMTMOVE
 70
     2
  9
$LUNITS
 70
     2
  9
$LUPREC
 70
     4
  9
$SKETCHINC
 40
0.1
  9
$FILLETRAD
 40
0.5
  9
$AUNITS
 70
     0
  9
$AUPREC
 70
     0
  9
$MENU
  1
.
  9
$ELEVATION
 40
0.0
  9
$PELEVATION
 40
0.0
  9
$THICKNESS
 40
0.0
  9
$LIMCHECK
 70
     0
  9
$CHAMFERA
 40
0.0
  9
$CHAMFERB
 40
0.0
  9
$CHAMFERC
 40
0.0
  9
$CHAMFERD
 40
0.0
  9
$SKPOLY
 70
     0
  9
$TDCREATE
 40
2457157.56200507
  9
$TDUCREATE
 40
2457157.728671736
  9
$TDUPDATE
 40
2457157.562025324
  9
$TDUUPDATE
 40
2457157.728691991
  9
$TDINDWG
 40
0.0000000116
  9
$TDUSRTIMER
 40
0.0000000116
  9
$USRTIMER
 70
     1
  9
$ANGBASE
 50
0.0
  9
$ANGDIR
 70
     0
  9
$PDMODE
 70
     0
  9
$PDSIZE
 40
0.0
  9
$PLINEWID
 40
0.0
  9
$SPLFRAME
 70
     0
  9
$SPLINETYPE
 70
     6
  9
$SPLINESEGS
 70
     8
  9
$HANDSEED
  5
2D5
  9
$SURFTAB1
 70
     6
  9
$SURFTAB2
 70
     6
  9
$SURFTYPE
 70
     6
  9
$SURFU
 70
     6
  9
$SURFV
 70
     6
  9
$UCSBASE
  2

  9
$UCSNAME
  2

  9
$UCSORG
 10
0.0
 20
0.0
 30
0.0
  9
$UCSXDIR
 10
1.0
 20
0.0
 30
0.0
  9
$UCSYDIR
 10
0.0
 20
1.0
 30
0.0
  9
$UCSORTHOREF
  2

  9
$UCSORTHOVIEW
 70
     0
  9
$UCSORGTOP
 10
0.0
 20
0.0
 30
0.0
  9
$UCSORGBOTTOM
 10
0.0
 20
0.0
 30
0.0
  9
$UCSORGLEFT
 10
0.0
 20
0.0
 30
0.0
  9
$UCSORGRIGHT
 10
0.0
 20
0.0
 30
0.0
  9
$UCSORGFRONT
 10
0.0
 20
0.0
 30
0.0
  9
$UCSORGBACK
 10
0.0
 20
0.0
 30
0.0
  9
$PUCSBASE
  2

  9
$PUCSNAME
  2

  9
$PUCSORG
 10
0.0
 20
0.0
 30
0.0
  9
$PUCSXDIR
 10
1.0
 20
0.0
 30
0.0
  9
$PUCSYDIR
 10
0.0
 20
1.0
 30
0.0
  9
$PUCSORTHOREF
  2

  9
$PUCSORTHOVIEW
 70
     0
  9
$PUCSORGTOP
 10
0.0
 20
0.0
 30
0.0
  9
$PUCSORGBOTTOM
 10
0.0
 20
0.0
 30
0.0
  9
$PUCSORGLEFT
 10
0.0
 20
0.0
 30
0.0
  9
$PUCSORGRIGHT
 10
0.0
 20
0.0
 30
0.0
  9
$PUCSORGFRONT
 10
0.0
 20
0.0
 30
0.0
  9
$PUCSORGBACK
 10
0.0
 20
0.0
 30
0.0
  9
$USERI1
 70
     0
  9
$USERI2
 70
     0
  9
$USERI3
 70
     0
  9
$USERI4
 70
     0
  9
$USERI5
 70
     0
  9
$USERR1
 40
0.0
  9
$USERR2
 40
0.0
  9
$USERR3
 40
0.0
  9
$USERR4
 40
0.0
  9
$USERR5
 40
0.0
  9
$WORLDVIEW
 70
     1
  9
$SHADEDGE
 70
     3
  9
$SHADEDIF
 70
    70
  9
$TILEMODE
 70
     1
  9
$MAXACTVP
 70
    64
  9
$PINSBASE
 10
0.0
 20
0.0
 30
0.0
  9
$PLIMCHECK
 70
     0
  9
$PEXTMIN
 10
1.000000000000000E+20
 20
1.000000000000000E+20
 30
1.000000000000000E+20
  9
$PEXTMAX
 10
-1.000000000000000E+20
 20
-1.000000000000000E+20
 30
-1.000000000000000E+20
  9
$PLIMMIN
 10
0.0
 20
0.0
  9
$PLIMMAX
 10
12.0
 20
9.0
  9
$UNITMODE
 70
     0
  9
$VISRETAIN
 70
     1
  9
$PLINEGEN
 70
     0
  9
$PSLTSCALE
 70
     1
  9
$TREEDEPTH
 70
  3020
  9
$CMLSTYLE
  2
Standard
  9
$CMLJUST
 70
     0
  9
$CMLSCALE
 40
1.0
  9
$PROXYGRAPHICS
 70
     1
  9
$MEASUREMENT
 70
     0
  9
$CELWEIGHT
370
    -1
  9
$ENDCAPS
280
     0
  9
$JOINSTYLE
280
     0
  9
$LWDISPLAY
290
     0
  9
$INSUNITS
 70
     1
  9
$HYPERLINKBASE
  1

  9
$STYLESHEET
  1

  9
$XEDIT
290
     1
  9
$CEPSNTYPE
380
     0
  9
$PSTYLEMODE
290
     1
  9
$FINGERPRINTGUID
  2
{60729BD2-204F-47D4-AB9C-8B620426F9AD}
  9
$VERSIONGUID
  2
{FAEB1C32-E019-11D5-929B-00C0DF256EC4}
  9
$EXTNAMES
290
     1
  9
$PSVPSCALE
 40
0.0
  9
$OLESTARTUP
290
     0
  9
$SORTENTS
280
   127
  9
$INDEXCTL
280
     0
  9
$HIDETEXT
280
     1
  9
$XCLIPFRAME
290
     0
  9
$HALOGAP
280
     0
  9
$OBSCOLOR
 70
   257
  9
$OBSLTYPE
280
     0
  9
$INTERSECTIONDISPLAY
280
     0
  9
$INTERSECTIONCOLOR
 70
   257
  9
$DIMASSOC
280
     2
  9
$PROJECTNAME
  1

  0
ENDSEC
  0
SECTION
  2
CLASSES
  0
CLASS
  1
ACDBDICTIONARYWDFLT
  2
AcDbDictionaryWithDefault
  3
ObjectDBX Classes
 90
        0
 91
        4
280
     0
281
     0
  0
CLASS
  1
VISUALSTYLE
  2
AcDbVisualStyle
  3
ObjectDBX Classes
 90
     4095
 91
        4
280
     0
281
     0
  0
CLASS
  1
MATERIAL
  2
AcDbMaterial
  3
ObjectDBX Classes
 90
     1153
 91
        4
280
     0
281
     0
  0
CLASS
  1
SCALE
  2
AcDbScale
  3
ObjectDBX Classes
 90
     1153
 91
        4
280
     0
281
     0
  0
CLASS
  1
TABLESTYLE
  2
AcDbTableStyle
  3
ObjectDBX Classes
 90
     4095
 91
        4
280
     0
281
     0
  0
CLASS
  1
MLEADERSTYLE
  2
AcDbMLeaderStyle
  3
ACDB_MLEADERSTYLE_CLASS
 90
     4095
 91
        4
280
     0
281
     0
  0
CLASS
  1
SUN
  2
AcDbSun
  3
SCENEOE
 90
     1153
 91
        4
280
     0
281
     0
  0
CLASS
  1
DICTIONARYVAR
  2
AcDbDictionaryVar
  3
ObjectDBX Classes
 90
        0
 91
        4
280
     0
281
     0
  0
CLASS
  1
CELLSTYLEMAP
  2
AcDbCellStyleMap
  3
ObjectDBX Classes
 90
     1152
 91
        4
280
     0
281
     0
  0
ENDSEC
  0
SECTION
  2
TABLES
  0
TABLE
  2
VPORT
  5
8
102
{ACAD_XDICTIONARY
360
28E
102
}
330
0
100
AcDbSymbolTable
 70
     1
  0
VPORT
  5
29
330
8
100
AcDbSymbolTableRecord
100
AcDbViewportTableRecord
  2
*Active
 70
     0
 10
0.0
 20
0.0
 11
1.0
 21
1.0
 12
24.64260563005018
 22
-4.0
 13
0.0
 23
0.0
 14
0.5
 24
0.5
 15
0.5
 25
0.5
 16
0.0
 26
0.0
 36
1.0
 17
0.0
 27
0.0
 37
0.0
 40
34.67999999999999
 41
1.411764705882373
 42
50.0
 43
0.0
 44
0.0
 50
0.0
 51
0.0
 71
     0
 72
   100
 73
     1
 74
     3
 75
     0
 76
     0
 77
     0
 78
     0
281
     0
 65
     1
110
0.0
120
0.0
130
0.0
111
1.0
121
0.0
131
0.0
112
0.0
122
1.0
132
0.0
 79
     0
146
0.0
  0
ENDTAB
  0
TABLE
  2
LTYPE
  5
5
330
0
100
AcDbSymbolTable
 70
     1
  0
LTYPE
  5
14
330
5
100
AcDbSymbolTableRecord
100
AcDbLinetypeTableRecord
  2
ByBlock
 70
     0
  3

 72
    65
 73
     0
 40
0.0
  0
LTYPE
  5
15
330
5
100
AcDbSymbolTableRecord
100
AcDbLinetypeTableRecord
  2
ByLayer
 70
     0
  3

 72
    65
 73
     0
 40
0.0
  0
LTYPE
  5
16
330
5
100
AcDbSymbolTableRecord
100
AcDbLinetypeTableRecord
  2
Continuous
 70
     0
  3
Solid line
 72
    65
 73
     0
 40
0.0
  0
ENDTAB
  0
TABLE
  2
LAYER
  5
2
330
0
100
AcDbSymbolTable
 70
     1
  0
LAYER
  5
10
330
2
100
AcDbSymbolTableRecord
100
AcDbLayerTableRecord
  2
0
 70
     0
 62
     7
  6
Continuous
370
    -3
390
F
  0
ENDTAB
  0
TABLE
  2
STYLE
  5
3
330
0
100
AcDbSymbolTable
 70
     1
  0
STYLE
  5
11
330
3
100
AcDbSymbolTableRecord
100
AcDbTextStyleTableRecord
  2
Standard
 70
     0
 40
0.0
 41
1.0
 50
0.0
 71
     0
 42
0.2
  3
txt
  4

  0
ENDTAB
  0
TABLE
  2
VIEW
  5
6
330
0
100
AcDbSymbolTable
 70
     0
  0
ENDTAB
  0
TABLE
  2
UCS
  5
7
330
0
100
AcDbSymbolTable
 70
     0
  0
ENDTAB
  0
TABLE
  2
APPID
  5
9
330
0
100
AcDbSymbolTable
 70
     2
  0
APPID
  5
12
330
9
100
AcDbSymbolTableRecord
100
AcDbRegAppTableRecord
  2
ACAD
 70
     0
  0
APPID
  5
2CD
330
9
100
AcDbSymbolTableRecord
100
AcDbRegAppTableRecord
  2
ACAD_MLEADERVER
 70
     0
  0
ENDTAB
  0
TABLE
  2
DIMSTYLE
  5
A
330
0
100
AcDbSymbolTable
 70
     1
100
AcDbDimStyleTable
  0
DIMSTYLE
105
27
330
A
100
AcDbSymbolTableRecord
100
AcDbDimStyleTableRecord
  2
Standard
 70
     0
178
     0
340
11
  0
ENDTAB
  0
TABLE
  2
BLOCK_RECORD
  5
1
330
0
100
AcDbSymbolTable
 70
     1
  0
BLOCK_RECORD
  5
1F
330
1
100
AcDbSymbolTableRecord
100
AcDbBlockTableRecord
  2
*Model_Space
340
22
  0
BLOCK_RECORD
  5
1B
330
1
100
AcDbSymbolTableRecord
100
AcDbBlockTableRecord
  2
*Paper_Space
340
1E
  0
BLOCK_RECORD
  5
23
330
1
100
AcDbSymbolTableRecord
100
AcDbBlockTableRecord
  2
*Paper_Space0
340
26
  0
ENDTAB
  0
ENDSEC
  0
SECTION
  2
BLOCKS
  0
BLOCK
  5
20
330
1F
100
AcDbEntity
  8
0
100
AcDbBlockBegin
  2
*Model_Space
 70
     0
 10
0.0
 20
0.0
 30
0.0
  3
*Model_Space
  1

  0
ENDBLK
  5
21
330
1F
100
AcDbEntity
  8
0
100
AcDbBlockEnd
  0
BLOCK
  5
1C
330
1B
100
AcDbEntity
 67
     1
  8
0
100
AcDbBlockBegin
  2
*Paper_Space
 70
     0
 10
0.0
 20
0.0
 30
0.0
  3
*Paper_Space
  1

  0
ENDBLK
  5
1D
330
1B
100
AcDbEntity
 67
     1
  8
0
100
AcDbBlockEnd
  0
BLOCK
  5
24
330
23
100
AcDbEntity
  8
0
100
AcDbBlockBegin
  2
*Paper_Space0
 70
     0
 10
0.0
 20
0.0
 30
0.0
  3
*Paper_Space0
  1

  0
ENDBLK
  5
25
330
23
100
AcDbEntity
  8
0
100
AcDbBlockEnd
  0
ENDSEC
  0
SECTION
  2
ENTITIES
  0
SPLINE
  5
6E
330
1F
100
AcDbEntity
  8
0
100
AcDbSpline
210
0.0
220
0.0
230
1.0
 70
    24
 71
     2
 72
     6
 73
     3
 74
     0
 42
0.000000001
 43
0.0000000001
 40
0.0
 40
0.0
 40
0.0
 40
32.00000000000065
 40
32.00000000000065
 40
32.00000000000065
 10
40.64260563005051
 20
-3.5
 30
26.93209472552187
 10
24.64260563005018
 20
-3.5
 30
26.93209472552187
 10
8.642605630049854
 20
-3.5
 30
26.93209472552187
  0
SPLINE
  5
6F
330
1F
100
AcDbEntity
  8
0
100
AcDbSpline
210
0.0
220
0.0
230
1.0
 70
    24
 71
     2
 72
     6
 73
     3
 74
     0
 42
0.000000001
 43
0.0000000001
 40
-1.0
 40
-1.0
 40
-1.0
 40
0.0
 40
0.0
 40
0.0
 10
8.642605630049854
 20
-3.5
 30
26.93209472552187
 10
8.642605630049854
 20
-4.0
 30
26.93209472552187
 10
8.642605630049854
 20
-4.5
 30
26.93209472552187
  0
SPLINE
  5
70
330
1F
100
AcDbEntity
  8
0
100
AcDbSpline
210
0.0
220
0.0
230
1.0
 70
    24
 71
     2
 72
     6
 73
     3
 74
     0
 42
0.000000001
 43
0.0000000001
 40
-32.00000000000065
 40
-32.00000000000065
 40
-32.00000000000065
 40
0.0
 40
0.0
 40
0.0
 10
8.642605630049854
 20
-4.5
 30
26.93209472552187
 10
24.64260563005018
 20
-4.5
 30
26.93209472552187
 10
40.64260563005051
 20
-4.5
 30
26.93209472552187
  0
SPLINE
  5
71
330
1F
100
AcDbEntity
  8
0
100
AcDbSpline
210
0.0
220
0.0
230
1.0
 70
    24
 71
     2
 72
     6
 73
     3
 74
     0
 42
0.000000001
 43
0.0000000001
 40
0.0
 40
0.0
 40
0.0
 40
1.0
 40
1.0
 40
1.0
 10
40.64260563005051
 20
-4.5
 30
26.93209472552187
 10
40.64260563005051
 20
-4.0
 30
26.93209472552187
 10
40.64260563005051
 20
-3.5
 30
26.93209472552187
  0
SPLINE
  5
72
330
1F
100
AcDbEntity
  8
0
100
AcDbSpline
210
0.0
220
0.0
230
1.0
 70
    24
 71
     2
 72
     6
 73
     3
 74
     0
 42
0.000000001
 43
0.0000000001
 40
0.0
 40
0.0
 40
0.0
 40
4.0
 40
4.0
 40
4.0
 10
8.642605630049854
 20
-3.5
 30
26.93209472552187
 10
8.642605630049854
 20
-3.5
 30
24.93209472552187
 10
8.642605630049854
 20
-3.5
 30
22.93209472552187
  0
SPLINE
  5
73
330
1F
100
AcDbEntity
  8
0
100
AcDbSpline
210
0.0
220
0.0
230
1.0
 70
    24
 71
     2
 72
     6
 73
     3
 74
     0
 42
0.000000001
 43
0.0000000001
 40
-1.0
 40
-1.0
 40
-1.0
 40
0.0
 40
0.0
 40
0.0
 10
8.642605630049854
 20
-3.5
 30
22.93209472552187
 10
8.642605630049854
 20
-4.0
 30
22.93209472552187
 10
8.642605630049854
 20
-4.5
 30
22.93209472552187
  0
SPLINE
  5
74
330
1F
100
AcDbEntity
  8
0
100
AcDbSpline
210
0.0
220
0.0
230
1.0
 70
    24
 71
     2
 72
     6
 73
     3
 74
     0
 42
0.000000001
 43
0.0000000001
 40
-4.0
 40
-4.0
 40
-4.0
 40
0.0
 40
0.0
 40
0.0
 10
8.642605630049854
 20
-4.5
 30
22.93209472552187
 10
8.642605630049854
 20
-4.5
 30
24.93209472552187
 10
8.642605630049854
 20
-4.5
 30
26.93209472552187
  0
SPLINE
  5
75
330
1F
100
AcDbEntity
  8
0
100
AcDbSpline
210
0.0
220
0.0
230
1.0
 70
    24
 71
     2
 72
     6
 73
     3
 74
     0
 42
0.000000001
 43
0.0000000001
 40
0.0
 40
0.0
 40
0.0
 40
32.00000000000065
 40
32.00000000000065
 40
32.00000000000065
 10
8.642605630049854
 20
-3.5
 30
22.93209472552187
 10
24.64260563005018
 20
-3.5
 30
22.93209472552187
 10
40.64260563005051
 20
-3.5
 30
22.93209472552187
  0
SPLINE
  5
76
330
1F
100
AcDbEntity
  8
0
100
AcDbSpline
210
0.0
220
0.0
230
1.0
 70
    24
 71
     2
 72
     6
 73
     3
 74
     0
 42
0.000000001
 43
0.0000000001
 40
-1.0
 40
-1.0
 40
-1.0
 40
0.0
 40
0.0
 40
0.0
 10
40.64260563005051
 20
-3.5
 30
22.93209472552187
 10
40.64260563005051
 20
-4.0
 30
22.93209472552187
 10
40.64260563005051
 20
-4.5
 30
22.93209472552187
  0
SPLINE
  5
77
330
1F
100
AcDbEntity
  8
0
100
AcDbSpline
210
0.0
220
0.0
230
1.0
 70
    24
 71
     2
 72
     6
 73
     3
 74
     0
 42
0.000000001
 43
0.0000000001
 40
-32.00000000000065
 40
-32.00000000000065
 40
-32.00000000000065
 40
0.0
 40
0.0
 40
0.0
 10
40.64260563005051
 20
-4.5
 30
22.93209472552187
 10
24.64260563005018
 20
-4.5
 30
22.93209472552187
 10
8.642605630049854
 20
-4.5
 30
22.93209472552187
  0
SPLINE
  5
78
330
1F
100
AcDbEntity
  8
0
100
AcDbSpline
210
0.0
220
0.0
230
1.0
 70
    24
 71
     2
 72
     6
 73
     3
 74
     0
 42
0.000000001
 43
0.0000000001
 40
-4.0
 40
-4.0
 40
-4.0
 40
0.0
 40
0.0
 40
0.0
 10
40.64260563005051
 20
-3.5
 30
22.93209472552187
 10
40.64260563005051
 20
-3.5
 30
24.93209472552187
 10
40.64260563005051
 20
-3.5
 30
26.93209472552187
  0
SPLINE
  5
79
330
1F
100
AcDbEntity
  8
0
100
AcDbSpline
210
0.0
220
0.0
230
1.0
 70
    24
 71
     2
 72
     6
 73
     3
 74
     0
 42
0.000000001
 43
0.0000000001
 40
0.0
 40
0.0
 40
0.0
 40
4.0
 40
4.0
 40
4.0
 10
40.64260563005051
 20
-4.5
 30
26.93209472552187
 10
40.64260563005051
 20
-4.5
 30
24.93209472552187
 10
40.64260563005051
 20
-4.5
 30
22.93209472552187
  0
LINE
  5
7A
330
1F
100
AcDbEntity
  8
0
100
AcDbLine
 10
24.64260563005018
 20
-3.5
 30
26.93209472552187
 11
24.64260563005018
 21
-4.5
 31
26.93209472552187
  0
LINE
  5
7B
330
1F
100
AcDbEntity
  8
0
100
AcDbLine
 10
8.642605630049859
 20
-4.0
 30
26.93209472552187
 11
40.64260563005051
 21
-4.0
 31
26.93209472552187
  0
LINE
  5
7C
330
1F
100
AcDbEntity
  8
0
100
AcDbLine
 10
8.642605630049854
 20
-3.5
 30
24.93209472552187
 11
8.642605630049854
 21
-4.5
 31
24.93209472552187
  0
LINE
  5
7D
330
1F
100
AcDbEntity
  8
0
100
AcDbLine
 10
8.642605630049854
 20
-4.0
 30
22.93209472552187
 11
8.642605630049854
 21
-4.0
 31
26.93209472552187
  0
LINE
  5
7E
330
1F
100
AcDbEntity
  8
0
100
AcDbLine
 10
24.64260563005018
 20
-4.5
 30
22.93209472552187
 11
24.64260563005018
 21
-3.5
 31
22.93209472552187
  0
LINE
  5
7F
330
1F
100
AcDbEntity
  8
0
100
AcDbLine
 10
8.642605630049854
 20
-4.0
 30
22.93209472552187
 11
40.6426056300505
 21
-4.0
 31
22.93209472552187
  0
LINE
  5
80
330
1F
100
AcDbEntity
  8
0
100
AcDbLine
 10
40.64260563005051
 20
-4.5
 30
24.93209472552187
 11
40.64260563005051
 21
-3.5
 31
24.93209472552187
  0
LINE
  5
81
330
1F
100
AcDbEntity
  8
0
100
AcDbLine
 10
40.64260563005051
 20
-4.0
 30
22.93209472552187
 11
40.64260563005051
 21
-4.0
 31
26.93209472552187
  0
LINE
  5
82
330
1F
100
AcDbEntity
  8
0
100
AcDbLine
 10
8.642605630049854
 20
-3.5
 30
24.93209472552187
 11
40.64260563005052
 21
-3.5
 31
24.93209472552187
  0
LINE
  5
83
330
1F
100
AcDbEntity
  8
0
100
AcDbLine
 10
24.64260563005018
 20
-3.5
 30
22.93209472552187
 11
24.64260563005018
 21
-3.5
 31
26.93209472552187
  0
LINE
  5
84
330
1F
100
AcDbEntity
  8
0
100
AcDbLine
 10
8.642605630049854
 20
-4.5
 30
24.93209472552187
 11
40.64260563005052
 21
-4.5
 31
24.93209472552187
  0
LINE
  5
85
330
1F
100
AcDbEntity
  8
0
100
AcDbLine
 10
24.64260563005018
 20
-4.5
 30
22.93209472552187
 11
24.64260563005018
 21
-4.5
 31
26.93209472552187
  0
SPLINE
  5
86
330
1F
100
AcDbEntity
  8
0
100
AcDbSpline
210
0.0
220
0.0
230
1.0
 70
    24
 71
     2
 72
     6
 73
     3
 74
     0
 42
0.000000001
 43
0.0000000001
 40
-5.375
 40
-5.375
 40
-5.375
 40
0.0
 40
0.0
 40
0.0
 10
46.5176056300505
 20
0.0000000000000003
 30
22.55709472552187
 10
46.51760563005051
 20
-0.0000000000000049
 30
25.24459472552187
 10
46.51760563005051
 20
-0.00000000000001
 30
27.93209472552187
  0
SPLINE
  5
87
330
1F
100
AcDbEntity
  8
0
100
AcDbSpline
210
0.0
220
0.0
230
1.0
 70
    24
 71
     2
 72
     6
 73
     3
 74
     0
 42
0.000000001
 43
0.0000000001
 40
-3.75
 40
-3.75
 40
-3.75
 40
0.0
 40
0.0
 40
0.0
 10
46.51760563005051
 20
-0.00000000000001
 30
27.93209472552187
 10
44.64260563005051
 20
-0.0000000000000102
 30
27.93209472552187
 10
42.7676056300505
 20
-0.0000000000000103
 30
27.93209472552187
  0
SPLINE
  5
88
330
1F
100
AcDbEntity
  8
0
100
AcDbSpline
210
0.0
220
0.0
230
1.0
 70
    24
 71
     2
 72
     6
 73
     3
 74
     0
 42
0.000000001
 43
0.0000000001
 40
0.0
 40
0.0
 40
0.0
 40
5.375
 40
5.375
 40
5.375
 10
42.7676056300505
 20
-0.0000000000000103
 30
27.93209472552187
 10
42.7676056300505
 20
-0.0000000000000048
 30
25.24459472552187
 10
42.7676056300505
 20
0.0000000000000006
 30
22.55709472552187
  0
SPLINE
  5
89
330
1F
100
AcDbEntity
  8
0
100
AcDbSpline
210
0.0
220
0.0
230
1.0
 70
    24
 71
     2
 72
     6
 73
     3
 74
     0
 42
0.000000001
 43
0.0000000001
 40
0.0
 40
0.0
 40
0.0
 40
3.75
 40
3.75
 40
3.75
 10
42.7676056300505
 20
0.0000000000000006
 30
22.55709472552187
 10
44.6426056300505
 20
0.0000000000000005
 30
22.55709472552187
 10
46.5176056300505
 20
0.0000000000000003
 30
22.55709472552187
  0
SPLINE
  5
8A
330
1F
100
AcDbEntity
  8
0
100
AcDbSpline
210
0.0
220
0.0
230
1.0
 70
    24
 71
     2
 72
     6
 73
     3
 74
     0
 42
0.000000001
 43
0.0000000001
 40
-1.571884695480472
 40
-1.571884695480472
 40
-1.571884695480472
 40
0.0
 40
0.0
 40
0.0
 10
46.51760563005051
 20
-0.00000000000001
 30
27.93209472552187
 10
46.51760563005051
 20
0.7859423477402228
 30
27.93209472552187
 10
46.5176056300505
 20
1.571884695480456
 30
27.93209472552187
  0
SPLINE
  5
8B
330
1F
100
AcDbEntity
  8
0
100
AcDbSpline
210
0.0
220
0.0
230
1.0
 70
    24
 71
     2
 72
     6
 73
     3
 74
     0
 42
0.000000001
 43
0.0000000001
 40
-3.75
 40
-3.75
 40
-3.75
 40
0.0
 40
0.0
 40
0.0
 10
46.5176056300505
 20
1.571884695480456
 30
27.93209472552187
 10
44.6426056300505
 20
1.571884695480456
 30
27.93209472552187
 10
42.7676056300505
 20
1.571884695480456
 30
27.93209472552187
  0
SPLINE
  5
8C
330
1F
100
AcDbEntity
  8
0
100
AcDbSpline
210
0.0
220
0.0
230
1.0
 70
    24
 71
     2
 72
     6
 73
     3
 74
     0
 42
0.000000001
 43
0.0000000001
 40
0.0
 40
0.0
 40
0.0
 40
1.571884695480472
 40
1.571884695480472
 40
1.571884695480472
 10
42.7676056300505
 20
1.571884695480456
 30
27.93209472552187
 10
42.7676056300505
 20
0.7859423477402229
 30
27.93209472552187
 10
42.7676056300505
 20
-0.0000000000000103
 30
27.93209472552187
  0
ARC
  5
8D
330
1F
100
AcDbEntity
  8
0
100
AcDbCircle
 10
7.448432120741892
 20
31.02066554628561
 30
46.5176056300506
 40
6.638755859061397
210
1.0
220
2.048501133456352E-15
230
3.130940524666173E-15
100
AcDbArc
 50
207.725326982315
 51
265.8831027946866
  0
LINE
  5
8E
330
1F
100
AcDbEntity
  8
0
100
AcDbLine
 10
46.5176056300505
 20
6.971825226611889
 30
24.3990399736118
 11
42.7676056300505
 21
6.971825226611889
 31
24.3990399736118
  0
ARC
  5
8F
330
1F
100
AcDbEntity
  8
0
100
AcDbCircle
 10
7.4484321207419
 20
31.02066554628563
 30
42.7676056300506
 40
6.6387558590614
210
1.0
220
2.048501133456349E-15
230
3.130940524666171E-15
100
AcDbArc
 50
207.7253269823151
 51
265.8831027946866
  0
ARC
  5
90
330
1F
100
AcDbEntity
  8
0
100
AcDbCircle
 10
6.899918270752884
 20
23.40398747414918
 30
46.51760563004881
 40
0.9976472758413134
210
1.0
220
-2.670228177651021E-14
230
-6.170248974731143E-14
100
AcDbArc
 50
47.33134088866343
 51
85.86673489242428
  0
LINE
  5
91
330
1F
100
AcDbEntity
  8
0
100
AcDbLine
 10
46.5176056300505
 20
7.576081263046111
 30
24.13754299000382
 11
42.7676056300505
 21
7.576081263046111
 31
24.13754299000382
  0
ARC
  5
92
330
1F
100
AcDbEntity
  8
0
100
AcDbCircle
 10
6.899918270752776
 20
23.40398747414895
 30
42.76760563004881
 40
0.9976472758413159
210
1.0
220
-2.670228177651093E-14
230
-6.170248974731217E-14
100
AcDbArc
 50
47.3313408886632
 51
85.86673489242389
  0
ARC
  5
93
330
1F
100
AcDbEntity
  8
0
100
AcDbCircle
 10
14.25962962831569
 20
31.47464022431887
 30
46.51760563005112
 40
9.924858415953057
210
1.0
220
1.351557678470680E-14
230
2.147075553196050E-14
100
AcDbArc
 50
227.6688148075293
 51
247.9513638139956
  0
LINE
  5
94
330
1F
100
AcDbEntity
  8
0
100
AcDbLine
 10
46.5176056300505
 20
10.53390220013138
 30
22.27563105443724
 11
42.7676056300505
 21
10.53390220013138
 31
22.27563105443724
  0
ARC
  5
95
330
1F
100
AcDbEntity
  8
0
100
AcDbCircle
 10
14.25962962831587
 20
31.47464022431917
 30
42.76760563005106
 40
9.924858415953187
210
1.0
220
1.201384603085040E-14
230
1.908511602840917E-14
100
AcDbArc
 50
227.6688148075294
 51
247.9513638139956
  0
SPLINE
  5
96
330
1F
100
AcDbEntity
  8
0
100
AcDbSpline
210
0.0
220
0.0
230
1.0
 70
    24
 71
     2
 72
     6
 73
     3
 74
     0
 42
0.000000001
 43
0.0000000001
 40
0.0000000000000007
 40
0.0000000000000007
 40
0.0000000000000007
 40
1.630131033999882
 40
1.630131033999882
 40
1.630131033999882
 10
46.5176056300505
 20
10.53390220013138
 30
22.27563105443724
 10
46.5176056300505
 20
11.28428175857754
 30
21.95741365191414
 10
46.5176056300505
 20
12.03466131702368
 30
21.63919624939105
  0
SPLINE
  5
97
330
1F
100
AcDbEntity
  8
0
100
AcDbSpline
210
0.0
220
0.0
230
1.0
 70
    24
 71
     2
 72
     6
 73
     3
 74
     0
 42
0.000000001
 43
0.0000000001
 40
-3.75
 40
-3.75
 40
-3.75
 40
0.0
 40
0.0
 40
0.0
 10
46.5176056300505
 20
12.03466131702368
 30
21.63919624939105
 10
44.6426056300505
 20
12.03466131702368
 30
21.63919624939105
 10
42.7676056300505
 20
12.03466131702368
 30
21.63919624939105
  0
SPLINE
  5
98
330
1F
100
AcDbEntity
  8
0
100
AcDbSpline
210
0.0
220
0.0
230
1.0
 70
    24
 71
     2
 72
     6
 73
     3
 74
     0
 42
0.000000001
 43
0.0000000001
 40
-1.630131033999882
 40
-1.630131033999882
 40
-1.630131033999882
 40
-0.0000000000000007
 40
-0.0000000000000007
 40
-0.0000000000000007
 10
42.7676056300505
 20
12.03466131702368
 30
21.63919624939105
 10
42.7676056300505
 20
11.28428175857754
 30
21.95741365191414
 10
42.7676056300505
 20
10.53390220013138
 30
22.27563105443724
  0
ARC
  5
99
330
1F
100
AcDbEntity
  8
0
100
AcDbCircle
 10
11.36495043976147
 20
20.14759496040243
 30
46.51760563005043
 40
1.635049560238584
210
1.0
220
-1.473329359478660E-15
230
-3.281445839265823E-15
100
AcDbArc
 50
323.8073515994902
 51
65.820498389534
  0
LINE
  5
9A
330
1F
100
AcDbEntity
  8
0
100
AcDbLine
 10
46.5176056300505
 20
12.6844944370886
 30
19.18209472552186
 11
42.7676056300505
 21
12.6844944370886
 31
19.18209472552186
  0
ARC
  5
9B
330
1F
100
AcDbEntity
  8
0
100
AcDbCircle
 10
11.36495043976154
 20
20.14759496040219
 30
42.76760563005052
 40
1.635049560238572
210
1.0
220
-2.902928679213611E-15
230
2.124050677581827E-15
100
AcDbArc
 50
323.8073515994899
 51
65.82049838953435
  0
SPLINE
  5
9C
330
1F
100
AcDbEntity
  8
0
100
AcDbSpline
210
0.0
220
0.0
230
1.0
 70
    24
 71
     2
 72
     6
 73
     3
 74
     0
 42
0.000000001
 43
0.0000000001
 40
-3.208655291266309
 40
-3.208655291266309
 40
-3.208655291266309
 40
0.0
 40
0.0
 40
0.0
 10
46.5176056300505
 20
12.6844944370886
 30
19.18209472552186
 10
46.5176056300505
 20
11.08016679145545
 30
19.18209472552186
 10
46.5176056300505
 20
9.475839145822295
 30
19.18209472552186
  0
SPLINE
  5
9D
330
1F
100
AcDbEntity
  8
0
100
AcDbSpline
210
0.0
220
0.0
230
1.0
 70
    24
 71
     2
 72
     6
 73
     3
 74
     0
 42
0.000000001
 43
0.0000000001
 40
-3.75
 40
-3.75
 40
-3.75
 40
0.0
 40
0.0
 40
0.0
 10
46.5176056300505
 20
9.475839145822295
 30
19.18209472552186
 10
44.6426056300505
 20
9.475839145822295
 30
19.18209472552186
 10
42.7676056300505
 20
9.475839145822295
 30
19.18209472552186
  0
SPLINE
  5
9E
330
1F
100
AcDbEntity
  8
0
100
AcDbSpline
210
0.0
220
0.0
230
1.0
 70
    24
 71
     2
 72
     6
 73
     3
 74
     0
 42
0.000000001
 43
0.0000000001
 40
0.0
 40
0.0
 40
0.0
 40
3.208655291266309
 40
3.208655291266309
 40
3.208655291266309
 10
42.7676056300505
 20
9.475839145822295
 30
19.18209472552186
 10
42.7676056300505
 20
11.08016679145545
 30
19.18209472552186
 10
42.7676056300505
 20
12.6844944370886
 30
19.18209472552186
  0
ARC
  5
9F
330
1F
100
AcDbEntity
  8
0
100
AcDbCircle
 10
8.028904239089819
 20
19.3607717855943
 30
46.51760563005048
 40
1.457925277961057
210
1.0
220
-5.667788185703008E-15
230
6.998958456407653E-16
100
AcDbArc
 50
352.9603773716066
 51
74.53070968123842
  0
LINE
  5
A0
330
1F
100
AcDbEntity
  8
0
100
AcDbLine
 10
46.5176056300505
 20
8.41776476084952
 30
20.76588160718636
 11
42.7676056300505
 21
8.41776476084952
 31
20.76588160718636
  0
ARC
  5
A1
330
1F
100
AcDbEntity
  8
0
100
AcDbCircle
 10
8.028904239089622
 20
19.36077178559457
 30
42.76760563005039
 40
1.457925277961056
210
1.0
220
-1.523205405344827E-15
230
-5.503955160234131E-15
100
AcDbArc
 50
352.9603773716065
 51
74.53070968123839
  0
ARC
  5
A2
330
1F
100
AcDbEntity
  8
0
100
AcDbCircle
 10
4.886696049363628
 20
8.123564388725931
 30
46.51760563004995
 40
13.12618112390069
210
1.0
220
-3.519765158824431E-15
230
-2.550429744864170E-14
100
AcDbArc
 50
74.39465931284133
 51
89.89019998702794
  0
LINE
  5
A3
330
1F
100
AcDbEntity
  8
0
100
AcDbLine
 10
46.5176056300505
 20
4.911850676593652
 30
21.24972140980962
 11
42.7676056300505
 21
4.911850676593652
 31
21.24972140980962
  0
ARC
  5
A4
330
1F
100
AcDbEntity
  8
0
100
AcDbCircle
 10
4.886696049363657
 20
8.123564388725983
 30
42.76760563004991
 40
13.12618112390063
210
1.0
220
-3.813078922059904E-15
230
-2.762965556936279E-14
100
AcDbArc
 50
74.39465931284137
 51
89.89019998702808
  0
ARC
  5
A5
330
1F
100
AcDbEntity
  8
0
100
AcDbCircle
 10
4.897986112631298
 20
24.44462847073908
 30
46.51760563005136
 40
3.19493714400176
210
1.0
220
8.683288090513798E-15
230
3.800749330606018E-14
100
AcDbArc
 50
244.0132181781771
 51
270.2486382226858
  0
LINE
  5
A6
330
1F
100
AcDbEntity
  8
0
100
AcDbLine
 10
46.5176056300505
 20
3.4980803681835
 30
21.57271495171159
 11
42.7676056300505
 21
3.4980803681835
 31
21.57271495171159
  0
ARC
  5
A7
330
1F
100
AcDbEntity
  8
0
100
AcDbCircle
 10
4.897986112631286
 20
24.44462847073904
 30
42.76760563005144
 40
3.194937144001753
210
1.0
220
9.648097878348097E-15
230
4.223054811784218E-14
100
AcDbArc
 50
244.0132181781771
 51
270.2486382226859
  0
ARC
  5
A8
330
1F
100
AcDbEntity
  8
0
100
AcDbCircle
 10
0.0953218927172369
 20
16.18827099924851
 30
46.51760563005032
 40
6.369537025528516
210
1.0
220
-2.342300489506894E-15
230
-8.323571427128690E-15
100
AcDbArc
 50
57.70871111329344
 51
90.85747928103716
  0
ARC
  5
A9
330
1F
100
AcDbEntity
  8
0
100
AcDbCircle
 10
0.0953218927173421
 20
16.18827099924888
 30
42.76760563005008
 40
6.369537025528566
210
1.0
220
-5.332821031322729E-15
230
-1.895064999608718E-14
100
AcDbArc
 50
57.70871111329355
 51
90.85747928103703
  0
LINE
  5
AA
330
1F
100
AcDbEntity
  8
0
100
AcDbLine
 10
42.76760563005051
 20
-0.0000000000000005
 30
25.24459472552187
 11
46.51760563005052
 21
0.0000000000000004
 31
25.24459472552187
  0
LINE
  5
AB
330
1F
100
AcDbEntity
  8
0
100
AcDbLine
 10
44.64260563005051
 20
0.0000000000000005
 30
22.55709472552187
 11
44.64260563005051
 21
-0.0000000000000005
 31
27.93209472552187
  0
LINE
  5
AC
330
1F
100
AcDbEntity
  8
0
100
AcDbLine
 10
42.76760563005052
 20
0.7859423477402196
 30
27.93209472552187
 11
46.51760563005051
 21
0.7859423477402205
 31
27.93209472552187
  0
LINE
  5
AD
330
1F
100
AcDbEntity
  8
0
100
AcDbLine
 10
44.64260563005052
 20
-0.0000000000000151
 30
27.93209472552187
 11
44.64260563005052
 21
1.571884695480455
 31
27.93209472552187
  0
ARC
  5
AE
330
1F
100
AcDbEntity
  8
0
100
AcDbCircle
 10
7.448432120741997
 20
31.02066554628577
 30
44.64260563005051
 40
6.638755859061409
210
1.0
220
0.0
230
0.0
100
AcDbArc
 50
207.7253269823151
 51
265.8831027946865
  0
ARC
  5
AF
330
1F
100
AcDbEntity
  8
0
100
AcDbCircle
 10
6.89991827075164
 20
23.40398747414631
 30
44.64260563005051
 40
0.9976472758413228
210
1.0
220
0.0
230
0.0
100
AcDbArc
 50
47.33134088866369
 51
85.86673489242423
  0
ARC
  5
B0
330
1F
100
AcDbEntity
  8
0
100
AcDbCircle
 10
14.25962962831646
 20
31.47464022432011
 30
44.64260563005051
 40
9.924858415953338
210
1.0
220
0.0
230
0.0
100
AcDbArc
 50
227.6688148075295
 51
247.9513638139954
  0
LINE
  5
B1
330
1F
100
AcDbEntity
  8
0
100
AcDbLine
 10
42.76760563005052
 20
11.28428175857754
 30
21.95741365191415
 11
46.5176056300505
 21
11.28428175857754
 31
21.95741365191415
  0
LINE
  5
B2
330
1F
100
AcDbEntity
  8
0
100
AcDbLine
 10
44.64260563005051
 20
10.53390220013139
 30
22.27563105443724
 11
44.64260563005051
 21
12.03466131702368
 31
21.63919624939106
  0
ARC
  5
B3
330
1F
100
AcDbEntity
  8
0
100
AcDbCircle
 10
11.36495043976141
 20
20.14759496040228
 30
44.64260563005051
 40
1.635049560238581
210
1.0
220
0.0
230
0.0
100
AcDbArc
 50
323.8073515994901
 51
65.82049838953411
  0
LINE
  5
B4
330
1F
100
AcDbEntity
  8
0
100
AcDbLine
 10
42.76760563005051
 20
12.99999999999999
 30
20.14759496040228
 11
46.51760563005051
 21
12.99999999999999
 31
20.14759496040228
  0
LINE
  5
B5
330
1F
100
AcDbEntity
  8
0
100
AcDbLine
 10
46.5176056300505
 20
11.08016679145545
 30
19.18209472552186
 11
42.76760563005052
 21
11.08016679145545
 31
19.18209472552186
  0
LINE
  5
B6
330
1F
100
AcDbEntity
  8
0
100
AcDbLine
 10
44.64260563005051
 20
9.475839145822297
 30
19.18209472552186
 11
44.64260563005051
 21
12.6844944370886
 31
19.18209472552186
  0
ARC
  5
B7
330
1F
100
AcDbEntity
  8
0
100
AcDbCircle
 10
8.028904239089563
 20
19.36077178559433
 30
44.64260563005051
 40
1.457925277961049
210
1.0
220
0.0
230
0.0
100
AcDbArc
 50
352.9603773716065
 51
74.53070968123856
  0
LINE
  5
B8
330
1F
100
AcDbEntity
  8
0
100
AcDbLine
 10
42.76760563005051
 20
9.486829517050612
 30
19.36077178559433
 11
46.51760563005051
 21
9.486829517050612
 31
19.36077178559433
  0
ARC
  5
B9
330
1F
100
AcDbEntity
  8
0
100
AcDbCircle
 10
4.886696049363437
 20
8.123564388724576
 30
44.64260563005051
 40
13.12618112390086
210
1.0
220
0.0
230
0.0
100
AcDbArc
 50
74.39465931284143
 51
89.89019998702784
  0
ARC
  5
BA
330
1F
100
AcDbEntity
  8
0
100
AcDbCircle
 10
4.897986112631719
 20
24.44462847074087
 30
44.64260563005051
 40
3.194937144001782
210
1.0
220
0.0
230
0.0
100
AcDbArc
 50
244.0132181781769
 51
270.2486382226855
  0
LINE
  5
BB
330
1F
100
AcDbEntity
  8
0
100
AcDbLine
 10
42.76760563005051
 20
4.89798611263172
 30
21.24969132673909
 11
46.51760563005051
 21
4.89798611263172
 31
21.24969132673909
  0
ARC
  5
BC
330
1F
100
AcDbEntity
  8
0
100
AcDbCircle
 10
0.0953218927171067
 20
16.18827099924808
 30
44.64260563005053
 40
6.36953702552856
210
1.0
220
2.498001805406602E-16
230
0.0
100
AcDbArc
 50
57.70871111329359
 51
90.85747928103707
  0
LINE
  5
BD
330
1F
100
AcDbEntity
  8
0
100
AcDbLine
 10
42.76760563005052
 20
0.0953218927171164
 30
22.55780802477664
 11
46.51760563005052
 21
0.0953218927171164
 31
22.55780802477664
  0
LINE
  5
BE
330
1F
100
AcDbEntity
  8
0
100
AcDbLine
 10
46.51760563005051
 20
-0.0000000000000037
 30
23.55709472552186
 11
46.51760563005051
 21
8.275042102748861
 31
23.55709472552186
  0
LINE
  5
BF
330
1F
100
AcDbEntity
  8
0
100
AcDbLine
 10
46.51760563005051
 20
6.572541206391829
 30
21.14103557980296
 11
46.51760563005051
 21
6.572541206391829
 31
24.43994412212709
  0
LINE
  5
C0
330
1F
100
AcDbEntity
  8
0
100
AcDbLine
 10
42.76760563005051
 20
-0.0000000000000028
 30
23.55709472552186
 11
42.76760563005051
 21
8.275042172524207
 31
23.55709472552186
  0
LINE
  5
C1
330
1F
100
AcDbEntity
  8
0
100
AcDbLine
 10
42.76760563005051
 20
6.572541206391827
 30
21.14103561027814
 11
42.76760563005051
 21
6.572541206391827
 31
24.43994420592142
  0
SPLINE
  5
C2
330
1F
100
AcDbEntity
  8
0
100
AcDbSpline
210
0.0
220
0.0
230
1.0
 70
    24
 71
     2
 72
     6
 73
     3
 74
     0
 42
0.000000001
 43
0.0000000001
 40
0.0
 40
0.0
 40
0.0
 40
5.375
 40
5.375
 40
5.375
 10
46.51760563005051
 20
-7.99999999999999
 30
27.93209472552187
 10
46.51760563005051
 20
-7.999999999999996
 30
25.24459472552187
 10
46.5176056300505
 20
-8.000000000000002
 30
22.55709472552187
  0
SPLINE
  5
C3
330
1F
100
AcDbEntity
  8
0
100
AcDbSpline
210
0.0
220
0.0
230
1.0
 70
    24
 71
     2
 72
     6
 73
     3
 74
     0
 42
0.000000001
 43
0.0000000001
 40
-3.75
 40
-3.75
 40
-3.75
 40
0.0
 40
0.0
 40
0.0
 10
46.5176056300505
 20
-8.000000000000002
 30
22.55709472552187
 10
44.6426056300505
 20
-8.0
 30
22.55709472552187
 10
42.7676056300505
 20
-8.0
 30
22.55709472552187
  0
SPLINE
  5
C4
330
1F
100
AcDbEntity
  8
0
100
AcDbSpline
210
0.0
220
0.0
230
1.0
 70
    24
 71
     2
 72
     6
 73
     3
 74
     0
 42
0.000000001
 43
0.0000000001
 40
-5.375
 40
-5.375
 40
-5.375
 40
0.0
 40
0.0
 40
0.0
 10
42.7676056300505
 20
-8.0
 30
22.55709472552187
 10
42.7676056300505
 20
-7.999999999999995
 30
25.24459472552187
 10
42.7676056300505
 20
-7.99999999999999
 30
27.93209472552187
  0
SPLINE
  5
C5
330
1F
100
AcDbEntity
  8
0
100
AcDbSpline
210
0.0
220
0.0
230
1.0
 70
    24
 71
     2
 72
     6
 73
     3
 74
     0
 42
0.000000001
 43
0.0000000001
 40
0.0
 40
0.0
 40
0.0
 40
3.75
 40
3.75
 40
3.75
 10
42.7676056300505
 20
-7.99999999999999
 30
27.93209472552187
 10
44.64260563005051
 20
-7.99999999999999
 30
27.93209472552187
 10
46.51760563005051
 20
-7.99999999999999
 30
27.93209472552187
  0
SPLINE
  5
C6
330
1F
100
AcDbEntity
  8
0
100
AcDbSpline
210
0.0
220
0.0
230
1.0
 70
    24
 71
     2
 72
     6
 73
     3
 74
     0
 42
0.000000001
 43
0.0000000001
 40
0.0
 40
0.0
 40
0.0
 40
1.571884695480472
 40
1.571884695480472
 40
1.571884695480472
 10
46.51760563005051
 20
-9.571884695480456
 30
27.93209472552187
 10
46.51760563005051
 20
-8.785942347740223
 30
27.93209472552187
 10
46.51760563005051
 20
-7.99999999999999
 30
27.93209472552187
  0
SPLINE
  5
C7
330
1F
100
AcDbEntity
  8
0
100
AcDbSpline
210
0.0
220
0.0
230
1.0
 70
    24
 71
     2
 72
     6
 73
     3
 74
     0
 42
0.000000001
 43
0.0000000001
 40
-1.571884695480472
 40
-1.571884695480472
 40
-1.571884695480472
 40
0.0
 40
0.0
 40
0.0
 10
42.7676056300505
 20
-7.99999999999999
 30
27.93209472552187
 10
42.7676056300505
 20
-8.785942347740223
 30
27.93209472552187
 10
42.7676056300505
 20
-9.571884695480456
 30
27.93209472552187
  0
SPLINE
  5
C8
330
1F
100
AcDbEntity
  8
0
100
AcDbSpline
210
0.0
220
0.0
230
1.0
 70
    24
 71
     2
 72
     6
 73
     3
 74
     0
 42
0.000000001
 43
0.0000000001
 40
0.0
 40
0.0
 40
0.0
 40
3.75
 40
3.75
 40
3.75
 10
42.7676056300505
 20
-9.571884695480456
 30
27.93209472552187
 10
44.64260563005051
 20
-9.571884695480456
 30
27.93209472552187
 10
46.51760563005051
 20
-9.571884695480456
 30
27.93209472552187
  0
ARC
  5
C9
330
1F
100
AcDbEntity
  8
0
100
AcDbCircle
 10
-15.44843212074169
 20
31.0206655462853
 30
46.51760563005087
 40
6.638755859061431
210
1.0
220
-6.827048671038978E-15
230
1.043449915595554E-14
100
AcDbArc
 50
274.1168972053136
 51
332.2746730176848
  0
ARC
  5
CA
330
1F
100
AcDbEntity
  8
0
100
AcDbCircle
 10
-15.44843212074194
 20
31.02066554628567
 30
42.76760563005061
 40
6.638755859061455
210
1.0
220
-2.048501133456353E-15
230
3.130940524666170E-15
100
AcDbArc
 50
274.1168972053136
 51
332.2746730176847
  0
LINE
  5
CB
330
1F
100
AcDbEntity
  8
0
100
AcDbLine
 10
42.7676056300505
 20
-14.97182522661189
 30
24.3990399736118
 11
46.51760563005051
 21
-14.97182522661189
 31
24.3990399736118
  0
ARC
  5
CC
330
1F
100
AcDbEntity
  8
0
100
AcDbCircle
 10
-14.89991827075354
 20
23.40398747415074
 30
46.51760563004758
 40
0.9976472758412958
210
1.0
220
4.098690905975415E-14
230
-9.471079502494585E-14
100
AcDbArc
 50
94.1332651075759
 51
132.6686591113377
  0
ARC
  5
CD
330
1F
100
AcDbEntity
  8
0
100
AcDbCircle
 10
-14.89991827075255
 20
23.40398747414843
 30
42.76760563004898
 40
0.9976472758413102
210
1.0
220
2.136182542120780E-14
230
-4.936199179784725E-14
100
AcDbArc
 50
94.13326510757602
 51
132.6686591113373
  0
LINE
  5
CE
330
1F
100
AcDbEntity
  8
0
100
AcDbLine
 10
42.7676056300505
 20
-15.57608126304611
 30
24.13754299000382
 11
46.51760563005051
 21
-15.57608126304611
 31
24.13754299000382
  0
ARC
  5
CF
330
1F
100
AcDbEntity
  8
0
100
AcDbCircle
 10
-22.25962962831445
 20
31.47464022431692
 30
46.51760563005266
 40
9.924858415953059
210
1.0
220
-3.998740982346272E-14
230
6.352373371496542E-14
100
AcDbArc
 50
292.0486361860042
 51
312.3311851924707
  0
ARC
  5
D0
330
1F
100
AcDbEntity
  8
0
100
AcDbCircle
 10
-22.25962962831609
 20
31.47464022431949
 30
42.76760563005116
 40
9.92485841595357
210
1.0
220
-1.201384603085023E-14
230
1.908511602840887E-14
100
AcDbArc
 50
292.0486361860049
 51
312.3311851924702
  0
LINE
  5
D1
330
1F
100
AcDbEntity
  8
0
100
AcDbLine
 10
42.7676056300505
 20
-18.53390220013139
 30
22.27563105443724
 11
46.51760563005051
 21
-18.53390220013139
 31
22.27563105443724
  0
SPLINE
  5
D2
330
1F
100
AcDbEntity
  8
0
100
AcDbSpline
210
0.0
220
0.0
230
1.0
 70
    24
 71
     2
 72
     6
 73
     3
 74
     0
 42
0.000000001
 43
0.0000000001
 40
-1.630131033999882
 40
-1.630131033999882
 40
-1.630131033999882
 40
-0.0000000000000007
 40
-0.0000000000000007
 40
-0.0000000000000007
 10
46.51760563005051
 20
-20.03466131702368
 30
21.63919624939105
 10
46.51760563005051
 20
-19.28428175857754
 30
21.95741365191414
 10
46.51760563005051
 20
-18.53390220013139
 30
22.27563105443724
  0
SPLINE
  5
D3
330
1F
100
AcDbEntity
  8
0
100
AcDbSpline
210
0.0
220
0.0
230
1.0
 70
    24
 71
     2
 72
     6
 73
     3
 74
     0
 42
0.000000001
 43
0.0000000001
 40
0.0000000000000007
 40
0.0000000000000007
 40
0.0000000000000007
 40
1.630131033999882
 40
1.630131033999882
 40
1.630131033999882
 10
42.7676056300505
 20
-18.53390220013139
 30
22.27563105443724
 10
42.7676056300505
 20
-19.28428175857754
 30
21.95741365191414
 10
42.7676056300505
 20
-20.03466131702368
 30
21.63919624939105
  0
SPLINE
  5
D4
330
1F
100
AcDbEntity
  8
0
100
AcDbSpline
210
0.0
220
0.0
230
1.0
 70
    24
 71
     2
 72
     6
 73
     3
 74
     0
 42
0.000000001
 43
0.0000000001
 40
0.0
 40
0.0
 40
0.0
 40
3.75
 40
3.75
 40
3.75
 10
42.7676056300505
 20
-20.03466131702368
 30
21.63919624939105
 10
44.64260563005051
 20
-20.03466131702368
 30
21.63919624939105
 10
46.51760563005051
 20
-20.03466131702368
 30
21.63919624939105
  0
ARC
  5
D5
330
1F
100
AcDbEntity
  8
0
100
AcDbCircle
 10
-19.36495043976231
 20
20.14759496040252
 30
46.51760563005001
 40
1.635049560238576
210
1.0
220
1.943922076963051E-14
230
-5.141118249142489E-15
100
AcDbArc
 50
114.1795016104659
 51
216.1926484005099
  0
ARC
  5
D6
330
1F
100
AcDbEntity
  8
0
100
AcDbCircle
 10
-19.36495043976147
 20
20.14759496040242
 30
42.76760563005042
 40
1.635049560238579
210
1.0
220
1.473329359478652E-15
230
-3.281445839265831E-15
100
AcDbArc
 50
114.1795016104659
 51
216.1926484005097
  0
LINE
  5
D7
330
1F
100
AcDbEntity
  8
0
100
AcDbLine
 10
42.7676056300505
 20
-20.6844944370886
 30
19.18209472552186
 11
46.51760563005051
 21
-20.6844944370886
 31
19.18209472552186
  0
SPLINE
  5
D8
330
1F
100
AcDbEntity
  8
0
100
AcDbSpline
210
0.0
220
0.0
230
1.0
 70
    24
 71
     2
 72
     6
 73
     3
 74
     0
 42
0.000000001
 43
0.0000000001
 40
0.0
 40
0.0
 40
0.0
 40
3.208655291266309
 40
3.208655291266309
 40
3.208655291266309
 10
46.51760563005051
 20
-17.4758391458223
 30
19.18209472552186
 10
46.51760563005051
 20
-19.08016679145545
 30
19.18209472552186
 10
46.51760563005051
 20
-20.6844944370886
 30
19.18209472552186
  0
SPLINE
  5
D9
330
1F
100
AcDbEntity
  8
0
100
AcDbSpline
210
0.0
220
0.0
230
1.0
 70
    24
 71
     2
 72
     6
 73
     3
 74
     0
 42
0.000000001
 43
0.0000000001
 40
-3.208655291266309
 40
-3.208655291266309
 40
-3.208655291266309
 40
0.0
 40
0.0
 40
0.0
 10
42.7676056300505
 20
-20.6844944370886
 30
19.18209472552186
 10
42.7676056300505
 20
-19.08016679145545
 30
19.18209472552186
 10
42.7676056300505
 20
-17.4758391458223
 30
19.18209472552186
  0
SPLINE
  5
DA
330
1F
100
AcDbEntity
  8
0
100
AcDbSpline
210
0.0
220
0.0
230
1.0
 70
    24
 71
     2
 72
     6
 73
     3
 74
     0
 42
0.000000001
 43
0.0000000001
 40
0.0
 40
0.0
 40
0.0
 40
3.75
 40
3.75
 40
3.75
 10
42.7676056300505
 20
-17.4758391458223
 30
19.18209472552186
 10
44.64260563005051
 20
-17.4758391458223
 30
19.18209472552186
 10
46.51760563005051
 20
-17.4758391458223
 30
19.18209472552186
  0
ARC
  5
DB
330
1F
100
AcDbEntity
  8
0
100
AcDbCircle
 10
-16.02890423909075
 20
19.36077178559534
 30
46.51760563004964
 40
1.457925277961048
210
1.0
220
2.556174166618222E-14
230
-2.156328723596165E-14
100
AcDbArc
 50
105.4692903187616
 51
187.0396226283938
  0
ARC
  5
DC
330
1F
100
AcDbEntity
  8
0
100
AcDbCircle
 10
-16.02890423908982
 20
19.3607717855945
 30
42.76760563005032
 40
1.457925277961052
210
1.0
220
6.136828065812682E-15
230
-4.099807023653510E-15
100
AcDbArc
 50
105.4692903187618
 51
187.0396226283935
  0
LINE
  5
DD
330
1F
100
AcDbEntity
  8
0
100
AcDbLine
 10
42.7676056300505
 20
-16.41776476084952
 30
20.76588160718636
 11
46.51760563005051
 21
-16.41776476084952
 31
20.76588160718636
  0
ARC
  5
DE
330
1F
100
AcDbEntity
  8
0
100
AcDbCircle
 10
-12.88669604936364
 20
8.123564388725868
 30
46.51760563004997
 40
13.12618112390063
210
1.0
220
3.164112104180789E-15
230
-2.292722742128273E-14
100
AcDbArc
 50
90.10980001297195
 51
105.6053406871586
  0
ARC
  5
DF
330
1F
100
AcDbEntity
  8
0
100
AcDbCircle
 10
-12.88669604936369
 20
8.12356438872628
 30
42.76760563004981
 40
13.12618112390042
210
1.0
220
4.106392685295286E-15
230
-2.975501369008306E-14
100
AcDbArc
 50
90.10980001297185
 51
105.6053406871588
  0
LINE
  5
E0
330
1F
100
AcDbEntity
  8
0
100
AcDbLine
 10
42.7676056300505
 20
-12.91185067659365
 30
21.24972140980961
 11
46.51760563005051
 21
-12.91185067659365
 31
21.24972140980961
  0
ARC
  5
E1
330
1F
100
AcDbEntity
  8
0
100
AcDbCircle
 10
-12.89798611263052
 20
24.44462847073562
 30
46.51760563005315
 40
3.194937144001636
210
1.0
220
-2.505038517766663E-14
230
1.096476745939735E-13
100
AcDbArc
 50
269.7513617773138
 51
295.9867818218235
  0
ARC
  5
E2
330
1F
100
AcDbEntity
  8
0
100
AcDbCircle
 10
-12.89798611263135
 20
24.44462847073928
 30
42.76760563005132
 40
3.194937144001639
210
1.0
220
-7.718478302679133E-15
230
3.378443849427620E-14
100
AcDbArc
 50
269.7513617773138
 51
295.9867818218235
  0
LINE
  5
E3
330
1F
100
AcDbEntity
  8
0
100
AcDbLine
 10
42.7676056300505
 20
-11.4980803681835
 30
21.57271495171159
 11
46.51760563005051
 21
-11.4980803681835
 31
21.57271495171159
  0
ARC
  5
E4
330
1F
100
AcDbEntity
  8
0
100
AcDbCircle
 10
-8.095321892717111
 20
16.18827099924775
 30
46.5176056300507
 40
6.369537025528527
210
1.0
220
-1.754903998027006E-16
230
7.841797531125628E-15
100
AcDbArc
 50
89.14252071896294
 51
122.2912888867067
  0
ARC
  5
E5
330
1F
100
AcDbEntity
  8
0
100
AcDbCircle
 10
-8.095321892717216
 20
16.18827099924842
 30
42.7676056300503
 40
6.369537025528566
210
1.0
220
2.316999755163138E-15
230
-8.233663035608269E-15
100
AcDbArc
 50
89.14252071896296
 51
122.2912888867064
  0
LINE
  5
E6
330
1F
100
AcDbEntity
  8
0
100
AcDbLine
 10
42.76760563005051
 20
-8.0
 30
25.24459472552187
 11
46.51760563005052
 21
-8.000000000000002
 31
25.24459472552187
  0
LINE
  5
E7
330
1F
100
AcDbEntity
  8
0
100
AcDbLine
 10
44.64260563005051
 20
-8.0
 30
27.93209472552187
 11
44.64260563005051
 21
-8.0
 31
22.55709472552187
  0
LINE
  5
E8
330
1F
100
AcDbEntity
  8
0
100
AcDbLine
 10
42.76760563005052
 20
-8.785942347740221
 30
27.93209472552187
 11
46.51760563005051
 21
-8.785942347740221
 31
27.93209472552187
  0
LINE
  5
E9
330
1F
100
AcDbEntity
  8
0
100
AcDbLine
 10
44.64260563005052
 20
-9.571884695480456
 30
27.93209472552187
 11
44.64260563005052
 21
-7.999999999999987
 31
27.93209472552187
  0
ARC
  5
EA
330
1F
100
AcDbEntity
  8
0
100
AcDbCircle
 10
-15.448432120742
 20
31.02066554628577
 30
44.64260563005051
 40
6.638755859061408
210
1.0
220
0.0
230
0.0
100
AcDbArc
 50
274.1168972053135
 51
332.2746730176849
  0
ARC
  5
EB
330
1F
100
AcDbEntity
  8
0
100
AcDbCircle
 10
-14.89991827075164
 20
23.40398747414631
 30
44.64260563005051
 40
0.9976472758413237
210
1.0
220
0.0
230
0.0
100
AcDbArc
 50
94.1332651075758
 51
132.6686591113364
  0
ARC
  5
EC
330
1F
100
AcDbEntity
  8
0
100
AcDbCircle
 10
-22.25962962831647
 20
31.47464022432011
 30
44.64260563005051
 40
9.924858415953338
210
1.0
220
0.0
230
0.0
100
AcDbArc
 50
292.0486361860046
 51
312.3311851924705
  0
LINE
  5
ED
330
1F
100
AcDbEntity
  8
0
100
AcDbLine
 10
42.76760563005052
 20
-19.28428175857754
 30
21.95741365191415
 11
46.5176056300505
 21
-19.28428175857754
 31
21.95741365191415
  0
LINE
  5
EE
330
1F
100
AcDbEntity
  8
0
100
AcDbLine
 10
44.64260563005051
 20
-20.03466131702369
 30
21.63919624939106
 11
44.64260563005051
 21
-18.53390220013139
 31
22.27563105443724
  0
ARC
  5
EF
330
1F
100
AcDbEntity
  8
0
100
AcDbCircle
 10
-19.36495043976141
 20
20.14759496040228
 30
44.64260563005051
 40
1.635049560238581
210
1.0
220
0.0
230
0.0
100
AcDbArc
 50
114.1795016104659
 51
216.1926484005098
  0
LINE
  5
F0
330
1F
100
AcDbEntity
  8
0
100
AcDbLine
 10
46.51760563005051
 20
-20.99999999999999
 30
20.14759496040228
 11
42.76760563005051
 21
-20.99999999999999
 31
20.14759496040228
  0
LINE
  5
F1
330
1F
100
AcDbEntity
  8
0
100
AcDbLine
 10
46.5176056300505
 20
-19.08016679145545
 30
19.18209472552186
 11
42.76760563005052
 21
-19.08016679145545
 31
19.18209472552186
  0
LINE
  5
F2
330
1F
100
AcDbEntity
  8
0
100
AcDbLine
 10
44.64260563005051
 20
-20.6844944370886
 30
19.18209472552186
 11
44.64260563005051
 21
-17.4758391458223
 31
19.18209472552186
  0
ARC
  5
F3
330
1F
100
AcDbEntity
  8
0
100
AcDbCircle
 10
-16.02890423908956
 20
19.36077178559433
 30
44.64260563005051
 40
1.457925277961046
210
1.0
220
0.0
230
0.0
100
AcDbArc
 50
105.4692903187615
 51
187.0396226283935
  0
LINE
  5
F4
330
1F
100
AcDbEntity
  8
0
100
AcDbLine
 10
46.51760563005051
 20
-17.48682951705061
 30
19.36077178559433
 11
42.76760563005051
 21
-17.48682951705061
 31
19.36077178559433
  0
ARC
  5
F5
330
1F
100
AcDbEntity
  8
0
100
AcDbCircle
 10
-12.88669604936344
 20
8.123564388724574
 30
44.64260563005051
 40
13.12618112390086
210
1.0
220
0.0
230
0.0
100
AcDbArc
 50
90.10980001297219
 51
105.6053406871586
  0
ARC
  5
F6
330
1F
100
AcDbEntity
  8
0
100
AcDbCircle
 10
-12.89798611263172
 20
24.44462847074087
 30
44.64260563005051
 40
3.194937144001784
210
1.0
220
0.0
230
0.0
100
AcDbArc
 50
269.7513617773145
 51
295.986781821823
  0
LINE
  5
F7
330
1F
100
AcDbEntity
  8
0
100
AcDbLine
 10
46.51760563005051
 20
-12.89798611263172
 30
21.24969132673908
 11
42.76760563005051
 21
-12.89798611263172
 31
21.24969132673908
  0
ARC
  5
F8
330
1F
100
AcDbEntity
  8
0
100
AcDbCircle
 10
-8.095321892717116
 20
16.18827099924808
 30
44.64260563005051
 40
6.36953702552856
210
1.0
220
0.0
230
0.0
100
AcDbArc
 50
89.14252071896296
 51
122.2912888867065
  0
LINE
  5
F9
330
1F
100
AcDbEntity
  8
0
100
AcDbLine
 10
46.51760563005052
 20
-8.095321892717116
 30
22.55780802477663
 11
42.76760563005051
 21
-8.095321892717116
 31
22.55780802477663
  0
LINE
  5
FA
330
1F
100
AcDbEntity
  8
0
100
AcDbLine
 10
46.51760563005051
 20
-7.999999999999997
 30
23.55709472552187
 11
46.51760563005051
 21
-16.27504210274886
 31
23.55709472552187
  0
LINE
  5
FB
330
1F
100
AcDbEntity
  8
0
100
AcDbLine
 10
46.51760563005051
 20
-14.57254120639183
 30
24.43994420592141
 11
46.51760563005051
 21
-14.57254120639183
 31
21.14103555288307
  0
LINE
  5
FC
330
1F
100
AcDbEntity
  8
0
100
AcDbLine
 10
42.76760563005051
 20
-7.999999999999998
 30
23.55709472552187
 11
42.76760563005051
 21
-16.27504217252421
 31
23.55709472552187
  0
LINE
  5
FD
330
1F
100
AcDbEntity
  8
0
100
AcDbLine
 10
42.76760563005051
 20
-14.57254120639183
 30
24.43994420592141
 11
42.76760563005051
 21
-14.57254120639183
 31
21.14103557980296
  0
LINE
  5
FE
330
1F
100
AcDbEntity
  8
0
100
AcDbLine
 10
42.64260563005051
 20
-6.000000000000002
 30
29.68209472552186
 11
46.64260563005051
 21
-6.000000000000002
 31
29.68209472552186
  0
SPLINE
  5
FF
330
1F
100
AcDbEntity
  8
0
100
AcDbSpline
 70
     0
 71
     3
 72
    20
 73
    16
 74
     0
 42
0.000000001
 43
0.0000000001
 40
5.39760207909759
 40
5.39760207909759
 40
5.39760207909759
 40
5.39760207909759
 40
5.600767143664259
 40
5.600767143664259
 40
5.80395286775289
 40
5.80395286775289
 40
5.905562044793496
 40
5.905562044793496
 40
6.007202289498761
 40
6.007202289498761
 40
6.108929212707018
 40
6.108929212707018
 40
6.160030319977025
 40
6.160030319977025
 40
6.21113141506358
 40
6.21113141506358
 40
6.21113141506358
 40
6.21113141506358
 10
46.64260563005051
 20
-6.000000000000002
 30
29.68209472552186
 10
46.80173891668134
 20
-6.159133286630825
 30
29.81073296150364
 10
46.96031259014424
 20
-6.317725489305856
 30
29.95559294003089
 10
47.27540796140847
 20
-6.632744672702493
 30
30.290997124356
 10
47.43201453367376
 20
-6.789320873792868
 30
30.48095442106384
 10
47.66348163885752
 20
-7.020888627142698
 30
30.82255688837483
 10
47.74008127901579
 20
-7.097389323517683
 30
30.94580748172713
 10
47.89107285425181
 20
-7.248458446692275
 30
31.22031724202145
 10
47.96565390094077
 20
-7.322912946525099
 30
31.37094444468296
 10
48.11015309857925
 20
-7.4675664235141
 30
31.71789867667124
 10
48.180292148646
 20
-7.537702016935645
 30
31.911587388924
 10
48.27645469680487
 20
-7.633841154037881
 30
32.2739127805836
 10
48.30614847544594
 20
-7.663423152080994
 30
32.40310719995247
 10
48.35855584212428
 20
-7.716030454340643
 30
32.70469655219551
 10
48.38001330121786
 20
-7.737407671205601
 30
32.86579726771146
 10
48.39260563005051
 20
-7.749999999999998
 30
33.05709472552187
  0
LINE
  5
100
330
1F
100
AcDbEntity
  8
0
100
AcDbLine
 10
48.39260563005051
 20
-7.749999999999998
 30
33.05709472552187
 11
40.89260563005051
 21
-7.749999999999997
 31
33.05709472552186
  0
SPLINE
  5
101
330
1F
100
AcDbEntity
  8
0
100
AcDbSpline
210
0.0
220
0.0
230
1.0
 70
    24
 71
     2
 72
     6
 73
     3
 74
     0
 42
0.000000001
 43
0.0000000001
 40
-0.1874999999999964
 40
-0.1874999999999964
 40
-0.1874999999999964
 40
0.1874999999999964
 40
0.1874999999999964
 40
0.1874999999999964
 10
42.64260563005051
 20
-6.000000000000002
 30
29.68209472552186
 10
42.64260563005051
 20
-6.000000000000002
 30
29.49459472552187
 10
42.64260563005051
 20
-6.000000000000002
 30
29.30709472552187
  0
SPLINE
  5
102
330
1F
100
AcDbEntity
  8
0
100
AcDbSpline
210
0.0
220
0.0
230
1.0
 70
    24
 71
     2
 72
     6
 73
     3
 74
     0
 42
0.000000001
 43
0.0000000001
 40
2.0
 40
2.0
 40
2.0
 40
6.0
 40
6.0
 40
6.0
 10
42.64260563005051
 20
-6.000000000000002
 30
29.30709472552187
 10
44.64260563005051
 20
-6.000000000000004
 30
29.30709472552187
 10
46.6426056300505
 20
-6.000000000000004
 30
29.30709472552187
  0
SPLINE
  5
103
330
1F
100
AcDbEntity
  8
0
100
AcDbSpline
210
0.0
220
0.0
230
1.0
 70
    24
 71
     2
 72
     6
 73
     3
 74
     0
 42
0.000000001
 43
0.0000000001
 40
-0.3749999999999929
 40
-0.3749999999999929
 40
-0.3749999999999929
 40
0.0
 40
0.0
 40
0.0
 10
46.6426056300505
 20
-6.000000000000004
 30
29.30709472552187
 10
46.64260563005051
 20
-6.000000000000004
 30
29.49459472552187
 10
46.64260563005051
 20
-6.000000000000002
 30
29.68209472552186
  0
SPLINE
  5
104
330
1F
100
AcDbEntity
  8
0
100
AcDbSpline
 70
     0
 71
     3
 72
    24
 73
    20
 74
     0
 42
0.000000001
 43
0.0000000001
 40
2.440565248629417
 40
2.440565248629417
 40
2.440565248629417
 40
2.440565248629417
 40
2.63950430613943
 40
2.63950430613943
 40
2.838471204304541
 40
2.838471204304541
 40
2.937958177526544
 40
2.937958177526544
 40
3.037382469452673
 40
3.037382469452673
 40
3.087136162643612
 40
3.087136162643612
 40
3.136889855834551
 40
3.136889855834551
 40
3.164005476308082
 40
3.164005476308082
 40
3.191121096781614
 40
3.191121096781614
 40
3.245352337728676
 40
3.245352337728676
 40
3.245352337728676
 40
3.245352337728676
 10
48.39260563005051
 20
-7.749999999999998
 30
33.05709472552187
 10
48.23814318315582
 20
-7.595537553105304
 30
33.24180070591922
 10
48.08420008769951
 20
-7.441536960191191
 30
33.44513951097039
 10
47.77793840305567
 20
-7.135402900908486
 30
33.90879545672288
 10
47.62558486580021
 20
-6.982981413258578
 30
34.16815791995214
 10
47.40053839793794
 20
-6.758094754538908
 30
34.63525975895006
 10
47.32604830374038
 20
-6.68343750236113
 30
34.80485146459015
 10
47.17933350341309
 20
-6.536749479851201
 30
35.18696761155798
 10
47.10693574924195
 20
-6.464318665207061
 30
35.39891672591734
 10
47.00317870966791
 20
-6.360598100365753
 30
35.78030288225062
 10
46.96932513601093
 20
-6.326753817820269
 30
35.9185928831557
 10
46.90532435747151
 20
-6.262714694640009
 30
36.23093232815337
 10
46.87473566470712
 20
-6.232104521297521
 30
36.40602102542461
 10
46.83554956320248
 20
-6.19298491892317
 30
36.72287348776424
 10
46.82305694989543
 20
-6.180451289951446
 30
36.8489356746127
 10
46.80547960394328
 20
-6.162874056701817
 30
37.10182115842849
 10
46.80023942419492
 20
-6.157634061696109
 30
37.22795734197211
 10
46.79492070909771
 20
-6.152315772133113
 30
37.6049935191961
 10
46.80524399789674
 20
-6.162638367846211
 30
37.85451311625711
 10
46.82878663746556
 20
-6.186181007415029
 30
38.10109451274867
  0
LINE
  5
105
330
1F
100
AcDbEntity
  8
0
100
AcDbLine
 10
46.82878663746556
 20
-6.186181007415029
 30
38.10109451274867
 11
42.45642462263548
 21
-6.186181007415029
 31
38.10109451274867
  0
SPLINE
  5
106
330
1F
100
AcDbEntity
  8
0
100
AcDbSpline
 70
     0
 71
     3
 72
    18
 73
    14
 74
     0
 42
0.000000001
 43
0.0000000001
 40
3.265553689383177
 40
3.265553689383177
 40
3.265553689383177
 40
3.265553689383177
 40
3.409624997000116
 40
3.409624997000116
 40
3.557415695628206
 40
3.557415695628206
 40
3.705573941738515
 40
3.705573941738515
 40
3.853648362994735
 40
3.853648362994735
 40
4.149740018405721
 40
4.149740018405721
 40
4.44593746957537
 40
4.44593746957537
 40
4.44593746957537
 40
4.44593746957537
 10
46.82878663746556
 20
-6.186181007415029
 30
38.10109451274867
 10
46.8538718260024
 20
-6.211266195951881
 30
38.31995206765943
 10
46.90491271805374
 20
-6.262607429620038
 30
38.50938400057862
 10
47.02561294881362
 20
-6.382894953850185
 30
38.83406130720518
 10
47.09383219615582
 20
-6.451290308383087
 30
38.96781885967967
 10
47.23945404178993
 20
-6.596795408891764
 30
39.20744207483232
 10
47.31586842745257
 20
-6.673282390319254
 30
39.31066987331418
 10
47.47290591296588
 20
-6.830282488794213
 30
39.4949303780596
 10
47.55312912327584
 20
-6.910564556216063
 30
39.57547082751948
 10
47.79736200749439
 20
-7.154699133638816
 30
39.79140848593209
 10
47.96439773767693
 20
-7.321750029709482
 30
39.90151002809878
 10
48.30139896392188
 20
-7.659046258594769
 30
40.07519539590727
 10
48.47161188401542
 20
-7.829006254085504
 30
40.13823162271817
 10
48.64260563005051
 20
-8.000000000000002
 30
40.18209472552187
  0
LINE
  5
107
330
1F
100
AcDbEntity
  8
0
100
AcDbLine
 10
48.64260563005051
 20
-8.000000000000002
 30
40.18209472552187
 11
40.64260563005051
 21
-8.0
 31
40.18209472552187
  0
SPLINE
  5
108
330
1F
100
AcDbEntity
  8
0
100
AcDbSpline
210
0.0
220
0.0
230
1.0
 70
    24
 71
     2
 72
     6
 73
     3
 74
     0
 42
0.000000001
 43
0.0000000001
 40
0.0
 40
0.0
 40
0.0
 40
0.3749999999999964
 40
0.3749999999999964
 40
0.3749999999999964
 10
42.64260563005051
 20
-1.999999999999997
 30
29.30709472552187
 10
42.64260563005051
 20
-1.999999999999997
 30
29.49459472552187
 10
42.64260563005051
 20
-1.999999999999998
 30
29.68209472552186
  0
SPLINE
  5
109
330
1F
100
AcDbEntity
  8
0
100
AcDbSpline
210
0.0
220
0.0
230
1.0
 70
    24
 71
     2
 72
     6
 73
     3
 74
     0
 42
0.000000001
 43
0.0000000001
 40
2.0
 40
2.0
 40
2.0
 40
6.000000000000004
 40
6.000000000000004
 40
6.000000000000004
 10
42.64260563005051
 20
-1.999999999999998
 30
29.68209472552186
 10
44.64260563005051
 20
-1.999999999999997
 30
29.68209472552186
 10
46.64260563005051
 20
-1.999999999999997
 30
29.68209472552186
  0
SPLINE
  5
10A
330
1F
100
AcDbEntity
  8
0
100
AcDbSpline
210
0.0
220
0.0
230
1.0
 70
    24
 71
     2
 72
     6
 73
     3
 74
     0
 42
0.000000001
 43
0.0000000001
 40
-0.1875
 40
-0.1875
 40
-0.1875
 40
0.1874999999999964
 40
0.1874999999999964
 40
0.1874999999999964
 10
46.64260563005051
 20
-1.999999999999997
 30
29.68209472552186
 10
46.64260563005051
 20
-1.999999999999997
 30
29.49459472552187
 10
46.6426056300505
 20
-1.999999999999997
 30
29.30709472552187
  0
SPLINE
  5
10B
330
1F
100
AcDbEntity
  8
0
100
AcDbSpline
210
0.0
220
0.0
230
1.0
 70
    24
 71
     2
 72
     6
 73
     3
 74
     0
 42
0.000000001
 43
0.0000000001
 40
-6.0
 40
-6.0
 40
-6.0
 40
-2.0
 40
-2.0
 40
-2.0
 10
46.6426056300505
 20
-1.999999999999997
 30
29.30709472552187
 10
44.64260563005051
 20
-1.999999999999997
 30
29.30709472552187
 10
42.64260563005051
 20
-1.999999999999997
 30
29.30709472552187
  0
SPLINE
  5
10C
330
1F
100
AcDbEntity
  8
0
100
AcDbSpline
210
0.0
220
0.0
230
1.0
 70
    24
 71
     2
 72
     6
 73
     3
 74
     0
 42
0.000000001
 43
0.0000000001
 40
0.0
 40
0.0
 40
0.0
 40
0.25
 40
0.25
 40
0.25
 10
40.89260563005051
 20
-0.2499999999999956
 30
28.18209472552187
 10
40.89260563005051
 20
-0.2499999999999953
 30
28.30709472552187
 10
40.89260563005051
 20
-0.2499999999999951
 30
28.43209472552187
  0
SPLINE
  5
10D
330
1F
100
AcDbEntity
  8
0
100
AcDbSpline
210
0.0
220
0.0
230
1.0
 70
    24
 71
     2
 72
     6
 73
     3
 74
     0
 42
0.000000001
 43
0.0000000001
 40
0.2499999999999964
 40
0.2499999999999964
 40
0.2499999999999964
 40
7.750000000000011
 40
7.750000000000011
 40
7.750000000000011
 10
40.89260563005051
 20
-0.2499999999999951
 30
28.43209472552187
 10
44.64260563005052
 20
-0.2499999999999948
 30
28.43209472552187
 10
48.39260563005053
 20
-0.2499999999999945
 30
28.43209472552187
  0
SPLINE
  5
10E
330
1F
100
AcDbEntity
  8
0
100
AcDbSpline
210
0.0
220
0.0
230
1.0
 70
    24
 71
     2
 72
     6
 73
     3
 74
     0
 42
0.000000001
 43
0.0000000001
 40
-0.125
 40
-0.125
 40
-0.125
 40
0.125
 40
0.125
 40
0.125
 10
48.39260563005053
 20
-0.2499999999999945
 30
28.43209472552187
 10
48.39260563005053
 20
-0.2499999999999947
 30
28.30709472552187
 10
48.39260563005053
 20
-0.2499999999999948
 30
28.18209472552187
  0
SPLINE
  5
10F
330
1F
100
AcDbEntity
  8
0
100
AcDbSpline
210
0.0
220
0.0
230
1.0
 70
    24
 71
     2
 72
     6
 73
     3
 74
     0
 42
0.000000001
 43
0.0000000001
 40
-7.750000000000007
 40
-7.750000000000007
 40
-7.750000000000007
 40
-0.2499999999999964
 40
-0.2499999999999964
 40
-0.2499999999999964
 10
48.39260563005053
 20
-0.2499999999999948
 30
28.18209472552187
 10
44.64260563005052
 20
-0.2499999999999952
 30
28.18209472552187
 10
40.89260563005051
 20
-0.2499999999999956
 30
28.18209472552187
  0
SPLINE
  5
110
330
1F
100
AcDbEntity
  8
0
100
AcDbSpline
 70
     0
 71
     3
 72
    12
 73
     8
 74
     0
 42
0.000000001
 43
0.0000000001
 40
4.831749101552164
 40
4.831749101552164
 40
4.831749101552164
 40
4.831749101552164
 40
5.251082477205808
 40
5.251082477205808
 40
5.460684355910235
 40
5.460684355910235
 40
5.670451631147722
 40
5.670451631147722
 40
5.670451631147722
 40
5.670451631147722
 10
40.89260563005051
 20
-0.2499999999999951
 30
28.43209472552187
 10
41.14731907937897
 20
-0.5047134491992484
 30
28.46017458915366
 10
41.40103752698169
 20
-0.7581609296073094
 30
28.53435832532001
 10
41.77317858253632
 20
-1.130668062319901
 30
28.73712492947728
 10
41.89558570365444
 20
-1.252881808002944
 30
28.81981697745782
 10
42.13400013783885
 20
-1.491455492838799
 30
29.02727171621633
 10
42.24957409767794
 20
-1.606968467627425
 30
29.15045759530045
 10
42.35760563005051
 20
-1.714999999999998
 30
29.30709472552187
  0
LINE
  5
111
330
1F
100
AcDbEntity
  8
0
100
AcDbLine
 10
42.35760563005051
 20
-1.714999999999998
 30
29.30709472552187
 11
46.92760563005052
 21
-1.714999999999998
 31
29.30709472552187
  0
LINE
  5
112
330
1F
100
AcDbEntity
  8
0
100
AcDbLine
 10
40.89260563005051
 20
-7.750000000000009
 30
28.43209472552187
 11
48.39260563005053
 21
-7.750000000000007
 31
28.43209472552187
  0
SPLINE
  5
113
330
1F
100
AcDbEntity
  8
0
100
AcDbSpline
 70
     0
 71
     3
 72
    12
 73
     8
 74
     0
 42
0.000000001
 43
0.0000000001
 40
1.690156447962373
 40
1.690156447962373
 40
1.690156447962373
 40
1.690156447962373
 40
2.109489823616016
 40
2.109489823616016
 40
2.319091702320442
 40
2.319091702320442
 40
2.528858977557928
 40
2.528858977557928
 40
2.528858977557928
 40
2.528858977557928
 10
48.39260563005053
 20
-7.750000000000007
 30
28.43209472552187
 10
48.13789218072208
 20
-7.495286550800754
 30
28.46017458915366
 10
47.88417373311934
 20
-7.241839070392701
 30
28.53435832532
 10
47.5120326775647
 20
-6.86933193768011
 30
28.73712492947726
 10
47.3896255564466
 20
-6.74711819199706
 30
28.81981697745782
 10
47.15121112226219
 20
-6.508544507161194
 30
29.02727171621634
 10
47.03563716242309
 20
-6.393031532372575
 30
29.15045759530045
 10
46.92760563005052
 20
-6.285000000000005
 30
29.30709472552187
  0
LINE
  5
114
330
1F
100
AcDbEntity
  8
0
100
AcDbLine
 10
46.92760563005052
 20
-6.285000000000005
 30
29.30709472552187
 11
42.35760563005051
 21
-6.285000000000005
 31
29.30709472552187
  0
SPLINE
  5
115
330
1F
100
AcDbEntity
  8
0
100
AcDbSpline
210
0.0
220
0.0
230
1.0
 70
    24
 71
     2
 72
     6
 73
     3
 74
     0
 42
0.000000001
 43
0.0000000001
 40
-0.125
 40
-0.125
 40
-0.125
 40
0.125
 40
0.125
 40
0.125
 10
40.89260563005051
 20
-7.750000000000009
 30
28.43209472552187
 10
40.89260563005051
 20
-7.750000000000009
 30
28.30709472552187
 10
40.89260563005051
 20
-7.750000000000009
 30
28.18209472552187
  0
SPLINE
  5
116
330
1F
100
AcDbEntity
  8
0
100
AcDbSpline
210
0.0
220
0.0
230
1.0
 70
    24
 71
     2
 72
     6
 73
     3
 74
     0
 42
0.000000001
 43
0.0000000001
 40
0.2499999999999964
 40
0.2499999999999964
 40
0.2499999999999964
 40
7.750000000000007
 40
7.750000000000007
 40
7.750000000000007
 10
40.89260563005051
 20
-7.750000000000009
 30
28.18209472552187
 10
44.64260563005052
 20
-7.750000000000008
 30
28.18209472552187
 10
48.39260563005053
 20
-7.750000000000007
 30
28.18209472552187
  0
SPLINE
  5
117
330
1F
100
AcDbEntity
  8
0
100
AcDbSpline
210
0.0
220
0.0
230
1.0
 70
    24
 71
     2
 72
     6
 73
     3
 74
     0
 42
0.000000001
 43
0.0000000001
 40
-0.25
 40
-0.25
 40
-0.25
 40
0.0
 40
0.0
 40
0.0
 10
48.39260563005053
 20
-7.750000000000007
 30
28.18209472552187
 10
48.39260563005053
 20
-7.750000000000007
 30
28.30709472552187
 10
48.39260563005053
 20
-7.750000000000007
 30
28.43209472552187
  0
SPLINE
  5
118
330
1F
100
AcDbEntity
  8
0
100
AcDbSpline
 70
     0
 71
     3
 72
    20
 73
    16
 74
     0
 42
0.000000001
 43
0.0000000001
 40
2.256009425507796
 40
2.256009425507796
 40
2.256009425507796
 40
2.256009425507796
 40
2.459174487031856
 40
2.459174487031856
 40
2.662360208077569
 40
2.662360208077569
 40
2.763969383596471
 40
2.763969383596471
 40
2.865609626779568
 40
2.865609626779568
 40
2.967336548464359
 40
2.967336548464359
 40
3.018437654969075
 40
3.018437654969075
 40
3.069538761473792
 40
3.069538761473792
 40
3.069538761473792
 40
3.069538761473792
 10
42.64260563005051
 20
-1.999999999999998
 30
29.68209472552186
 10
42.48347234341968
 20
-1.840866713369173
 30
29.81073296150364
 10
42.32489866995679
 20
-1.682274510694156
 30
29.95559294003087
 10
42.00980329869257
 20
-1.3672553272975
 30
30.290997124356
 10
41.85319672642726
 20
-1.210679126207132
 30
30.48095442106383
 10
41.6217296212435
 20
-0.9791113728573199
 30
30.8225568883748
 10
41.54512998108525
 20
-0.9026106764823351
 30
30.9458074817271
 10
41.39413840584922
 20
-0.7515415533077484
 30
31.22031724202141
 10
41.31955735916026
 20
-0.677087053474916
 30
31.37094444468292
 10
41.17505816152179
 20
-0.5324335764858993
 30
31.71789867667124
 10
41.10491911145504
 20
-0.4622979830643518
 30
31.91158738892401
 10
41.00875656329617
 20
-0.3661588459621161
 30
32.27391278058361
 10
40.9790627846551
 20
-0.3365768479190055
 30
32.40310719995247
 10
40.92665541172931
 20
-0.283969539388076
 30
32.70469658814776
 10
40.90519794865146
 20
-0.2625923186009461
 30
32.86579734453029
 10
40.89260563005051
 20
-0.2500000000000022
 30
33.05709472552186
  0
LINE
  5
119
330
1F
100
AcDbEntity
  8
0
100
AcDbLine
 10
40.89260563005051
 20
-0.2500000000000022
 30
33.05709472552186
 11
48.39260563005051
 21
-0.2500000000000017
 31
33.05709472552186
  0
SPLINE
  5
11A
330
1F
100
AcDbEntity
  8
0
100
AcDbSpline
 70
     0
 71
     3
 72
    24
 73
    20
 74
     0
 42
0.000000001
 43
0.0000000001
 40
5.582157902219212
 40
5.582157902219212
 40
5.582157902219212
 40
5.582157902219212
 40
5.781096959729235
 40
5.781096959729235
 40
5.980063857894356
 40
5.980063857894356
 40
6.079550831116364
 40
6.079550831116364
 40
6.178975123042498
 40
6.178975123042498
 40
6.22872881623344
 40
6.22872881623344
 40
6.278482509424382
 40
6.278482509424382
 40
6.305598129897904
 40
6.305598129897904
 40
6.332713750371425
 40
6.332713750371425
 40
6.386944991318467
 40
6.386944991318467
 40
6.386944991318467
 40
6.386944991318467
 10
40.89260563005051
 20
-0.2500000000000022
 30
33.05709472552186
 10
41.0470680769452
 20
-0.4044624468946933
 30
33.24180070591922
 10
41.20101117240151
 20
-0.5584630398087973
 30
33.44513951097037
 10
41.50727285704535
 20
-0.8645970990915092
 30
33.90879545672288
 10
41.65962639430081
 20
-1.017018586741424
 30
34.16815791995215
 10
41.88467286216308
 20
-1.24190524546109
 30
34.63525975895007
 10
41.95916295636064
 20
-1.316562497638867
 30
34.80485146459016
 10
42.10587775668793
 20
-1.463250520148798
 30
35.18696761155799
 10
42.17827551085907
 20
-1.535681334792932
 30
35.39891672591732
 10
42.28203255043312
 20
-1.639401899634241
 30
35.7803028822506
 10
42.31588612409009
 20
-1.673246182179724
 30
35.91859288315568
 10
42.37988690262952
 20
-1.737285305359981
 30
36.23093232815333
 10
42.4104755953939
 20
-1.767895478702467
 30
36.40602102542456
 10
42.44966169689855
 20
-1.807015081076811
 30
36.72287348776412
 10
42.4621543102056
 20
-1.819548710048533
 30
36.84893567461249
 10
42.47973165615775
 20
-1.837125943298169
 30
37.10182115842827
 10
42.48497183590611
 20
-1.842365938303881
 30
37.22795734197194
 10
42.49029055100331
 20
-1.847684227866887
 30
37.60499351919606
 10
42.47996726220428
 20
-1.837361632153771
 30
37.85451311625722
 10
42.45642462263548
 20
-1.813818992584965
 30
38.10109451274867
  0
LINE
  5
11B
330
1F
100
AcDbEntity
  8
0
100
AcDbLine
 10
42.45642462263548
 20
-1.813818992584965
 30
38.10109451274867
 11
46.82878663746554
 21
-1.813818992584965
 31
38.10109451274867
  0
SPLINE
  5
11C
330
1F
100
AcDbEntity
  8
0
100
AcDbSpline
 70
     0
 71
     3
 72
    18
 73
    14
 74
     0
 42
0.000000001
 43
0.0000000001
 40
0.1239610357933837
 40
0.1239610357933837
 40
0.1239610357933837
 40
0.1239610357933837
 40
0.268032334790879
 40
0.268032334790879
 40
0.4158230245770755
 40
0.4158230245770755
 40
0.563981261823511
 40
0.563981261823511
 40
0.7120556742208729
 40
0.7120556742208729
 40
1.008147311917563
 40
1.008147311917563
 40
1.304344815985574
 40
1.304344815985574
 40
1.304344815985574
 40
1.304344815985574
 10
42.45642462263548
 20
-1.813818992584965
 30
38.10109451274867
 10
42.43133943409864
 20
-1.788733804048127
 30
38.3199520676593
 10
42.38029854204728
 20
-1.737392570379958
 30
38.5093840005786
 10
42.25959831128738
 20
-1.617105046149788
 30
38.83406130720523
 10
42.19137906394521
 20
-1.548709691616906
 30
38.96781885967968
 10
42.0457572183111
 20
-1.403204591108234
 30
39.20744207483233
 10
41.96934283264846
 20
-1.326717609680742
 30
39.31066987331418
 10
41.81230534713515
 20
-1.169717511205784
 30
39.49493037805961
 10
41.73208213682518
 20
-1.089435443783937
 30
39.57547082751948
 10
41.48784925260664
 20
-0.845300866361188
 30
39.79140848593209
 10
41.3208135224241
 20
-0.6782499702905255
 30
39.90151002809878
 10
40.98381225599829
 20
-0.3409537011892035
 30
40.07519541661588
 10
40.81359929492175
 20
-0.1709936648712394
 30
40.13823165277619
 10
40.64260563005051
 20
-0.0000000000000014
 30
40.18209472552188
  0
LINE
  5
11D
330
1F
100
AcDbEntity
  8
0
100
AcDbLine
 10
40.64260563005051
 20
-0.0000000000000014
 30
40.18209472552188
 11
48.64260563005051
 21
-0.0000000000000011
 31
40.18209472552188
  0
SPLINE
  5
11E
330
1F
100
AcDbEntity
  8
0
100
AcDbSpline
 70
     0
 71
     3
 72
    12
 73
     8
 74
     0
 42
0.000000001
 43
0.0000000001
 40
-2.528858977557929
 40
-2.528858977557929
 40
-2.528858977557929
 40
-2.528858977557929
 40
-2.319091702320442
 40
-2.319091702320442
 40
-2.109489823616017
 40
-2.109489823616017
 40
-1.690156447962375
 40
-1.690156447962375
 40
-1.690156447962375
 40
-1.690156447962375
 10
42.35760563005051
 20
-6.285000000000005
 30
29.30709472552187
 10
42.24957409767794
 20
-6.393031532372575
 30
29.15045759530045
 10
42.13406112288931
 20
-6.508605492211661
 30
29.02727171621633
 10
41.89548743805345
 20
-6.747019926396071
 30
28.81981697745782
 10
41.7732736923704
 20
-6.869427047514185
 30
28.73712492947726
 10
41.40076655965781
 20
-7.241568103068817
 30
28.53435832532
 10
41.14731907924975
 20
-7.49528655067155
 30
28.46017458915365
 10
40.89260563005051
 20
-7.750000000000009
 30
28.43209472552187
  0
SPLINE
  5
11F
330
1F
100
AcDbEntity
  8
0
100
AcDbSpline
210
0.0
220
0.0
230
1.0
 70
    24
 71
     2
 72
     6
 73
     3
 74
     0
 42
0.000000001
 43
0.0000000001
 40
-8.0
 40
-8.0
 40
-8.0
 40
0.0
 40
0.0
 40
0.0
 10
40.64260563005051
 20
-8.000000000000002
 30
28.18209472552187
 10
44.64260563005051
 20
-8.000000000000002
 30
28.18209472552187
 10
48.6426056300505
 20
-8.000000000000002
 30
28.18209472552187
  0
SPLINE
  5
120
330
1F
100
AcDbEntity
  8
0
100
AcDbSpline
210
0.0
220
0.0
230
1.0
 70
    24
 71
     2
 72
     6
 73
     3
 74
     0
 42
0.000000001
 43
0.0000000001
 40
0.0
 40
0.0
 40
0.0
 40
6.0
 40
6.0
 40
6.0
 10
40.64260563005051
 20
-8.0
 30
22.18209472552187
 10
40.64260563005051
 20
-8.0
 30
25.18209472552187
 10
40.64260563005051
 20
-8.000000000000002
 30
28.18209472552187
  0
SPLINE
  5
121
330
1F
100
AcDbEntity
  8
0
100
AcDbSpline
210
0.0
220
0.0
230
1.0
 70
    24
 71
     2
 72
     6
 73
     3
 74
     0
 42
0.000000001
 43
0.0000000001
 40
-8.0
 40
-8.0
 40
-8.0
 40
0.0
 40
0.0
 40
0.0
 10
48.6426056300505
 20
-8.0
 30
22.18209472552187
 10
44.64260563005051
 20
-8.0
 30
22.18209472552187
 10
40.64260563005051
 20
-8.0
 30
22.18209472552187
  0
SPLINE
  5
122
330
1F
100
AcDbEntity
  8
0
100
AcDbSpline
210
0.0
220
0.0
230
1.0
 70
    24
 71
     2
 72
     6
 73
     3
 74
     0
 42
0.000000001
 43
0.0000000001
 40
-6.0
 40
-6.0
 40
-6.0
 40
0.0
 40
0.0
 40
0.0
 10
48.6426056300505
 20
-8.000000000000002
 30
28.18209472552187
 10
48.6426056300505
 20
-8.0
 30
25.18209472552187
 10
48.6426056300505
 20
-8.0
 30
22.18209472552187
  0
SPLINE
  5
123
330
1F
100
AcDbEntity
  8
0
100
AcDbSpline
210
0.0
220
0.0
230
1.0
 70
    24
 71
     2
 72
     6
 73
     3
 74
     0
 42
0.000000001
 43
0.0000000001
 40
0.2499999999999929
 40
0.2499999999999929
 40
0.2499999999999929
 40
7.750000000000006
 40
7.750000000000006
 40
7.750000000000006
 10
40.89260563005051
 20
-7.750000000000009
 30
28.43209472552187
 10
40.89260563005051
 20
-4.000000000000002
 30
28.43209472552187
 10
40.89260563005051
 20
-0.2499999999999951
 30
28.43209472552187
  0
SPLINE
  5
124
330
1F
100
AcDbEntity
  8
0
100
AcDbSpline
210
0.0
220
0.0
230
1.0
 70
    24
 71
     2
 72
     6
 73
     3
 74
     0
 42
0.000000001
 43
0.0000000001
 40
-7.750000000000006
 40
-7.750000000000006
 40
-7.750000000000006
 40
-0.2499999999999929
 40
-0.2499999999999929
 40
-0.2499999999999929
 10
40.89260563005051
 20
-0.2499999999999956
 30
28.18209472552187
 10
40.89260563005051
 20
-4.000000000000002
 30
28.18209472552187
 10
40.89260563005051
 20
-7.750000000000009
 30
28.18209472552187
  0
LINE
  5
125
330
1F
100
AcDbEntity
  8
0
100
AcDbLine
 10
46.82878663746556
 20
-6.186181007415029
 30
38.10109451274867
 11
46.82878663746554
 21
-1.813818992584965
 31
38.10109451274867
  0
SPLINE
  5
126
330
1F
100
AcDbEntity
  8
0
100
AcDbSpline
 70
     0
 71
     3
 72
    18
 73
    14
 74
     0
 42
0.000000001
 43
0.0000000001
 40
-1.304344815985575
 40
-1.304344815985575
 40
-1.304344815985575
 40
-1.304344815985575
 40
-1.008147303298196
 40
-1.008147303298196
 40
-0.7120556569852181
 40
-0.7120556569852181
 40
-0.5639812402788796
 40
-0.5639812402788796
 40
-0.4158229987210276
 40
-0.4158229987210276
 40
-0.2680323046341088
 40
-0.2680323046341088
 40
-0.1239610357933789
 40
-0.1239610357933789
 40
-0.1239610357933789
 40
-0.1239610357933789
 10
48.64260563005051
 20
-0.0000000000000011
 30
40.18209472552188
 10
48.47161196517926
 20
-0.1709936648712395
 30
40.13823165277619
 10
48.3016519288613
 20
-0.3412066259477741
 30
40.07519541661587
 10
47.96435565975999
 20
-0.678207892373586
 30
39.90151002809878
 10
47.79730476368933
 20
-0.8452436225561328
 30
39.79140848593209
 10
47.55317018626658
 20
-1.089476506774672
 30
39.57547082751948
 10
47.47288811884472
 20
-1.169699717084643
 30
39.4949303780596
 10
47.31588802036976
 20
-1.326737202597946
 30
39.31066987331418
 10
47.23940103894227
 20
-1.403151588260586
 30
39.20744207483231
 10
47.0938959384336
 20
-1.548773433894699
 30
38.96781885967967
 10
47.02550058390072
 20
-1.616992681236888
 30
38.83406130720522
 10
46.90521307382721
 20
-1.737692897791551
 30
38.50938403878992
 10
46.85387185048379
 20
-1.78873377970993
 30
38.31995215798752
 10
46.82878663746554
 20
-1.813818992584965
 30
38.10109451274867
  0
LINE
  5
127
330
1F
100
AcDbEntity
  8
0
100
AcDbLine
 10
48.64260563005051
 20
-0.0000000000000011
 30
40.18209472552188
 11
48.64260563005051
 21
-8.000000000000002
 31
40.18209472552187
  0
LINE
  5
128
330
1F
100
AcDbEntity
  8
0
100
AcDbLine
 10
48.39260563005051
 20
-7.749999999999998
 30
33.05709472552187
 11
48.39260563005051
 21
-0.2500000000000017
 31
33.05709472552186
  0
SPLINE
  5
129
330
1F
100
AcDbEntity
  8
0
100
AcDbSpline
 70
     0
 71
     3
 72
    24
 73
    20
 74
     0
 42
0.000000001
 43
0.0000000001
 40
-6.386944991318468
 40
-6.386944991318468
 40
-6.386944991318468
 40
-6.386944991318468
 40
-6.332713750371422
 40
-6.332713750371422
 40
-6.305598129897898
 40
-6.305598129897898
 40
-6.278482509424375
 40
-6.278482509424375
 40
-6.228728816233435
 40
-6.228728816233435
 40
-6.178975123042494
 40
-6.178975123042494
 40
-6.079550831116359
 40
-6.079550831116359
 40
-5.980063857894351
 40
-5.980063857894351
 40
-5.781096959729231
 40
-5.781096959729231
 40
-5.58215790221921
 40
-5.58215790221921
 40
-5.58215790221921
 40
-5.58215790221921
 10
46.82878663746554
 20
-1.813818992584965
 30
38.10109451274867
 10
46.80524399789673
 20
-1.837361632153772
 30
37.85451311625721
 10
46.79492140218362
 20
-1.847684920952803
 30
37.60499351919609
 10
46.80023969174662
 20
-1.842366205855601
 30
37.22795734197199
 10
46.80547968675233
 20
-1.837126026107242
 30
37.10182115842833
 10
46.82305692000197
 20
-1.819548680155093
 30
36.84893567461256
 10
46.83559054897368
 20
-1.807056066848045
 30
36.72287348776416
 10
46.87471015134803
 20
-1.7678699653434
 30
36.40602102542459
 10
46.90532032469053
 20
-1.737281272579016
 30
36.23093232815337
 10
46.96935944787079
 20
-1.673280494039593
 30
35.91859288315571
 10
47.00320373041626
 20
-1.639426920382616
 30
35.78030288225062
 10
47.10692429525758
 20
-1.535669880808569
 30
35.39891672591733
 10
47.17935510990171
 20
-1.463272126637427
 30
35.18696761155797
 10
47.32604313241165
 20
-1.316557326310139
 30
34.80485146459014
 10
47.40070038458942
 20
-1.24206723211257
 30
34.63525975895006
 10
47.62558704330908
 20
-1.017020764250296
 30
34.16815791995216
 10
47.778008530959
 20
-0.8646672269948452
 30
33.90879545672288
 10
48.08414259024171
 20
-0.5584055423510101
 30
33.44513951097037
 10
48.23814318315582
 20
-0.4044624468946951
 30
33.24180070591923
 10
48.39260563005051
 20
-0.2500000000000017
 30
33.05709472552186
  0
SPLINE
  5
12A
330
1F
100
AcDbEntity
  8
0
100
AcDbSpline
210
0.0
220
0.0
230
1.0
 70
    24
 71
     2
 72
     6
 73
     3
 74
     0
 42
0.000000001
 43
0.0000000001
 40
-8.0
 40
-8.0
 40
-8.0
 40
0.0
 40
0.0
 40
0.0
 10
40.64260563005051
 20
-0.0000000000000011
 30
28.18209472552187
 10
44.64260563005051
 20
-0.0000000000000008
 30
28.18209472552187
 10
48.6426056300505
 20
-0.0000000000000005
 30
28.18209472552187
  0
SPLINE
  5
12B
330
1F
100
AcDbEntity
  8
0
100
AcDbSpline
210
0.0
220
0.0
230
1.0
 70
    24
 71
     2
 72
     6
 73
     3
 74
     0
 42
0.000000001
 43
0.0000000001
 40
-6.0
 40
-6.0
 40
-6.0
 40
0.0
 40
0.0
 40
0.0
 10
48.6426056300505
 20
-0.0000000000000005
 30
28.18209472552187
 10
48.6426056300505
 20
-0.0000000000000005
 30
25.18209472552187
 10
48.6426056300505
 20
-0.0000000000000005
 30
22.18209472552187
  0
SPLINE
  5
12C
330
1F
100
AcDbEntity
  8
0
100
AcDbSpline
210
0.0
220
0.0
230
1.0
 70
    24
 71
     2
 72
     6
 73
     3
 74
     0
 42
0.000000001
 43
0.0000000001
 40
-8.0
 40
-8.0
 40
-8.0
 40
0.0
 40
0.0
 40
0.0
 10
48.6426056300505
 20
-0.0000000000000005
 30
22.18209472552187
 10
44.64260563005051
 20
-0.0000000000000008
 30
22.18209472552187
 10
40.64260563005051
 20
-0.0000000000000011
 30
22.18209472552187
  0
SPLINE
  5
12D
330
1F
100
AcDbEntity
  8
0
100
AcDbSpline
210
0.0
220
0.0
230
1.0
 70
    24
 71
     2
 72
     6
 73
     3
 74
     0
 42
0.000000001
 43
0.0000000001
 40
0.0
 40
0.0
 40
0.0
 40
6.0
 40
6.0
 40
6.0
 10
40.64260563005051
 20
-0.0000000000000011
 30
22.18209472552187
 10
40.64260563005051
 20
-0.0000000000000011
 30
25.18209472552187
 10
40.64260563005051
 20
-0.0000000000000011
 30
28.18209472552187
  0
SPLINE
  5
12E
330
1F
100
AcDbEntity
  8
0
100
AcDbSpline
210
0.0
220
0.0
230
1.0
 70
    24
 71
     2
 72
     6
 73
     3
 74
     0
 42
0.000000001
 43
0.0000000001
 40
-3.999999999999993
 40
-3.999999999999993
 40
-3.999999999999993
 40
0.0
 40
0.0
 40
0.0
 10
40.64260563005051
 20
-0.0000000000000014
 30
40.18209472552188
 10
40.64260563005051
 20
-0.0000000000000017
 30
42.18209472552188
 10
40.64260563005051
 20
-0.000000000000002
 30
44.18209472552187
  0
SPLINE
  5
12F
330
1F
100
AcDbEntity
  8
0
100
AcDbSpline
210
0.0
220
0.0
230
1.0
 70
    24
 71
     2
 72
     6
 73
     3
 74
     0
 42
0.000000001
 43
0.0000000001
 40
-8.000000000000002
 40
-8.000000000000002
 40
-8.000000000000002
 40
0.0
 40
0.0
 40
0.0
 10
40.64260563005051
 20
-0.000000000000002
 30
44.18209472552187
 10
44.64260563005051
 20
-0.0000000000000017
 30
44.18209472552187
 10
48.6426056300505
 20
-0.0000000000000014
 30
44.18209472552187
  0
SPLINE
  5
130
330
1F
100
AcDbEntity
  8
0
100
AcDbSpline
210
0.0
220
0.0
230
1.0
 70
    24
 71
     2
 72
     6
 73
     3
 74
     0
 42
0.000000001
 43
0.0000000001
 40
0.0
 40
0.0
 40
0.0
 40
3.999999999999993
 40
3.999999999999993
 40
3.999999999999993
 10
48.6426056300505
 20
-0.0000000000000014
 30
44.18209472552187
 10
48.64260563005051
 20
-0.0000000000000013
 30
42.18209472552188
 10
48.64260563005051
 20
-0.0000000000000011
 30
40.18209472552188
  0
LINE
  5
131
330
1F
100
AcDbEntity
  8
0
100
AcDbLine
 10
46.64260563005051
 20
-6.000000000000002
 30
29.68209472552186
 11
46.64260563005051
 21
-1.999999999999997
 31
29.68209472552186
  0
SPLINE
  5
132
330
1F
100
AcDbEntity
  8
0
100
AcDbSpline
 70
     0
 71
     3
 72
    20
 73
    16
 74
     0
 42
0.000000001
 43
0.0000000001
 40
-3.069538761473792
 40
-3.069538761473792
 40
-3.069538761473792
 40
-3.069538761473792
 40
-3.018437654969076
 40
-3.018437654969076
 40
-2.967336548464359
 40
-2.967336548464359
 40
-2.865609626779568
 40
-2.865609626779568
 40
-2.76396938359647
 40
-2.76396938359647
 40
-2.662360208077568
 40
-2.662360208077568
 40
-2.459174487031855
 40
-2.459174487031855
 40
-2.256009425507795
 40
-2.256009425507795
 40
-2.256009425507795
 40
-2.256009425507795
 10
48.39260563005051
 20
-0.2500000000000017
 30
33.05709472552186
 10
48.38001331144957
 20
-0.2625923186009464
 30
32.86579734453028
 10
48.35863609066244
 20
-0.2840497816788078
 30
32.70469658814778
 10
48.30602878213151
 20
-0.3364571546045849
 30
32.40310719995247
 10
48.27644678408839
 20
-0.3661509332456426
 30
32.27391278058359
 10
48.18030764698614
 20
-0.4623134814045205
 30
31.91158738892398
 10
48.1101720535646
 20
-0.5324525314712744
 30
31.71789867667122
 10
47.9655185765756
 20
-0.6769517291097481
 30
31.37094444468293
 10
47.89106407674277
 20
-0.7515327757987011
 30
31.22031724202142
 10
47.73999495356817
 20
-0.9025243510347255
 30
30.9458074817271
 10
47.66349425719319
 20
-0.9791239911929909
 30
30.8225568883748
 10
47.43192650384337
 20
-1.210591096376752
 30
30.48095442106382
 10
47.275350302753
 20
-1.367197668642047
 30
30.290997124356
 10
46.96033111935636
 20
-1.682293039906273
 30
29.95559294003088
 10
46.80173891668133
 20
-1.840866713369175
 30
29.81073296150364
 10
46.64260563005051
 20
-1.999999999999997
 30
29.68209472552186
  0
SPLINE
  5
133
330
1F
100
AcDbEntity
  8
0
100
AcDbSpline
210
0.0
220
0.0
230
1.0
 70
    24
 71
     2
 72
     6
 73
     3
 74
     0
 42
0.000000001
 43
0.0000000001
 40
1.999999999999996
 40
1.999999999999996
 40
1.999999999999996
 40
6.000000000000004
 40
6.000000000000004
 40
6.000000000000004
 10
46.6426056300505
 20
-6.000000000000004
 30
29.30709472552187
 10
46.6426056300505
 20
-4.000000000000001
 30
29.30709472552187
 10
46.6426056300505
 20
-1.999999999999997
 30
29.30709472552187
  0
LINE
  5
134
330
1F
100
AcDbEntity
  8
0
100
AcDbLine
 10
48.39260563005053
 20
-7.750000000000007
 30
28.43209472552187
 11
48.39260563005053
 21
-0.2499999999999945
 31
28.43209472552187
  0
SPLINE
  5
135
330
1F
100
AcDbEntity
  8
0
100
AcDbSpline
 70
     0
 71
     3
 72
    12
 73
     8
 74
     0
 42
0.000000001
 43
0.0000000001
 40
-5.670451631147722
 40
-5.670451631147722
 40
-5.670451631147722
 40
-5.670451631147722
 40
-5.460684380915379
 40
-5.460684380915379
 40
-5.25108252719638
 40
-5.25108252719638
 40
-4.831749101552164
 40
-4.831749101552164
 40
-4.831749101552164
 40
-4.831749101552164
 10
46.92760563005052
 20
-1.714999999999998
 30
29.30709472552187
 10
47.03563716242309
 20
-1.606968467627427
 30
29.15045759530046
 10
47.15115013721172
 20
-1.491394507788342
 30
29.02727171621633
 10
47.38972382204757
 20
-1.252980073603932
 30
28.81981697745782
 10
47.51193756773061
 20
-1.130572952485813
 30
28.73712492947728
 10
47.88444475965773
 20
-0.7584318377748436
 30
28.5343582930878
 10
48.13789230170447
 20
-0.5047133283460407
 30
28.46017455378009
 10
48.39260563005053
 20
-0.2499999999999945
 30
28.43209472552187
  0
SPLINE
  5
136
330
1F
100
AcDbEntity
  8
0
100
AcDbSpline
210
0.0
220
0.0
230
1.0
 70
    24
 71
     2
 72
     6
 73
     3
 74
     0
 42
0.000000001
 43
0.0000000001
 40
0.2499999999999947
 40
0.2499999999999947
 40
0.2499999999999947
 40
7.750000000000007
 40
7.750000000000007
 40
7.750000000000007
 10
48.39260563005053
 20
-7.750000000000007
 30
28.18209472552187
 10
48.39260563005053
 20
-4.000000000000001
 30
28.18209472552187
 10
48.39260563005053
 20
-0.2499999999999948
 30
28.18209472552187
  0
SPLINE
  5
137
330
1F
100
AcDbEntity
  8
0
100
AcDbSpline
210
0.0
220
0.0
230
1.0
 70
    24
 71
     2
 72
     6
 73
     3
 74
     0
 42
0.000000001
 43
0.0000000001
 40
-8.0
 40
-8.0
 40
-8.0
 40
0.0
 40
0.0
 40
0.0
 10
48.6426056300505
 20
-0.0000000000000005
 30
22.18209472552187
 10
48.6426056300505
 20
-4.0
 30
22.18209472552187
 10
48.6426056300505
 20
-8.0
 30
22.18209472552187
  0
SPLINE
  5
138
330
1F
100
AcDbEntity
  8
0
100
AcDbSpline
210
0.0
220
0.0
230
1.0
 70
    24
 71
     2
 72
     6
 73
     3
 74
     0
 42
0.000000001
 43
0.0000000001
 40
0.0
 40
0.0
 40
0.0
 40
7.999999999999999
 40
7.999999999999999
 40
7.999999999999999
 10
40.64260563005051
 20
-8.0
 30
22.18209472552187
 10
40.64260563005051
 20
-4.000000000000001
 30
22.18209472552187
 10
40.64260563005051
 20
-0.0000000000000011
 30
22.18209472552187
  0
SPLINE
  5
139
330
1F
100
AcDbEntity
  8
0
100
AcDbSpline
210
0.0
220
0.0
230
1.0
 70
    24
 71
     2
 72
     6
 73
     3
 74
     0
 42
0.000000001
 43
0.0000000001
 40
0.0
 40
0.0
 40
0.0
 40
8.000000000000002
 40
8.000000000000002
 40
8.000000000000002
 10
48.6426056300505
 20
-8.000000000000002
 30
28.18209472552187
 10
48.6426056300505
 20
-4.000000000000001
 30
28.18209472552187
 10
48.6426056300505
 20
-0.0000000000000005
 30
28.18209472552187
  0
SPLINE
  5
13A
330
1F
100
AcDbEntity
  8
0
100
AcDbSpline
210
0.0
220
0.0
230
1.0
 70
    24
 71
     2
 72
     6
 73
     3
 74
     0
 42
0.000000001
 43
0.0000000001
 40
-8.0
 40
-8.0
 40
-8.0
 40
0.0
 40
0.0
 40
0.0
 10
40.64260563005051
 20
-0.0000000000000011
 30
28.18209472552187
 10
40.64260563005051
 20
-4.000000000000002
 30
28.18209472552187
 10
40.64260563005051
 20
-8.000000000000002
 30
28.18209472552187
  0
SPLINE
  5
13B
330
1F
100
AcDbEntity
  8
0
100
AcDbSpline
210
0.0
220
0.0
230
1.0
 70
    24
 71
     2
 72
     6
 73
     3
 74
     0
 42
0.000000001
 43
0.0000000001
 40
1.714999999999996
 40
1.714999999999996
 40
1.714999999999996
 40
6.285000000000005
 40
6.285000000000005
 40
6.285000000000005
 10
46.92760563005052
 20
-6.285000000000005
 30
29.30709472552187
 10
46.92760563005052
 20
-4.000000000000001
 30
29.30709472552187
 10
46.92760563005052
 20
-1.714999999999998
 30
29.30709472552187
  0
SPLINE
  5
13C
330
1F
100
AcDbEntity
  8
0
100
AcDbSpline
210
0.0
220
0.0
230
1.0
 70
    24
 71
     2
 72
     6
 73
     3
 74
     0
 42
0.000000001
 43
0.0000000001
 40
-6.285000000000005
 40
-6.285000000000005
 40
-6.285000000000005
 40
-1.714999999999996
 40
-1.714999999999996
 40
-1.714999999999996
 10
42.35760563005051
 20
-1.714999999999998
 30
29.30709472552187
 10
42.35760563005051
 20
-4.000000000000002
 30
29.30709472552187
 10
42.35760563005051
 20
-6.285000000000005
 30
29.30709472552187
  0
SPLINE
  5
13D
330
1F
100
AcDbEntity
  8
0
100
AcDbSpline
210
0.0
220
0.0
230
1.0
 70
    24
 71
     2
 72
     6
 73
     3
 74
     0
 42
0.000000001
 43
0.0000000001
 40
2.0
 40
2.0
 40
2.0
 40
6.000000000000004
 40
6.000000000000004
 40
6.000000000000004
 10
42.64260563005051
 20
-6.000000000000002
 30
29.30709472552187
 10
42.64260563005051
 20
-4.0
 30
29.30709472552187
 10
42.64260563005051
 20
-1.999999999999997
 30
29.30709472552187
  0
SPLINE
  5
13E
330
1F
100
AcDbEntity
  8
0
100
AcDbSpline
210
0.0
220
0.0
230
1.0
 70
    24
 71
     2
 72
     6
 73
     3
 74
     0
 42
0.000000001
 43
0.0000000001
 40
2.0
 40
2.0
 40
2.0
 40
6.000000000000004
 40
6.000000000000004
 40
6.000000000000004
 10
42.64260563005051
 20
-6.000000000000002
 30
29.68209472552186
 10
42.64260563005051
 20
-4.0
 30
29.68209472552186
 10
42.64260563005051
 20
-1.999999999999998
 30
29.68209472552186
  0
SPLINE
  5
13F
330
1F
100
AcDbEntity
  8
0
100
AcDbSpline
 70
     0
 71
     3
 72
    20
 73
    16
 74
     0
 42
0.000000001
 43
0.0000000001
 40
-6.211131415063582
 40
-6.211131415063582
 40
-6.211131415063582
 40
-6.211131415063582
 40
-6.160030319977027
 40
-6.160030319977027
 40
-6.10892921270702
 40
-6.10892921270702
 40
-6.007202289498763
 40
-6.007202289498763
 40
-5.905562044793498
 40
-5.905562044793498
 40
-5.803952867752892
 40
-5.803952867752892
 40
-5.600767143664261
 40
-5.600767143664261
 40
-5.39760207909759
 40
-5.39760207909759
 40
-5.39760207909759
 40
-5.39760207909759
 10
40.89260563005051
 20
-7.749999999999997
 30
33.05709472552186
 10
40.90519795884492
 20
-7.737407671167337
 30
32.86579726771146
 10
40.92657517570986
 20
-7.715950212073746
 30
32.70469655219553
 10
40.97918247796952
 20
-7.663542845395416
 30
32.40310719995247
 10
41.00876447601264
 20
-7.633849066754355
 30
32.27391278058358
 10
41.10490361311488
 20
-7.537686518595478
 30
31.91158738892398
 10
41.17503920653641
 20
-7.467547468528724
 30
31.71789867667124
 10
41.31969268352542
 20
-7.323048270890252
 30
31.37094444468294
 10
41.39414718335825
 20
-7.248467224201297
 30
31.22031724202143
 10
41.54521630653285
 20
-7.097475648965274
 30
30.9458074817271
 10
41.62171700290784
 20
-7.020876008807009
 30
30.82255688837481
 10
41.85328475625766
 20
-6.789408903623248
 30
30.48095442106382
 10
42.00986095734803
 20
-6.632802331357952
 30
30.290997124356
 10
42.32488014074468
 20
-6.317706960093727
 30
29.95559294003088
 10
42.48347234341969
 20
-6.159133286630825
 30
29.81073296150364
 10
42.64260563005051
 20
-6.000000000000002
 30
29.68209472552186
  0
LINE
  5
140
330
1F
100
AcDbEntity
  8
0
100
AcDbLine
 10
40.89260563005051
 20
-7.749999999999997
 30
33.05709472552186
 11
40.89260563005051
 21
-0.2500000000000022
 31
33.05709472552186
  0
SPLINE
  5
141
330
1F
100
AcDbEntity
  8
0
100
AcDbSpline
 70
     0
 71
     3
 72
    24
 73
    20
 74
     0
 42
0.000000001
 43
0.0000000001
 40
-3.245352337728677
 40
-3.245352337728677
 40
-3.245352337728677
 40
-3.245352337728677
 40
-3.191121096781632
 40
-3.191121096781632
 40
-3.16400547630811
 40
-3.16400547630811
 40
-3.136889855834588
 40
-3.136889855834588
 40
-3.087136162643647
 40
-3.087136162643647
 40
-3.037382469452706
 40
-3.037382469452706
 40
-2.937958177526571
 40
-2.937958177526571
 40
-2.838471204304562
 40
-2.838471204304562
 40
-2.639504306139441
 40
-2.639504306139441
 40
-2.440565248629418
 40
-2.440565248629418
 40
-2.440565248629418
 40
-2.440565248629418
 10
42.45642462263548
 20
-6.186181007415029
 30
38.10109451274867
 10
42.47996726220429
 20
-6.162638367846225
 30
37.85451311625722
 10
42.4902898579174
 20
-6.152315079047194
 30
37.60499351919609
 10
42.4849715683544
 20
-6.157633794144397
 30
37.22795734197198
 10
42.47973157334869
 20
-6.162873973892754
 30
37.10182115842832
 10
42.46215434009905
 20
-6.180451319844903
 30
36.84893567461254
 10
42.44962071112734
 20
-6.192943933151951
 30
36.72287348776416
 10
42.41050110875299
 20
-6.232130034656598
 30
36.40602102542459
 10
42.3798909354105
 20
-6.262718727420983
 30
36.23093232815336
 10
42.31585181223024
 20
-6.326719505960402
 30
35.9185928831557
 10
42.28200752968475
 20
-6.360573079617382
 30
35.78030288225061
 10
42.17828696484344
 20
-6.46433011919143
 30
35.3989167259173
 10
42.10585615019931
 20
-6.536727873362571
 30
35.18696761155797
 10
41.95916812768938
 20
-6.683442673689859
 30
34.80485146459015
 10
41.8845108755116
 20
-6.757932767887429
 30
34.63525975895006
 10
41.65962421679193
 20
-6.982979235749704
 30
34.16815791995213
 10
41.50720272914202
 20
-7.135332773005155
 30
33.90879545672286
 10
41.20106866985931
 20
-7.441594457648989
 30
33.44513951097036
 10
41.0470680769452
 20
-7.595537553105304
 30
33.24180070591922
 10
40.89260563005051
 20
-7.749999999999997
 30
33.05709472552186
  0
SPLINE
  5
142
330
1F
100
AcDbEntity
  8
0
100
AcDbSpline
 70
     0
 71
     3
 72
    18
 73
    14
 74
     0
 42
0.000000001
 43
0.0000000001
 40
-4.44593746957537
 40
-4.44593746957537
 40
-4.44593746957537
 40
-4.44593746957537
 40
-4.149739963511468
 40
-4.149739963511468
 40
-3.853648323819625
 40
-3.853648323819625
 40
-3.705573910424542
 40
-3.705573910424542
 40
-3.557415672179902
 40
-3.557415672179902
 40
-3.409624982193477
 40
-3.409624982193477
 40
-3.26555368938318
 40
-3.26555368938318
 40
-3.26555368938318
 40
-3.26555368938318
 10
40.64260563005051
 20
-8.0
 30
40.18209472552187
 10
40.81359929490245
 20
-7.829006335148065
 30
40.13823165278114
 10
40.98355933120127
 20
-7.658793374090658
 30
40.07519541663003
 10
41.32085560026522
 20
-7.321792107702144
 30
39.90151002814345
 10
41.48790649631746
 20
-7.154756377538045
 30
39.7914084859979
 10
41.7320410737161
 20
-6.910523493343778
 30
39.57547082763293
 10
41.81232314112929
 20
-6.830300283042097
 30
39.49493037819294
 10
41.96932323959219
 20
-6.673262797541478
 30
39.31066987349312
 10
42.04581022101186
 20
-6.596848411885882
 30
39.20744207504249
 10
42.19131532112664
 20
-6.451226566647053
 30
38.96781886060191
 10
42.25971067362041
 20
-6.383007320841752
 30
38.83406131418175
 10
42.3799982003578
 20
-6.262307089388646
 30
38.50938400076217
 10
42.4313394353478
 20
-6.211266194702708
 30
38.31995205676093
 10
42.45642462263548
 20
-6.186181007415029
 30
38.10109451274867
  0
LINE
  5
143
330
1F
100
AcDbEntity
  8
0
100
AcDbLine
 10
40.64260563005051
 20
-8.0
 30
40.18209472552187
 11
40.64260563005051
 21
-0.0000000000000014
 31
40.18209472552188
  0
LINE
  5
144
330
1F
100
AcDbEntity
  8
0
100
AcDbLine
 10
42.45642462263548
 20
-1.813818992584965
 30
38.10109451274867
 11
42.45642462263548
 21
-6.186181007415029
 31
38.10109451274867
  0
SPLINE
  5
145
330
1F
100
AcDbEntity
  8
0
100
AcDbSpline
210
0.0
220
0.0
230
1.0
 70
    24
 71
     2
 72
     6
 73
     3
 74
     0
 42
0.000000001
 43
0.0000000001
 40
-3.999999999999993
 40
-3.999999999999993
 40
-3.999999999999993
 40
0.0
 40
0.0
 40
0.0
 10
40.64260563005051
 20
-8.0
 30
40.18209472552187
 10
40.64260563005051
 20
-8.0
 30
42.18209472552187
 10
40.64260563005051
 20
-8.000000000000002
 30
44.18209472552187
  0
SPLINE
  5
146
330
1F
100
AcDbEntity
  8
0
100
AcDbSpline
210
0.0
220
0.0
230
1.0
 70
    24
 71
     2
 72
     6
 73
     3
 74
     0
 42
0.000000001
 43
0.0000000001
 40
0.0
 40
0.0
 40
0.0
 40
8.0
 40
8.0
 40
8.0
 10
40.64260563005051
 20
-8.000000000000002
 30
44.18209472552187
 10
40.64260563005051
 20
-4.000000000000002
 30
44.18209472552187
 10
40.64260563005051
 20
-0.000000000000002
 30
44.18209472552187
  0
SPLINE
  5
147
330
1F
100
AcDbEntity
  8
0
100
AcDbSpline
210
0.0
220
0.0
230
1.0
 70
    24
 71
     2
 72
     6
 73
     3
 74
     0
 42
0.000000001
 43
0.0000000001
 40
-7.999999999999998
 40
-7.999999999999998
 40
-7.999999999999998
 40
0.0
 40
0.0
 40
0.0
 10
40.64260563005051
 20
-8.000000000000002
 30
44.18209472552187
 10
44.64260563005051
 20
-8.000000000000002
 30
44.18209472552187
 10
48.6426056300505
 20
-8.000000000000002
 30
44.18209472552187
  0
SPLINE
  5
148
330
1F
100
AcDbEntity
  8
0
100
AcDbSpline
210
0.0
220
0.0
230
1.0
 70
    24
 71
     2
 72
     6
 73
     3
 74
     0
 42
0.000000001
 43
0.0000000001
 40
0.0
 40
0.0
 40
0.0
 40
8.0
 40
8.0
 40
8.0
 10
48.6426056300505
 20
-8.000000000000002
 30
44.18209472552187
 10
48.6426056300505
 20
-4.000000000000002
 30
44.18209472552187
 10
48.6426056300505
 20
-0.0000000000000014
 30
44.18209472552187
  0
SPLINE
  5
149
330
1F
100
AcDbEntity
  8
0
100
AcDbSpline
210
0.0
220
0.0
230
1.0
 70
    24
 71
     2
 72
     6
 73
     3
 74
     0
 42
0.000000001
 43
0.0000000001
 40
0.0
 40
0.0
 40
0.0
 40
3.999999999999993
 40
3.999999999999993
 40
3.999999999999993
 10
48.6426056300505
 20
-8.000000000000002
 30
44.18209472552187
 10
48.64260563005051
 20
-8.000000000000002
 30
42.18209472552187
 10
48.64260563005051
 20
-8.000000000000002
 30
40.18209472552187
  0
ARC
  5
14A
330
1F
100
AcDbEntity
  8
0
100
AcDbCircle
 10
-3.020071732212603
 20
33.36844641993014
 30
44.64260563005053
 40
4.740164690812462
210
1.0
220
0.0
230
0.0
100
AcDbArc
 50
183.7661118450407
 51
231.0490390305959
  0
LINE
  5
14B
330
1F
100
AcDbEntity
  8
0
100
AcDbLine
 10
46.64260563005051
 20
-6.000000000000002
 30
29.49459472552187
 11
42.64260563005051
 21
-6.000000000000002
 31
29.49459472552187
  0
LINE
  5
14C
330
1F
100
AcDbEntity
  8
0
100
AcDbLine
 10
44.64260563005051
 20
-6.000000000000002
 30
29.68209472552186
 11
44.64260563005051
 21
-6.000000000000002
 31
29.30709472552187
  0
ARC
  5
14D
330
1F
100
AcDbEntity
  8
0
100
AcDbCircle
 10
-13.00329631744658
 20
37.45022266707544
 30
44.64260563005053
 40
6.848116186934661
210
1.0
220
0.0
230
0.0
100
AcDbArc
 50
320.0955683798701
 51
5.453848006068381
  0
LINE
  5
14E
330
1F
100
AcDbEntity
  8
0
100
AcDbLine
 10
46.79778525748998
 20
-6.155180130511916
 30
37.45022266707544
 11
42.48742600259047
 21
-6.155180130511916
 31
37.45022266707544
  0
ARC
  5
14F
330
1F
100
AcDbEntity
  8
0
100
AcDbCircle
 10
-8.604931235002056
 20
37.82386028381233
 30
44.64260563005053
 40
2.434586511329229
210
1.0
220
0.0
230
0.0
100
AcDbArc
 50
6.538638937387343
 51
75.6127754659642
  0
LINE
  5
150
330
1F
100
AcDbEntity
  8
0
100
AcDbLine
 10
42.64260563005051
 20
-1.999999999999997
 30
29.49459472552187
 11
46.64260563005051
 21
-1.999999999999997
 31
29.49459472552187
  0
LINE
  5
151
330
1F
100
AcDbEntity
  8
0
100
AcDbLine
 10
44.64260563005051
 20
-1.999999999999997
 30
29.68209472552187
 11
44.64260563005051
 21
-1.999999999999997
 31
29.30709472552187
  0
LINE
  5
152
330
1F
100
AcDbEntity
  8
0
100
AcDbLine
 10
40.89260563005052
 20
-0.2499999999999955
 30
28.30709472552187
 11
48.39260563005052
 21
-0.2499999999999951
 31
28.30709472552187
  0
LINE
  5
153
330
1F
100
AcDbEntity
  8
0
100
AcDbLine
 10
44.64260563005052
 20
-0.2499999999999953
 30
28.43209472552187
 11
44.64260563005052
 21
-0.2499999999999953
 31
28.18209472552187
  0
ARC
  5
154
330
1F
100
AcDbEntity
  8
0
100
AcDbCircle
 10
-0.0250481418828973
 20
30.47264269368365
 30
44.64260563005053
 40
2.052909970953305
210
1.0
220
6.245004513516506E-17
230
0.0
100
AcDbArc
 50
214.5937574666758
 51
263.709063950983
  0
ARC
  5
155
330
1F
100
AcDbEntity
  8
0
100
AcDbCircle
 10
-7.974951858117109
 20
30.47264269368365
 30
44.64260563005053
 40
2.052909970953305
210
1.0
220
0.0
230
0.0
100
AcDbArc
 50
276.290936049017
 51
325.4062425333243
  0
LINE
  5
156
330
1F
100
AcDbEntity
  8
0
100
AcDbLine
 10
48.39260563005052
 20
-7.750000000000008
 30
28.30709472552187
 11
40.89260563005052
 21
-7.750000000000009
 31
28.30709472552187
  0
LINE
  5
157
330
1F
100
AcDbEntity
  8
0
100
AcDbLine
 10
44.64260563005052
 20
-7.750000000000009
 30
28.43209472552187
 11
44.64260563005052
 21
-7.750000000000009
 31
28.18209472552187
  0
ARC
  5
158
330
1F
100
AcDbEntity
  8
0
100
AcDbCircle
 10
-4.9799282677874
 20
33.36844641993014
 30
44.64260563005053
 40
4.740164690812462
210
1.0
220
0.0
230
0.0
100
AcDbArc
 50
308.950960969404
 51
356.2338881549594
  0
ARC
  5
159
330
1F
100
AcDbEntity
  8
0
100
AcDbCircle
 10
5.003296317446581
 20
37.45022266707544
 30
44.64260563005053
 40
6.848116186934663
210
1.0
220
0.0
230
0.0
100
AcDbArc
 50
174.5461519939317
 51
219.9044316201298
  0
LINE
  5
15A
330
1F
100
AcDbEntity
  8
0
100
AcDbLine
 10
46.79778525748997
 20
-1.844819869488083
 30
37.45022266707545
 11
42.48742600261104
 21
-1.844819869488083
 31
37.45022266707545
  0
ARC
  5
15B
330
1F
100
AcDbEntity
  8
0
100
AcDbCircle
 10
0.604931235002056
 20
37.82386028381233
 30
44.64260563005055
 40
2.43458651132923
210
1.0
220
1.110223024625157E-16
230
0.0
100
AcDbArc
 50
104.387224534036
 51
173.4613610626128
  0
ARC
  5
15C
330
1F
100
AcDbEntity
  8
0
100
AcDbCircle
 10
-40.66765377193341
 20
30.47264269368365
 30
-4.0
 40
2.052909970953301
210
0.0
220
1.0
230
0.0
100
AcDbArc
 50
214.5937574666758
 51
263.709063950983
  0
LINE
  5
15D
330
1F
100
AcDbEntity
  8
0
100
AcDbLine
 10
40.64260563005051
 20
-8.000000000000002
 30
25.18209472552187
 11
48.64260563005051
 21
-8.000000000000002
 31
25.18209472552187
  0
LINE
  5
15E
330
1F
100
AcDbEntity
  8
0
100
AcDbLine
 10
44.64260563005051
 20
-8.000000000000002
 30
28.18209472552187
 11
44.64260563005051
 21
-8.000000000000002
 31
22.18209472552187
  0
LINE
  5
15F
330
1F
100
AcDbEntity
  8
0
100
AcDbLine
 10
40.89260563005051
 20
-7.750000000000009
 30
28.30709472552187
 11
40.89260563005051
 21
-0.2499999999999956
 31
28.30709472552187
  0
LINE
  5
160
330
1F
100
AcDbEntity
  8
0
100
AcDbLine
 10
40.89260563005051
 20
-4.000000000000002
 30
28.43209472552187
 11
40.89260563005051
 21
-4.000000000000002
 31
28.18209472552187
  0
ARC
  5
161
330
1F
100
AcDbEntity
  8
0
100
AcDbCircle
 10
-49.24753686505257
 20
37.82386028381233
 30
-4.0
 40
2.434586511329229
210
0.0
220
1.0
230
0.0
100
AcDbArc
 50
6.53863893738735
 51
75.61277546596413
  0
ARC
  5
162
330
1F
100
AcDbEntity
  8
0
100
AcDbCircle
 10
-53.64590194749709
 20
37.45022266707544
 30
-4.0
 40
6.848116186934661
210
0.0
220
1.0
230
0.0
100
AcDbArc
 50
320.0955683798702
 51
5.453848006068323
  0
LINE
  5
163
330
1F
100
AcDbEntity
  8
0
100
AcDbLine
 10
46.79778576056243
 20
-1.844820372560538
 30
37.45022266707544
 11
46.79778576056243
 21
-6.155179627439455
 31
37.45022266707544
  0
LINE
  5
164
330
1F
100
AcDbEntity
  8
0
100
AcDbLine
 10
40.64260563005051
 20
-0.0000000000000013
 30
25.18209472552187
 11
48.64260563005051
 21
-0.0000000000000013
 31
25.18209472552187
  0
LINE
  5
165
330
1F
100
AcDbEntity
  8
0
100
AcDbLine
 10
44.64260563005051
 20
-0.0000000000000015
 30
28.18209472552187
 11
44.64260563005051
 21
-0.0000000000000011
 31
22.18209472552187
  0
LINE
  5
166
330
1F
100
AcDbEntity
  8
0
100
AcDbLine
 10
40.64260563005051
 20
-0.0000000000000023
 30
42.18209472552188
 11
48.64260563005051
 21
-0.0000000000000023
 31
42.18209472552188
  0
LINE
  5
167
330
1F
100
AcDbEntity
  8
0
100
AcDbLine
 10
44.64260563005051
 20
-0.0000000000000025
 30
44.18209472552187
 11
44.64260563005051
 21
-0.0000000000000022
 31
40.18209472552189
  0
ARC
  5
168
330
1F
100
AcDbEntity
  8
0
100
AcDbCircle
 10
-43.66267736226312
 20
33.36844641993014
 30
-4.0
 40
4.740164690812463
210
0.0
220
1.0
230
0.0
100
AcDbArc
 50
183.7661118450406
 51
231.049039030596
  0
LINE
  5
169
330
1F
100
AcDbEntity
  8
0
100
AcDbLine
 10
46.64260563005051
 20
-1.999999999999997
 30
29.49459472552187
 11
46.64260563005051
 21
-6.000000000000004
 31
29.49459472552187
  0
LINE
  5
16A
330
1F
100
AcDbEntity
  8
0
100
AcDbLine
 10
46.64260563005051
 20
-4.000000000000002
 30
29.68209472552186
 11
46.64260563005051
 21
-4.000000000000002
 31
29.30709472552187
  0
ARC
  5
16B
330
1F
100
AcDbEntity
  8
0
100
AcDbCircle
 10
-48.61755748816762
 20
30.47264269368365
 30
-4.0
 40
2.052909970953301
210
0.0
220
1.0
230
0.0
100
AcDbArc
 50
276.2909360490168
 51
325.4062425333242
  0
LINE
  5
16C
330
1F
100
AcDbEntity
  8
0
100
AcDbLine
 10
48.39260563005053
 20
-0.2499999999999947
 30
28.30709472552187
 11
48.39260563005053
 21
-7.750000000000008
 31
28.30709472552187
  0
LINE
  5
16D
330
1F
100
AcDbEntity
  8
0
100
AcDbLine
 10
48.39260563005053
 20
-4.000000000000002
 30
28.43209472552187
 11
48.39260563005053
 21
-4.000000000000002
 31
28.18209472552187
  0
LINE
  5
16E
330
1F
100
AcDbEntity
  8
0
100
AcDbLine
 10
48.64260563005051
 20
0.0000000000000002
 30
25.18209472552187
 11
48.64260563005051
 21
-8.0
 31
25.18209472552187
  0
LINE
  5
16F
330
1F
100
AcDbEntity
  8
0
100
AcDbLine
 10
48.64260563005051
 20
-4.000000000000001
 30
28.18209472552187
 11
48.64260563005051
 21
-4.000000000000001
 31
22.18209472552187
  0
LINE
  5
170
330
1F
100
AcDbEntity
  8
0
100
AcDbLine
 10
44.64260563005051
 20
0.0
 30
22.18209472552187
 11
44.64260563005051
 21
-7.999999999999999
 31
22.18209472552187
  0
LINE
  5
171
330
1F
100
AcDbEntity
  8
0
100
AcDbLine
 10
48.64260563005051
 20
-4.0
 30
22.18209472552187
 11
40.64260563005051
 21
-4.0
 31
22.18209472552187
  0
LINE
  5
172
330
1F
100
AcDbEntity
  8
0
100
AcDbLine
 10
40.64260563005051
 20
-8.0
 30
25.18209472552187
 11
40.64260563005051
 21
-0.0000000000000002
 31
25.18209472552187
  0
LINE
  5
173
330
1F
100
AcDbEntity
  8
0
100
AcDbLine
 10
40.64260563005051
 20
-4.000000000000001
 30
28.18209472552187
 11
40.64260563005051
 21
-4.000000000000001
 31
22.18209472552187
  0
LINE
  5
174
330
1F
100
AcDbEntity
  8
0
100
AcDbLine
 10
44.64260563005051
 20
-8.000000000000002
 30
28.18209472552187
 11
44.64260563005051
 21
-7.750000000000007
 31
28.18209472552187
  0
LINE
  5
175
330
1F
100
AcDbEntity
  8
0
100
AcDbLine
 10
44.64260563005051
 20
-0.2499999999999952
 30
28.18209472552187
 11
44.64260563005051
 21
-0.0000000000000019
 31
28.18209472552187
  0
LINE
  5
176
330
1F
100
AcDbEntity
  8
0
100
AcDbLine
 10
48.64260563005051
 20
-4.000000000000001
 30
28.18209472552187
 11
48.39260563005052
 21
-4.000000000000001
 31
28.18209472552187
  0
LINE
  5
177
330
1F
100
AcDbEntity
  8
0
100
AcDbLine
 10
40.89260563005051
 20
-4.000000000000001
 30
28.18209472552187
 11
40.64260563005052
 21
-4.000000000000001
 31
28.18209472552187
  0
LINE
  5
178
330
1F
100
AcDbEntity
  8
0
100
AcDbLine
 10
44.64260563005052
 20
-6.285000000000005
 30
29.30709472552187
 11
44.64260563005052
 21
-6.000000000000004
 31
29.30709472552187
  0
LINE
  5
179
330
1F
100
AcDbEntity
  8
0
100
AcDbLine
 10
44.64260563005052
 20
-1.999999999999998
 30
29.30709472552187
 11
44.64260563005052
 21
-1.714999999999996
 31
29.30709472552187
  0
LINE
  5
17A
330
1F
100
AcDbEntity
  8
0
100
AcDbLine
 10
46.92760563005052
 20
-4.000000000000001
 30
29.30709472552187
 11
46.64260563005051
 21
-4.000000000000001
 31
29.30709472552187
  0
LINE
  5
17B
330
1F
100
AcDbEntity
  8
0
100
AcDbLine
 10
42.64260563005051
 20
-4.000000000000001
 30
29.30709472552187
 11
42.35760563005051
 21
-4.000000000000001
 31
29.30709472552187
  0
LINE
  5
17C
330
1F
100
AcDbEntity
  8
0
100
AcDbLine
 10
42.64260563005051
 20
-6.000000000000002
 30
29.49459472552187
 11
42.64260563005051
 21
-1.999999999999997
 31
29.49459472552187
  0
LINE
  5
17D
330
1F
100
AcDbEntity
  8
0
100
AcDbLine
 10
42.64260563005051
 20
-4.0
 30
29.68209472552187
 11
42.64260563005051
 21
-4.0
 31
29.30709472552187
  0
ARC
  5
17E
330
1F
100
AcDbEntity
  8
0
100
AcDbCircle
 10
-45.62253389783791
 20
33.36844641993014
 30
-4.0
 40
4.740164690812463
210
0.0
220
1.0
230
0.0
100
AcDbArc
 50
308.9509609694041
 51
356.2338881549594
  0
ARC
  5
17F
330
1F
100
AcDbEntity
  8
0
100
AcDbCircle
 10
-35.63930931260393
 20
37.45022266707544
 30
-4.0
 40
6.848116186934661
210
0.0
220
1.0
230
0.0
100
AcDbArc
 50
174.5461519939317
 51
219.9044316201298
  0
LINE
  5
180
330
1F
100
AcDbEntity
  8
0
100
AcDbLine
 10
42.48742549953859
 20
-1.84482037256054
 30
37.45022266707544
 11
42.48742549953859
 21
-6.155179627439457
 31
37.45022266707544
  0
ARC
  5
181
330
1F
100
AcDbEntity
  8
0
100
AcDbCircle
 10
-40.03767439504846
 20
37.82386028381233
 30
-4.0
 40
2.434586511329229
210
0.0
220
1.0
230
0.0
100
AcDbArc
 50
104.3872245340359
 51
173.4613610626127
  0
LINE
  5
182
330
1F
100
AcDbEntity
  8
0
100
AcDbLine
 10
40.64260563005051
 20
-8.0
 30
42.18209472552187
 11
40.64260563005051
 21
-0.0000000000000019
 31
42.18209472552187
  0
LINE
  5
183
330
1F
100
AcDbEntity
  8
0
100
AcDbLine
 10
40.64260563005051
 20
-4.000000000000002
 30
44.18209472552187
 11
40.64260563005051
 21
-4.000000000000002
 31
40.18209472552188
  0
LINE
  5
184
330
1F
100
AcDbEntity
  8
0
100
AcDbLine
 10
44.64260563005051
 20
-8.0
 30
44.18209472552187
 11
44.64260563005051
 21
-0.0000000000000018
 31
44.18209472552187
  0
LINE
  5
185
330
1F
100
AcDbEntity
  8
0
100
AcDbLine
 10
48.64260563005051
 20
-4.000000000000002
 30
44.18209472552187
 11
40.64260563005051
 21
-4.000000000000002
 31
44.18209472552187
  0
LINE
  5
186
330
1F
100
AcDbEntity
  8
0
100
AcDbLine
 10
48.64260563005051
 20
-0.0000000000000017
 30
42.18209472552187
 11
48.64260563005051
 21
-8.0
 31
42.18209472552187
  0
LINE
  5
187
330
1F
100
AcDbEntity
  8
0
100
AcDbLine
 10
48.64260563005051
 20
-4.000000000000002
 30
44.18209472552187
 11
48.64260563005051
 21
-4.000000000000002
 31
40.18209472552188
  0
LINE
  5
188
330
1F
100
AcDbEntity
  8
0
100
AcDbLine
 10
40.64260563005051
 20
-8.000000000000002
 30
42.18209472552188
 11
48.64260563005051
 21
-8.000000000000002
 31
42.18209472552188
  0
LINE
  5
189
330
1F
100
AcDbEntity
  8
0
100
AcDbLine
 10
44.64260563005051
 20
-8.000000000000002
 30
44.18209472552187
 11
44.64260563005051
 21
-8.000000000000002
 31
40.18209472552189
  0
SPLINE
  5
18A
330
1F
100
AcDbEntity
  8
0
100
AcDbSpline
210
0.0
220
0.0
230
1.0
 70
    24
 71
     2
 72
     6
 73
     3
 74
     0
 42
0.000000001
 43
0.0000000001
 40
0.0
 40
0.0
 40
0.0
 40
5.375
 40
5.375
 40
5.375
 10
2.767605630049852
 20
-0.0000000000000102
 30
27.93209472552187
 10
2.767605630049852
 20
-0.000000000000005
 30
25.24459472552187
 10
2.767605630049852
 20
0.0000000000000001
 30
22.55709472552187
  0
SPLINE
  5
18B
330
1F
100
AcDbEntity
  8
0
100
AcDbSpline
210
0.0
220
0.0
230
1.0
 70
    24
 71
     2
 72
     6
 73
     3
 74
     0
 42
0.000000001
 43
0.0000000001
 40
-3.75
 40
-3.75
 40
-3.75
 40
0.0
 40
0.0
 40
0.0
 10
2.767605630049852
 20
0.0000000000000001
 30
22.55709472552187
 10
4.642605630049854
 20
0.0000000000000003
 30
22.55709472552187
 10
6.517605630049855
 20
0.0000000000000005
 30
22.55709472552187
  0
SPLINE
  5
18C
330
1F
100
AcDbEntity
  8
0
100
AcDbSpline
210
0.0
220
0.0
230
1.0
 70
    24
 71
     2
 72
     6
 73
     3
 74
     0
 42
0.000000001
 43
0.0000000001
 40
-5.375
 40
-5.375
 40
-5.375
 40
0.0
 40
0.0
 40
0.0
 10
6.517605630049855
 20
0.0000000000000005
 30
22.55709472552187
 10
6.517605630049856
 20
-0.000000000000005
 30
25.24459472552187
 10
6.517605630049857
 20
-0.0000000000000105
 30
27.93209472552187
  0
SPLINE
  5
18D
330
1F
100
AcDbEntity
  8
0
100
AcDbSpline
210
0.0
220
0.0
230
1.0
 70
    24
 71
     2
 72
     6
 73
     3
 74
     0
 42
0.000000001
 43
0.0000000001
 40
0.0
 40
0.0
 40
0.0
 40
3.75
 40
3.75
 40
3.75
 10
6.517605630049857
 20
-0.0000000000000105
 30
27.93209472552187
 10
4.642605630049855
 20
-0.0000000000000103
 30
27.93209472552187
 10
2.767605630049852
 20
-0.0000000000000102
 30
27.93209472552187
  0
SPLINE
  5
18E
330
1F
100
AcDbEntity
  8
0
100
AcDbSpline
210
0.0
220
0.0
230
1.0
 70
    24
 71
     2
 72
     6
 73
     3
 74
     0
 42
0.000000001
 43
0.0000000001
 40
0.0
 40
0.0
 40
0.0
 40
1.571884695480472
 40
1.571884695480472
 40
1.571884695480472
 10
2.767605630049856
 20
1.571884695480457
 30
27.93209472552187
 10
2.767605630049854
 20
0.7859423477402234
 30
27.93209472552187
 10
2.767605630049852
 20
-0.0000000000000102
 30
27.93209472552187
  0
SPLINE
  5
18F
330
1F
100
AcDbEntity
  8
0
100
AcDbSpline
210
0.0
220
0.0
230
1.0
 70
    24
 71
     2
 72
     6
 73
     3
 74
     0
 42
0.000000001
 43
0.0000000001
 40
-1.571884695480472
 40
-1.571884695480472
 40
-1.571884695480472
 40
0.0
 40
0.0
 40
0.0
 10
6.517605630049857
 20
-0.0000000000000105
 30
27.93209472552187
 10
6.517605630049857
 20
0.7859423477402233
 30
27.93209472552187
 10
6.517605630049857
 20
1.571884695480457
 30
27.93209472552187
  0
SPLINE
  5
190
330
1F
100
AcDbEntity
  8
0
100
AcDbSpline
210
0.0
220
0.0
230
1.0
 70
    24
 71
     2
 72
     6
 73
     3
 74
     0
 42
0.000000001
 43
0.0000000001
 40
0.0
 40
0.0
 40
0.0
 40
3.75
 40
3.75
 40
3.75
 10
6.517605630049857
 20
1.571884695480457
 30
27.93209472552187
 10
4.642605630049856
 20
1.571884695480457
 30
27.93209472552187
 10
2.767605630049856
 20
1.571884695480457
 30
27.93209472552187
  0
ARC
  5
191
330
1F
100
AcDbEntity
  8
0
100
AcDbCircle
 10
7.44843212074202
 20
31.0206655462858
 30
2.767605630049797
 40
6.638755859061439
210
1.0
220
-1.410115091392094E-15
230
-2.029532211987841E-15
100
AcDbArc
 50
207.7253269823152
 51
265.8831027946864
  0
ARC
  5
192
330
1F
100
AcDbEntity
  8
0
100
AcDbCircle
 10
7.448432120742016
 20
31.0206655462858
 30
6.517605630049857
 40
6.638755859061445
210
1.0
220
0.0
230
0.0
100
AcDbArc
 50
207.7253269823152
 51
265.8831027946864
  0
LINE
  5
193
330
1F
100
AcDbEntity
  8
0
100
AcDbLine
 10
6.517605630049857
 20
6.971825226611888
 30
24.3990399736118
 11
2.767605630049856
 21
6.971825226611889
 31
24.3990399736118
  0
ARC
  5
194
330
1F
100
AcDbEntity
  8
0
100
AcDbCircle
 10
6.899918270751639
 20
23.40398747414632
 30
2.767605630049606
 40
0.9976472758413305
210
1.0
220
-3.287559000971880E-15
230
-9.295008102138758E-15
100
AcDbArc
 50
47.33134088866349
 51
85.86673489242375
  0
ARC
  5
195
330
1F
100
AcDbEntity
  8
0
100
AcDbCircle
 10
6.899918270751638
 20
23.40398747414632
 30
6.517605630049857
 40
0.99764727584131
210
1.0
220
0.0
230
0.0
100
AcDbArc
 50
47.33134088866296
 51
85.86673489242412
  0
LINE
  5
196
330
1F
100
AcDbEntity
  8
0
100
AcDbLine
 10
6.517605630049857
 20
7.576081263046113
 30
24.13754299000382
 11
2.767605630049856
 21
7.576081263046113
 31
24.13754299000382
  0
ARC
  5
197
330
1F
100
AcDbEntity
  8
0
100
AcDbCircle
 10
14.25962962831658
 20
31.47464022432029
 30
2.767605630049515
 40
9.92485841595351
210
1.0
220
-7.559034925493744E-15
230
-1.176972022055684E-14
100
AcDbArc
 50
227.6688148075297
 51
247.9513638139952
  0
ARC
  5
198
330
1F
100
AcDbEntity
  8
0
100
AcDbCircle
 10
14.25962962831645
 20
31.47464022432008
 30
6.517605630049857
 40
9.924858415953302
210
1.0
220
0.0
230
0.0
100
AcDbArc
 50
227.6688148075295
 51
247.9513638139954
  0
LINE
  5
199
330
1F
100
AcDbEntity
  8
0
100
AcDbLine
 10
6.517605630049857
 20
10.53390220013138
 30
22.27563105443724
 11
2.767605630049856
 21
10.53390220013138
 31
22.27563105443724
  0
SPLINE
  5
19A
330
1F
100
AcDbEntity
  8
0
100
AcDbSpline
210
0.0
220
0.0
230
1.0
 70
    24
 71
     2
 72
     6
 73
     3
 74
     0
 42
0.000000001
 43
0.0000000001
 40
-1.630131033999882
 40
-1.630131033999882
 40
-1.630131033999882
 40
-0.0000000000000007
 40
-0.0000000000000007
 40
-0.0000000000000007
 10
2.767605630049858
 20
12.03466131702368
 30
21.63919624939105
 10
2.767605630049857
 20
11.28428175857754
 30
21.95741365191414
 10
2.767605630049856
 20
10.53390220013138
 30
22.27563105443724
  0
SPLINE
  5
19B
330
1F
100
AcDbEntity
  8
0
100
AcDbSpline
210
0.0
220
0.0
230
1.0
 70
    24
 71
     2
 72
     6
 73
     3
 74
     0
 42
0.000000001
 43
0.0000000001
 40
0.0000000000000007
 40
0.0000000000000007
 40
0.0000000000000007
 40
1.630131033999882
 40
1.630131033999882
 40
1.630131033999882
 10
6.517605630049857
 20
10.53390220013138
 30
22.27563105443724
 10
6.517605630049857
 20
11.28428175857754
 30
21.95741365191414
 10
6.517605630049857
 20
12.03466131702368
 30
21.63919624939105
  0
SPLINE
  5
19C
330
1F
100
AcDbEntity
  8
0
100
AcDbSpline
210
0.0
220
0.0
230
1.0
 70
    24
 71
     2
 72
     6
 73
     3
 74
     0
 42
0.000000001
 43
0.0000000001
 40
0.0
 40
0.0
 40
0.0
 40
3.75
 40
3.75
 40
3.75
 10
6.517605630049857
 20
12.03466131702368
 30
21.63919624939105
 10
4.642605630049857
 20
12.03466131702368
 30
21.63919624939105
 10
2.767605630049858
 20
12.03466131702368
 30
21.63919624939105
  0
ARC
  5
19D
330
1F
100
AcDbEntity
  8
0
100
AcDbCircle
 10
11.36495043976142
 20
20.14759496040228
 30
2.767605630049863
 40
1.635049560238572
210
1.0
220
3.304447145715013E-16
230
8.739318167888305E-17
100
AcDbArc
 50
323.8073515994899
 51
65.82049838953435
  0
ARC
  5
19E
330
1F
100
AcDbEntity
  8
0
100
AcDbCircle
 10
11.3649504397614
 20
20.14759496040228
 30
6.517605630049857
 40
1.635049560238584
210
1.0
220
0.0
230
0.0
100
AcDbArc
 50
323.8073515994902
 51
65.820498389534
  0
LINE
  5
19F
330
1F
100
AcDbEntity
  8
0
100
AcDbLine
 10
6.517605630049857
 20
12.6844944370886
 30
19.18209472552186
 11
2.767605630049858
 21
12.6844944370886
 31
19.18209472552186
  0
SPLINE
  5
1A0
330
1F
100
AcDbEntity
  8
0
100
AcDbSpline
210
0.0
220
0.0
230
1.0
 70
    24
 71
     2
 72
     6
 73
     3
 74
     0
 42
0.000000001
 43
0.0000000001
 40
0.0
 40
0.0
 40
0.0
 40
3.208655291266309
 40
3.208655291266309
 40
3.208655291266309
 10
2.767605630049856
 20
9.475839145822295
 30
19.18209472552186
 10
2.767605630049857
 20
11.08016679145545
 30
19.18209472552186
 10
2.767605630049858
 20
12.6844944370886
 30
19.18209472552186
  0
SPLINE
  5
1A1
330
1F
100
AcDbEntity
  8
0
100
AcDbSpline
210
0.0
220
0.0
230
1.0
 70
    24
 71
     2
 72
     6
 73
     3
 74
     0
 42
0.000000001
 43
0.0000000001
 40
-3.208655291266309
 40
-3.208655291266309
 40
-3.208655291266309
 40
0.0
 40
0.0
 40
0.0
 10
6.517605630049857
 20
12.6844944370886
 30
19.18209472552186
 10
6.517605630049857
 20
11.08016679145545
 30
19.18209472552186
 10
6.517605630049857
 20
9.475839145822295
 30
19.18209472552186
  0
SPLINE
  5
1A2
330
1F
100
AcDbEntity
  8
0
100
AcDbSpline
210
0.0
220
0.0
230
1.0
 70
    24
 71
     2
 72
     6
 73
     3
 74
     0
 42
0.000000001
 43
0.0000000001
 40
0.0
 40
0.0
 40
0.0
 40
3.75
 40
3.75
 40
3.75
 10
6.517605630049857
 20
9.475839145822295
 30
19.18209472552186
 10
4.642605630049857
 20
9.475839145822295
 30
19.18209472552186
 10
2.767605630049856
 20
9.475839145822295
 30
19.18209472552186
  0
ARC
  5
1A3
330
1F
100
AcDbEntity
  8
0
100
AcDbCircle
 10
8.028904239089538
 20
19.36077178559432
 30
2.767605630050005
 40
1.457925277961056
210
1.0
220
6.662639825585042E-15
230
4.451084055161633E-15
100
AcDbArc
 50
352.9603773716065
 51
74.53070968123839
  0
ARC
  5
1A4
330
1F
100
AcDbEntity
  8
0
100
AcDbCircle
 10
8.028904239089556
 20
19.36077178559433
 30
6.517605630049857
 40
1.457925277961057
210
1.0
220
0.0
230
0.0
100
AcDbArc
 50
352.9603773716066
 51
74.53070968123842
  0
LINE
  5
1A5
330
1F
100
AcDbEntity
  8
0
100
AcDbLine
 10
6.517605630049857
 20
8.41776476084952
 30
20.76588160718636
 11
2.767605630049856
 21
8.41776476084952
 31
20.76588160718636
  0
ARC
  5
1A6
330
1F
100
AcDbEntity
  8
0
100
AcDbCircle
 10
4.886696049363493
 20
8.123564388724807
 30
2.767605630049817
 40
13.12618112390063
210
1.0
220
-3.567400181500287E-18
230
-1.861536428704997E-15
100
AcDbArc
 50
74.39465931284137
 51
89.89019998702808
  0
ARC
  5
1A7
330
1F
100
AcDbEntity
  8
0
100
AcDbCircle
 10
4.886696049363465
 20
8.123564388724745
 30
6.517605630049857
 40
13.12618112390069
210
1.0
220
0.0
230
0.0
100
AcDbArc
 50
74.39465931284133
 51
89.89019998702794
  0
LINE
  5
1A8
330
1F
100
AcDbEntity
  8
0
100
AcDbLine
 10
6.517605630049857
 20
4.911850676593652
 30
21.24972140980962
 11
2.767605630049857
 21
4.911850676593652
 31
21.24972140980962
  0
ARC
  5
1A9
330
1F
100
AcDbEntity
  8
0
100
AcDbCircle
 10
4.897986112631698
 20
24.44462847074082
 30
2.767605630049924
 40
3.194937144001735
210
1.0
220
8.388402054303599E-17
230
3.117000889136936E-15
100
AcDbArc
 50
244.013218178177
 51
270.2486382226859
  0
ARC
  5
1AA
330
1F
100
AcDbEntity
  8
0
100
AcDbCircle
 10
4.897986112631703
 20
24.44462847074085
 30
6.517605630049857
 40
3.19493714400176
210
1.0
220
0.0
230
0.0
100
AcDbArc
 50
244.0132181781771
 51
270.2486382226858
  0
LINE
  5
1AB
330
1F
100
AcDbEntity
  8
0
100
AcDbLine
 10
6.517605630049857
 20
3.4980803681835
 30
21.57271495171159
 11
2.767605630049856
 21
3.4980803681835
 31
21.57271495171159
  0
ARC
  5
1AC
330
1F
100
AcDbEntity
  8
0
100
AcDbCircle
 10
0.0953218927171194
 20
16.18827099924807
 30
2.767605630049846
 40
6.369537025528566
210
1.0
220
-1.232268209841791E-15
230
-3.187492803911517E-16
100
AcDbArc
 50
57.70871111329358
 51
90.85747928103703
  0
ARC
  5
1AD
330
1F
100
AcDbEntity
  8
0
100
AcDbCircle
 10
0.0953218927171284
 20
16.1882709992481
 30
6.517605630049854
 40
6.369537025528532
210
1.0
220
-5.412978844565497E-16
230
-1.190055572789979E-16
100
AcDbArc
 50
57.70871111329347
 51
90.85747928103714
  0
LINE
  5
1AE
330
1F
100
AcDbEntity
  8
0
100
AcDbLine
 10
6.517605630049857
 20
-0.0000000000000005
 30
25.24459472552187
 11
2.76760563004985
 21
0.0000000000000004
 31
25.24459472552187
  0
LINE
  5
1AF
330
1F
100
AcDbEntity
  8
0
100
AcDbLine
 10
4.642605630049854
 20
-0.0000000000000005
 30
27.93209472552187
 11
4.642605630049854
 21
0.0000000000000005
 31
22.55709472552187
  0
LINE
  5
1B0
330
1F
100
AcDbEntity
  8
0
100
AcDbLine
 10
6.517605630049857
 20
0.7859423477402196
 30
27.93209472552187
 11
2.767605630049854
 21
0.7859423477402205
 31
27.93209472552187
  0
LINE
  5
1B1
330
1F
100
AcDbEntity
  8
0
100
AcDbLine
 10
4.642605630049854
 20
1.571884695480455
 30
27.93209472552187
 11
4.642605630049854
 21
-0.000000000000015
 31
27.93209472552187
  0
ARC
  5
1B2
330
1F
100
AcDbEntity
  8
0
100
AcDbCircle
 10
7.448432120741997
 20
31.02066554628578
 30
4.642605630049855
 40
6.638755859061409
210
1.0
220
0.0
230
0.0
100
AcDbArc
 50
207.7253269823151
 51
265.8831027946865
  0
ARC
  5
1B3
330
1F
100
AcDbEntity
  8
0
100
AcDbCircle
 10
6.89991827075164
 20
23.40398747414631
 30
4.642605630049859
 40
0.9976472758413228
210
1.0
220
0.0
230
0.0
100
AcDbArc
 50
47.33134088866369
 51
85.86673489242423
  0
ARC
  5
1B4
330
1F
100
AcDbEntity
  8
0
100
AcDbCircle
 10
14.25962962831646
 20
31.47464022432012
 30
4.642605630049855
 40
9.924858415953338
210
1.0
220
0.0
230
0.0
100
AcDbArc
 50
227.6688148075296
 51
247.9513638139954
  0
LINE
  5
1B5
330
1F
100
AcDbEntity
  8
0
100
AcDbLine
 10
6.517605630049857
 20
11.28428175857754
 30
21.95741365191415
 11
2.767605630049857
 21
11.28428175857754
 31
21.95741365191415
  0
LINE
  5
1B6
330
1F
100
AcDbEntity
  8
0
100
AcDbLine
 10
4.642605630049857
 20
12.03466131702368
 30
21.63919624939106
 11
4.642605630049857
 21
10.53390220013139
 31
22.27563105443724
  0
ARC
  5
1B7
330
1F
100
AcDbEntity
  8
0
100
AcDbCircle
 10
11.36495043976141
 20
20.14759496040228
 30
4.642605630049859
 40
1.635049560238581
210
1.0
220
0.0
230
0.0
100
AcDbArc
 50
323.8073515994901
 51
65.82049838953411
  0
LINE
  5
1B8
330
1F
100
AcDbEntity
  8
0
100
AcDbLine
 10
2.767605630049857
 20
12.99999999999999
 30
20.14759496040228
 11
6.517605630049857
 21
12.99999999999999
 31
20.14759496040228
  0
LINE
  5
1B9
330
1F
100
AcDbEntity
  8
0
100
AcDbLine
 10
2.767605630049858
 20
11.08016679145545
 30
19.18209472552186
 11
6.517605630049858
 21
11.08016679145545
 31
19.18209472552186
  0
LINE
  5
1BA
330
1F
100
AcDbEntity
  8
0
100
AcDbLine
 10
4.642605630049856
 20
12.6844944370886
 30
19.18209472552186
 11
4.642605630049856
 21
9.475839145822297
 31
19.18209472552186
  0
ARC
  5
1BB
330
1F
100
AcDbEntity
  8
0
100
AcDbCircle
 10
8.028904239089563
 20
19.36077178559433
 30
4.642605630049859
 40
1.457925277961049
210
1.0
220
0.0
230
0.0
100
AcDbArc
 50
352.9603773716065
 51
74.53070968123856
  0
LINE
  5
1BC
330
1F
100
AcDbEntity
  8
0
100
AcDbLine
 10
2.767605630049857
 20
9.486829517050612
 30
19.36077178559433
 11
6.517605630049857
 21
9.486829517050612
 31
19.36077178559433
  0
ARC
  5
1BD
330
1F
100
AcDbEntity
  8
0
100
AcDbCircle
 10
4.886696049363437
 20
8.123564388724576
 30
4.642605630049859
 40
13.12618112390086
210
1.0
220
0.0
230
0.0
100
AcDbArc
 50
74.39465931284143
 51
89.89019998702784
  0
ARC
  5
1BE
330
1F
100
AcDbEntity
  8
0
100
AcDbCircle
 10
4.897986112631719
 20
24.44462847074087
 30
4.642605630049859
 40
3.194937144001782
210
1.0
220
0.0
230
0.0
100
AcDbArc
 50
244.0132181781769
 51
270.2486382226855
  0
LINE
  5
1BF
330
1F
100
AcDbEntity
  8
0
100
AcDbLine
 10
2.767605630049857
 20
4.89798611263172
 30
21.24969132673909
 11
6.517605630049857
 21
4.89798611263172
 31
21.24969132673909
  0
ARC
  5
1C0
330
1F
100
AcDbEntity
  8
0
100
AcDbCircle
 10
0.095321892717119
 20
16.18827099924808
 30
4.642605630049855
 40
6.36953702552856
210
1.0
220
-2.498001805406602E-16
230
0.0
100
AcDbArc
 50
57.70871111329359
 51
90.85747928103706
  0
LINE
  5
1C1
330
1F
100
AcDbEntity
  8
0
100
AcDbLine
 10
2.767605630049851
 20
0.09532189271712
 30
22.55780802477663
 11
6.517605630049856
 21
0.09532189271712
 31
22.55780802477663
  0
LINE
  5
1C2
330
1F
100
AcDbEntity
  8
0
100
AcDbLine
 10
2.767605630049856
 20
-0.0000000000000037
 30
23.55709472552186
 11
2.767605630049858
 21
8.27504217252421
 31
23.55709472552186
  0
LINE
  5
1C3
330
1F
100
AcDbEntity
  8
0
100
AcDbLine
 10
2.767605630049857
 20
6.572541206391827
 30
24.43994412212709
 11
2.767605630049857
 21
6.572541206391827
 31
21.14103561027814
  0
LINE
  5
1C4
330
1F
100
AcDbEntity
  8
0
100
AcDbLine
 10
6.517605630049855
 20
-0.0000000000000028
 30
23.55709472552186
 11
6.517605630049858
 21
8.275042102748865
 31
23.55709472552186
  0
LINE
  5
1C5
330
1F
100
AcDbEntity
  8
0
100
AcDbLine
 10
6.517605630049857
 20
6.572541206391829
 30
24.43994412702728
 11
6.517605630049857
 21
6.572541206391829
 31
21.14103557980295
  0
SPLINE
  5
1C6
330
1F
100
AcDbEntity
  8
0
100
AcDbSpline
210
0.0
220
0.0
230
1.0
 70
    24
 71
     2
 72
     6
 73
     3
 74
     0
 42
0.000000001
 43
0.0000000001
 40
-5.375
 40
-5.375
 40
-5.375
 40
0.0
 40
0.0
 40
0.0
 10
2.767605630049852
 20
-8.000000000000002
 30
22.55709472552187
 10
2.767605630049852
 20
-7.999999999999996
 30
25.24459472552187
 10
2.767605630049852
 20
-7.999999999999991
 30
27.93209472552187
  0
SPLINE
  5
1C7
330
1F
100
AcDbEntity
  8
0
100
AcDbSpline
210
0.0
220
0.0
230
1.0
 70
    24
 71
     2
 72
     6
 73
     3
 74
     0
 42
0.000000001
 43
0.0000000001
 40
-3.75
 40
-3.75
 40
-3.75
 40
0.0
 40
0.0
 40
0.0
 10
2.767605630049852
 20
-7.999999999999991
 30
27.93209472552187
 10
4.642605630049855
 20
-7.999999999999991
 30
27.93209472552187
 10
6.517605630049857
 20
-7.99999999999999
 30
27.93209472552187
  0
SPLINE
  5
1C8
330
1F
100
AcDbEntity
  8
0
100
AcDbSpline
210
0.0
220
0.0
230
1.0
 70
    24
 71
     2
 72
     6
 73
     3
 74
     0
 42
0.000000001
 43
0.0000000001
 40
0.0
 40
0.0
 40
0.0
 40
5.375
 40
5.375
 40
5.375
 10
6.517605630049857
 20
-7.99999999999999
 30
27.93209472552187
 10
6.517605630049857
 20
-7.999999999999995
 30
25.24459472552187
 10
6.517605630049857
 20
-8.0
 30
22.55709472552187
  0
SPLINE
  5
1C9
330
1F
100
AcDbEntity
  8
0
100
AcDbSpline
210
0.0
220
0.0
230
1.0
 70
    24
 71
     2
 72
     6
 73
     3
 74
     0
 42
0.000000001
 43
0.0000000001
 40
0.0
 40
0.0
 40
0.0
 40
3.75
 40
3.75
 40
3.75
 10
6.517605630049857
 20
-8.0
 30
22.55709472552187
 10
4.642605630049855
 20
-8.0
 30
22.55709472552187
 10
2.767605630049852
 20
-8.000000000000002
 30
22.55709472552187
  0
SPLINE
  5
1CA
330
1F
100
AcDbEntity
  8
0
100
AcDbSpline
210
0.0
220
0.0
230
1.0
 70
    24
 71
     2
 72
     6
 73
     3
 74
     0
 42
0.000000001
 43
0.0000000001
 40
-1.571884695480472
 40
-1.571884695480472
 40
-1.571884695480472
 40
0.0
 40
0.0
 40
0.0
 10
2.767605630049852
 20
-7.999999999999991
 30
27.93209472552187
 10
2.767605630049854
 20
-8.785942347740225
 30
27.93209472552187
 10
2.767605630049856
 20
-9.571884695480456
 30
27.93209472552187
  0
SPLINE
  5
1CB
330
1F
100
AcDbEntity
  8
0
100
AcDbSpline
210
0.0
220
0.0
230
1.0
 70
    24
 71
     2
 72
     6
 73
     3
 74
     0
 42
0.000000001
 43
0.0000000001
 40
-3.75
 40
-3.75
 40
-3.75
 40
0.0
 40
0.0
 40
0.0
 10
2.767605630049856
 20
-9.571884695480456
 30
27.93209472552187
 10
4.642605630049857
 20
-9.571884695480456
 30
27.93209472552187
 10
6.517605630049857
 20
-9.571884695480456
 30
27.93209472552187
  0
SPLINE
  5
1CC
330
1F
100
AcDbEntity
  8
0
100
AcDbSpline
210
0.0
220
0.0
230
1.0
 70
    24
 71
     2
 72
     6
 73
     3
 74
     0
 42
0.000000001
 43
0.0000000001
 40
0.0
 40
0.0
 40
0.0
 40
1.571884695480472
 40
1.571884695480472
 40
1.571884695480472
 10
6.517605630049857
 20
-9.571884695480456
 30
27.93209472552187
 10
6.517605630049857
 20
-8.785942347740223
 30
27.93209472552187
 10
6.517605630049857
 20
-7.99999999999999
 30
27.93209472552187
  0
ARC
  5
1CD
330
1F
100
AcDbEntity
  8
0
100
AcDbCircle
 10
-15.44843212074203
 20
31.02066554628581
 30
2.767605630049863
 40
6.638755859061455
210
1.0
220
-5.380952056055859E-18
230
2.596153485331104E-16
100
AcDbArc
 50
274.1168972053136
 51
332.2746730176847
  0
LINE
  5
1CE
330
1F
100
AcDbEntity
  8
0
100
AcDbLine
 10
2.767605630049857
 20
-14.97182522661189
 30
24.3990399736118
 11
6.517605630049857
 21
-14.97182522661189
 31
24.3990399736118
  0
ARC
  5
1CF
330
1F
100
AcDbEntity
  8
0
100
AcDbCircle
 10
-15.44843212074201
 20
31.02066554628579
 30
6.517605630049857
 40
6.638755859061431
210
1.0
220
0.0
230
0.0
100
AcDbArc
 50
274.1168972053136
 51
332.2746730176848
  0
ARC
  5
1D0
330
1F
100
AcDbEntity
  8
0
100
AcDbCircle
 10
-14.89991827075165
 20
23.40398747414633
 30
2.767605630049857
 40
0.9976472758412949
210
1.0
220
0.0
230
0.0
100
AcDbArc
 50
94.13326510757508
 51
132.668659111337
  0
LINE
  5
1D1
330
1F
100
AcDbEntity
  8
0
100
AcDbLine
 10
2.767605630049857
 20
-15.57608126304611
 30
24.13754299000383
 11
6.517605630049857
 21
-15.57608126304611
 31
24.13754299000383
  0
ARC
  5
1D2
330
1F
100
AcDbEntity
  8
0
100
AcDbCircle
 10
-14.89991827075164
 20
23.40398747414633
 30
6.517605630049857
 40
0.9976472758412963
210
1.0
220
0.0
230
0.0
100
AcDbArc
 50
94.1332651075755
 51
132.6686591113371
  0
ARC
  5
1D3
330
1F
100
AcDbEntity
  8
0
100
AcDbCircle
 10
-22.25962962831647
 20
31.47464022432007
 30
2.767605630049857
 40
9.924858415953297
210
1.0
220
0.0
230
0.0
100
AcDbArc
 50
292.0486361860047
 51
312.3311851924706
  0
LINE
  5
1D4
330
1F
100
AcDbEntity
  8
0
100
AcDbLine
 10
2.767605630049857
 20
-18.53390220013139
 30
22.27563105443724
 11
6.517605630049857
 21
-18.53390220013139
 31
22.27563105443724
  0
ARC
  5
1D5
330
1F
100
AcDbEntity
  8
0
100
AcDbCircle
 10
-22.25962962831647
 20
31.4746402243201
 30
6.517605630049857
 40
9.924858415953322
210
1.0
220
0.0
230
0.0
100
AcDbArc
 50
292.0486361860046
 51
312.3311851924705
  0
SPLINE
  5
1D6
330
1F
100
AcDbEntity
  8
0
100
AcDbSpline
210
0.0
220
0.0
230
1.0
 70
    24
 71
     2
 72
     6
 73
     3
 74
     0
 42
0.000000001
 43
0.0000000001
 40
0.0000000000000007
 40
0.0000000000000007
 40
0.0000000000000007
 40
1.630131033999882
 40
1.630131033999882
 40
1.630131033999882
 10
2.767605630049857
 20
-18.53390220013139
 30
22.27563105443724
 10
2.767605630049857
 20
-19.28428175857754
 30
21.95741365191414
 10
2.767605630049858
 20
-20.03466131702368
 30
21.63919624939105
  0
SPLINE
  5
1D7
330
1F
100
AcDbEntity
  8
0
100
AcDbSpline
210
0.0
220
0.0
230
1.0
 70
    24
 71
     2
 72
     6
 73
     3
 74
     0
 42
0.000000001
 43
0.0000000001
 40
-3.75
 40
-3.75
 40
-3.75
 40
0.0
 40
0.0
 40
0.0
 10
2.767605630049858
 20
-20.03466131702368
 30
21.63919624939105
 10
4.642605630049857
 20
-20.03466131702368
 30
21.63919624939105
 10
6.517605630049857
 20
-20.03466131702368
 30
21.63919624939105
  0
SPLINE
  5
1D8
330
1F
100
AcDbEntity
  8
0
100
AcDbSpline
210
0.0
220
0.0
230
1.0
 70
    24
 71
     2
 72
     6
 73
     3
 74
     0
 42
0.000000001
 43
0.0000000001
 40
-1.630131033999882
 40
-1.630131033999882
 40
-1.630131033999882
 40
-0.0000000000000007
 40
-0.0000000000000007
 40
-0.0000000000000007
 10
6.517605630049857
 20
-20.03466131702368
 30
21.63919624939105
 10
6.517605630049857
 20
-19.28428175857754
 30
21.95741365191414
 10
6.517605630049857
 20
-18.53390220013139
 30
22.27563105443724
  0
ARC
  5
1D9
330
1F
100
AcDbEntity
  8
0
100
AcDbCircle
 10
-19.36495043976142
 20
20.14759496040228
 30
2.767605630049863
 40
1.635049560238571
210
1.0
220
-9.208308496741428E-17
230
2.050903649541139E-16
100
AcDbArc
 50
114.1795016104655
 51
216.1926484005102
  0
LINE
  5
1DA
330
1F
100
AcDbEntity
  8
0
100
AcDbLine
 10
2.767605630049858
 20
-20.6844944370886
 30
19.18209472552186
 11
6.517605630049857
 21
-20.6844944370886
 31
19.18209472552186
  0
ARC
  5
1DB
330
1F
100
AcDbEntity
  8
0
100
AcDbCircle
 10
-19.3649504397614
 20
20.14759496040228
 30
6.517605630049857
 40
1.63504956023858
210
1.0
220
0.0
230
0.0
100
AcDbArc
 50
114.1795016104658
 51
216.1926484005097
  0
SPLINE
  5
1DC
330
1F
100
AcDbEntity
  8
0
100
AcDbSpline
210
0.0
220
0.0
230
1.0
 70
    24
 71
     2
 72
     6
 73
     3
 74
     0
 42
0.000000001
 43
0.0000000001
 40
-3.208655291266309
 40
-3.208655291266309
 40
-3.208655291266309
 40
0.0
 40
0.0
 40
0.0
 10
2.767605630049858
 20
-20.6844944370886
 30
19.18209472552186
 10
2.767605630049857
 20
-19.08016679145545
 30
19.18209472552186
 10
2.767605630049857
 20
-17.4758391458223
 30
19.18209472552186
  0
SPLINE
  5
1DD
330
1F
100
AcDbEntity
  8
0
100
AcDbSpline
210
0.0
220
0.0
230
1.0
 70
    24
 71
     2
 72
     6
 73
     3
 74
     0
 42
0.000000001
 43
0.0000000001
 40
-3.75
 40
-3.75
 40
-3.75
 40
0.0
 40
0.0
 40
0.0
 10
2.767605630049857
 20
-17.4758391458223
 30
19.18209472552186
 10
4.642605630049857
 20
-17.4758391458223
 30
19.18209472552186
 10
6.517605630049857
 20
-17.4758391458223
 30
19.18209472552186
  0
SPLINE
  5
1DE
330
1F
100
AcDbEntity
  8
0
100
AcDbSpline
210
0.0
220
0.0
230
1.0
 70
    24
 71
     2
 72
     6
 73
     3
 74
     0
 42
0.000000001
 43
0.0000000001
 40
0.0
 40
0.0
 40
0.0
 40
3.208655291266309
 40
3.208655291266309
 40
3.208655291266309
 10
6.517605630049857
 20
-17.4758391458223
 30
19.18209472552186
 10
6.517605630049857
 20
-19.08016679145545
 30
19.18209472552186
 10
6.517605630049857
 20
-20.6844944370886
 30
19.18209472552186
  0
ARC
  5
1DF
330
1F
100
AcDbEntity
  8
0
100
AcDbCircle
 10
-16.02890423908956
 20
19.36077178559433
 30
2.767605630049857
 40
1.457925277961052
210
1.0
220
0.0
230
0.0
100
AcDbArc
 50
105.4692903187618
 51
187.0396226283935
  0
LINE
  5
1E0
330
1F
100
AcDbEntity
  8
0
100
AcDbLine
 10
2.767605630049857
 20
-16.41776476084952
 30
20.76588160718636
 11
6.517605630049857
 21
-16.41776476084952
 31
20.76588160718636
  0
ARC
  5
1E1
330
1F
100
AcDbEntity
  8
0
100
AcDbCircle
 10
-16.02890423908956
 20
19.36077178559434
 30
6.517605630049857
 40
1.457925277961048
210
1.0
220
0.0
230
0.0
100
AcDbArc
 50
105.4692903187616
 51
187.0396226283938
  0
ARC
  5
1E2
330
1F
100
AcDbEntity
  8
0
100
AcDbCircle
 10
-12.88669604936347
 20
8.123564388724638
 30
2.767605630049857
 40
13.12618112390079
210
1.0
220
0.0
230
0.0
100
AcDbArc
 50
90.10980001297209
 51
105.6053406871586
  0
LINE
  5
1E3
330
1F
100
AcDbEntity
  8
0
100
AcDbLine
 10
2.767605630049857
 20
-12.91185067659365
 30
21.24972140980961
 11
6.517605630049857
 21
-12.91185067659365
 31
21.24972140980961
  0
ARC
  5
1E4
330
1F
100
AcDbEntity
  8
0
100
AcDbCircle
 10
-12.88669604936349
 20
8.123564388724802
 30
6.517605630049857
 40
13.12618112390063
210
1.0
220
0.0
230
0.0
100
AcDbArc
 50
90.10980001297195
 51
105.6053406871586
  0
ARC
  5
1E5
330
1F
100
AcDbEntity
  8
0
100
AcDbCircle
 10
-12.89798611263168
 20
24.44462847074072
 30
2.767605630049943
 40
3.194937144001639
210
1.0
220
1.756603273480873E-17
230
4.047862029482751E-15
100
AcDbArc
 50
269.7513617773138
 51
295.9867818218235
  0
LINE
  5
1E6
330
1F
100
AcDbEntity
  8
0
100
AcDbLine
 10
2.767605630049856
 20
-11.4980803681835
 30
21.57271495171159
 11
6.517605630049857
 21
-11.4980803681835
 31
21.57271495171159
  0
ARC
  5
1E7
330
1F
100
AcDbEntity
  8
0
100
AcDbCircle
 10
-12.89798611263168
 20
24.44462847074069
 30
6.517605630049972
 40
3.194937144001636
210
1.0
220
-1.076623119967912E-15
230
4.712471312570295E-15
100
AcDbArc
 50
269.7513617773138
 51
295.9867818218235
  0
ARC
  5
1E8
330
1F
100
AcDbEntity
  8
0
100
AcDbCircle
 10
-8.095321892717122
 20
16.1882709992481
 30
2.767605630049892
 40
6.369537025528527
210
1.0
220
4.671464262146659E-16
230
1.949042419640022E-15
100
AcDbArc
 50
89.14252071896293
 51
122.2912888867067
  0
ARC
  5
1E9
330
1F
100
AcDbEntity
  8
0
100
AcDbCircle
 10
-8.095321892717124
 20
16.1882709992481
 30
6.517605630049857
 40
6.369537025528538
210
1.0
220
0.0
230
0.0
100
AcDbArc
 50
89.14252071896287
 51
122.2912888867065
  0
LINE
  5
1EA
330
1F
100
AcDbEntity
  8
0
100
AcDbLine
 10
6.517605630049857
 20
-8.0
 30
25.24459472552187
 11
2.76760563004985
 21
-8.000000000000002
 31
25.24459472552187
  0
LINE
  5
1EB
330
1F
100
AcDbEntity
  8
0
100
AcDbLine
 10
4.642605630049854
 20
-8.0
 30
22.55709472552187
 11
4.642605630049854
 21
-8.0
 31
27.93209472552187
  0
LINE
  5
1EC
330
1F
100
AcDbEntity
  8
0
100
AcDbLine
 10
6.517605630049857
 20
-8.785942347740221
 30
27.93209472552187
 11
2.767605630049854
 21
-8.785942347740221
 31
27.93209472552187
  0
LINE
  5
1ED
330
1F
100
AcDbEntity
  8
0
100
AcDbLine
 10
4.642605630049854
 20
-7.999999999999986
 30
27.93209472552187
 11
4.642605630049854
 21
-9.571884695480456
 31
27.93209472552187
  0
ARC
  5
1EE
330
1F
100
AcDbEntity
  8
0
100
AcDbCircle
 10
-15.448432120742
 20
31.02066554628577
 30
4.642605630049856
 40
6.638755859061408
210
1.0
220
0.0
230
0.0
100
AcDbArc
 50
274.1168972053135
 51
332.2746730176849
  0
ARC
  5
1EF
330
1F
100
AcDbEntity
  8
0
100
AcDbCircle
 10
-14.89991827075164
 20
23.40398747414631
 30
4.642605630049857
 40
0.9976472758413237
210
1.0
220
0.0
230
0.0
100
AcDbArc
 50
94.1332651075758
 51
132.6686591113364
  0
ARC
  5
1F0
330
1F
100
AcDbEntity
  8
0
100
AcDbCircle
 10
-22.25962962831647
 20
31.47464022432011
 30
4.642605630049856
 40
9.92485841595333
210
1.0
220
0.0
230
0.0
100
AcDbArc
 50
292.0486361860046
 51
312.3311851924705
  0
LINE
  5
1F1
330
1F
100
AcDbEntity
  8
0
100
AcDbLine
 10
6.517605630049857
 20
-19.28428175857754
 30
21.95741365191415
 11
2.767605630049857
 21
-19.28428175857754
 31
21.95741365191415
  0
LINE
  5
1F2
330
1F
100
AcDbEntity
  8
0
100
AcDbLine
 10
4.642605630049857
 20
-18.53390220013139
 30
22.27563105443724
 11
4.642605630049857
 21
-20.03466131702368
 31
21.63919624939106
  0
ARC
  5
1F3
330
1F
100
AcDbEntity
  8
0
100
AcDbCircle
 10
-19.36495043976141
 20
20.14759496040228
 30
4.642605630049857
 40
1.635049560238578
210
1.0
220
0.0
230
0.0
100
AcDbArc
 50
114.1795016104659
 51
216.1926484005099
  0
LINE
  5
1F4
330
1F
100
AcDbEntity
  8
0
100
AcDbLine
 10
6.517605630049857
 20
-20.99999999999999
 30
20.14759496040228
 11
2.767605630049857
 21
-20.99999999999999
 31
20.14759496040228
  0
LINE
  5
1F5
330
1F
100
AcDbEntity
  8
0
100
AcDbLine
 10
2.767605630049858
 20
-19.08016679145545
 30
19.18209472552186
 11
6.517605630049858
 21
-19.08016679145545
 31
19.18209472552186
  0
LINE
  5
1F6
330
1F
100
AcDbEntity
  8
0
100
AcDbLine
 10
4.642605630049856
 20
-17.4758391458223
 30
19.18209472552186
 11
4.642605630049857
 21
-20.68449443708861
 31
19.18209472552186
  0
ARC
  5
1F7
330
1F
100
AcDbEntity
  8
0
100
AcDbCircle
 10
-16.02890423908956
 20
19.36077178559433
 30
4.642605630049857
 40
1.457925277961046
210
1.0
220
0.0
230
0.0
100
AcDbArc
 50
105.4692903187615
 51
187.0396226283935
  0
LINE
  5
1F8
330
1F
100
AcDbEntity
  8
0
100
AcDbLine
 10
6.517605630049857
 20
-17.48682951705061
 30
19.36077178559433
 11
2.767605630049857
 21
-17.48682951705061
 31
19.36077178559433
  0
ARC
  5
1F9
330
1F
100
AcDbEntity
  8
0
100
AcDbCircle
 10
-12.88669604936344
 20
8.123564388724576
 30
4.642605630049857
 40
13.12618112390086
210
1.0
220
0.0
230
0.0
100
AcDbArc
 50
90.10980001297219
 51
105.6053406871586
  0
ARC
  5
1FA
330
1F
100
AcDbEntity
  8
0
100
AcDbCircle
 10
-12.89798611263172
 20
24.44462847074087
 30
4.642605630049857
 40
3.194937144001784
210
1.0
220
0.0
230
0.0
100
AcDbArc
 50
269.7513617773145
 51
295.986781821823
  0
LINE
  5
1FB
330
1F
100
AcDbEntity
  8
0
100
AcDbLine
 10
6.517605630049858
 20
-12.89798611263172
 30
21.24969132673908
 11
2.767605630049857
 21
-12.89798611263172
 31
21.24969132673908
  0
ARC
  5
1FC
330
1F
100
AcDbEntity
  8
0
100
AcDbCircle
 10
-8.095321892717116
 20
16.18827099924808
 30
4.642605630049854
 40
6.36953702552856
210
1.0
220
0.0
230
0.0
100
AcDbArc
 50
89.14252071896297
 51
122.2912888867065
  0
LINE
  5
1FD
330
1F
100
AcDbEntity
  8
0
100
AcDbLine
 10
6.517605630049857
 20
-8.095321892717116
 30
22.55780802477663
 11
2.767605630049851
 21
-8.095321892717116
 31
22.55780802477663
  0
LINE
  5
1FE
330
1F
100
AcDbEntity
  8
0
100
AcDbLine
 10
2.767605630049856
 20
-7.999999999999998
 30
23.55709472552187
 11
2.767605630049858
 21
-16.27504217252421
 31
23.55709472552187
  0
LINE
  5
1FF
330
1F
100
AcDbEntity
  8
0
100
AcDbLine
 10
2.767605630049857
 20
-14.57254120639183
 30
21.14103557980296
 11
2.767605630049857
 21
-14.57254120639183
 31
24.43994420592141
  0
LINE
  5
200
330
1F
100
AcDbEntity
  8
0
100
AcDbLine
 10
6.517605630049855
 20
-7.999999999999997
 30
23.55709472552187
 11
6.517605630049857
 21
-16.27504210274886
 31
23.55709472552187
  0
LINE
  5
201
330
1F
100
AcDbEntity
  8
0
100
AcDbLine
 10
6.517605630049857
 20
-14.57254120639183
 30
21.14103561027814
 11
6.517605630049857
 21
-14.57254120639183
 31
24.43994420592141
  0
SPLINE
  5
202
330
1F
100
AcDbEntity
  8
0
100
AcDbSpline
 70
     0
 71
     3
 72
    20
 73
    16
 74
     0
 42
0.000000001
 43
0.0000000001
 40
5.397602079097589
 40
5.397602079097589
 40
5.397602079097589
 40
5.397602079097589
 40
5.600767140621647
 40
5.600767140621647
 40
5.803952861667359
 40
5.803952861667359
 40
5.905562037186261
 40
5.905562037186261
 40
6.007202280369357
 40
6.007202280369357
 40
6.108929202054147
 40
6.108929202054147
 40
6.160030308558864
 40
6.160030308558864
 40
6.21113141506358
 40
6.21113141506358
 40
6.21113141506358
 40
6.21113141506358
 10
6.642605630049855
 20
-6.000000000000002
 30
29.68209472552186
 10
6.801738916680677
 20
-6.159133286630822
 30
29.81073296150364
 10
6.960312590143579
 20
-6.317725489305838
 30
29.95559294003087
 10
7.275407961407805
 20
-6.63274467270249
 30
30.29099712435599
 10
7.432014533673102
 20
-6.789320873792859
 30
30.48095442106383
 10
7.663481638856863
 20
-7.020888627142678
 30
30.82255688837481
 10
7.740081279015129
 20
-7.097389323517669
 30
30.94580748172712
 10
7.891072854251152
 20
-7.248458446692267
 30
31.22031724202144
 10
7.965653900940103
 20
-7.322912946525089
 30
31.37094444468294
 10
8.110153098578577
 20
-7.467566423514095
 30
31.71789867667123
 10
8.180292148645334
 20
-7.537702016935636
 30
31.91158738892398
 10
8.276454696804212
 20
-7.633841154037877
 30
32.27391278058359
 10
8.30614847544527
 20
-7.663423152080995
 30
32.40310719995248
 10
8.358555848371047
 20
-7.716030460611925
 30
32.70469658814779
 10
8.380013311448907
 20
-7.737407681399054
 30
32.86579734453029
 10
8.392605630049852
 20
-7.749999999999998
 30
33.05709472552188
  0
LINE
  5
203
330
1F
100
AcDbEntity
  8
0
100
AcDbLine
 10
8.392605630049852
 20
-7.749999999999998
 30
33.05709472552188
 11
0.8926056300498563
 21
-7.749999999999998
 31
33.05709472552188
  0
LINE
  5
204
330
1F
100
AcDbEntity
  8
0
100
AcDbLine
 10
2.642605630049853
 20
-6.000000000000002
 30
29.68209472552186
 11
6.642605630049855
 21
-6.000000000000002
 31
29.68209472552186
  0
SPLINE
  5
205
330
1F
100
AcDbEntity
  8
0
100
AcDbSpline
210
0.0
220
0.0
230
1.0
 70
    24
 71
     2
 72
     6
 73
     3
 74
     0
 42
0.000000001
 43
0.0000000001
 40
-0.1874999999999964
 40
-0.1874999999999964
 40
-0.1874999999999964
 40
0.1874999999999964
 40
0.1874999999999964
 40
0.1874999999999964
 10
6.642605630049854
 20
-6.000000000000002
 30
29.30709472552187
 10
6.642605630049854
 20
-6.000000000000002
 30
29.49459472552187
 10
6.642605630049855
 20
-6.000000000000002
 30
29.68209472552186
  0
SPLINE
  5
206
330
1F
100
AcDbEntity
  8
0
100
AcDbSpline
210
0.0
220
0.0
230
1.0
 70
    24
 71
     2
 72
     6
 73
     3
 74
     0
 42
0.000000001
 43
0.0000000001
 40
0.0
 40
0.0
 40
0.0
 40
0.3749999999999929
 40
0.3749999999999929
 40
0.3749999999999929
 10
2.642605630049853
 20
-6.000000000000002
 30
29.68209472552186
 10
2.642605630049854
 20
-6.000000000000004
 30
29.49459472552187
 10
2.642605630049854
 20
-6.000000000000004
 30
29.30709472552187
  0
SPLINE
  5
207
330
1F
100
AcDbEntity
  8
0
100
AcDbSpline
210
0.0
220
0.0
230
1.0
 70
    24
 71
     2
 72
     6
 73
     3
 74
     0
 42
0.000000001
 43
0.0000000001
 40
-6.0
 40
-6.0
 40
-6.0
 40
-2.0
 40
-2.0
 40
-2.0
 10
2.642605630049854
 20
-6.000000000000004
 30
29.30709472552187
 10
4.642605630049854
 20
-6.000000000000004
 30
29.30709472552187
 10
6.642605630049854
 20
-6.000000000000002
 30
29.30709472552187
  0
SPLINE
  5
208
330
1F
100
AcDbEntity
  8
0
100
AcDbSpline
 70
     0
 71
     3
 72
    24
 73
    20
 74
     0
 42
0.000000001
 43
0.0000000001
 40
2.440565248629418
 40
2.440565248629418
 40
2.440565248629418
 40
2.440565248629418
 40
2.639504306139439
 40
2.639504306139439
 40
2.838471204304558
 40
2.838471204304558
 40
2.937958177526565
 40
2.937958177526565
 40
3.037382469452698
 40
3.037382469452698
 40
3.08713616264364
 40
3.08713616264364
 40
3.136889855834581
 40
3.136889855834581
 40
3.164005476308104
 40
3.164005476308104
 40
3.191121096781628
 40
3.191121096781628
 40
3.245352337728675
 40
3.245352337728675
 40
3.245352337728675
 40
3.245352337728675
 10
8.392605630049852
 20
-7.749999999999998
 30
33.05709472552188
 10
8.23814318315516
 20
-7.595537553105304
 30
33.24180070591924
 10
8.084200087698845
 20
-7.441536960191199
 30
33.44513951097038
 10
7.777938403055011
 20
-7.135402900908487
 30
33.90879545672288
 10
7.625584865799559
 20
-6.982981413258574
 30
34.16815791995216
 10
7.400538397937285
 20
-6.758094754538909
 30
34.63525975895007
 10
7.326048303739716
 20
-6.683437502361132
 30
34.80485146459015
 10
7.179333503412429
 20
-6.536749479851196
 30
35.186967611558
 10
7.106935749241287
 20
-6.464318665207062
 30
35.39891672591732
 10
7.003178709667241
 20
-6.360598100365747
 30
35.78030288225062
 10
6.969325136010263
 20
-6.326753817820263
 30
35.91859288315572
 10
6.90532435747084
 20
-6.262714694640005
 30
36.23093232815337
 10
6.874735664706457
 20
-6.232104521297519
 30
36.40602102542461
 10
6.835549563201809
 20
-6.192984918923175
 30
36.72287348776419
 10
6.82305694989476
 20
-6.180451289951452
 30
36.84893567461258
 10
6.805479603942611
 20
-6.16287405670182
 30
37.10182115842836
 10
6.800239424194253
 20
-6.157634061696109
 30
37.22795734197202
 10
6.79492070909705
 20
-6.152315772133107
 30
37.60499351919609
 10
6.805243997896082
 20
-6.162638367846217
 30
37.8545131162572
 10
6.82878663746489
 20
-6.186181007415027
 30
38.10109451274867
  0
LINE
  5
209
330
1F
100
AcDbEntity
  8
0
100
AcDbLine
 10
6.82878663746489
 20
-6.186181007415027
 30
38.10109451274867
 11
2.456424622634823
 21
-6.186181007415027
 31
38.10109451274867
  0
SPLINE
  5
20A
330
1F
100
AcDbEntity
  8
0
100
AcDbSpline
 70
     0
 71
     3
 72
    18
 73
    14
 74
     0
 42
0.000000001
 43
0.0000000001
 40
3.265553689383183
 40
3.265553689383183
 40
3.265553689383183
 40
3.265553689383183
 40
3.409624997000074
 40
3.409624997000074
 40
3.557415695628164
 40
3.557415695628164
 40
3.70557394173848
 40
3.70557394173848
 40
3.853648362994709
 40
3.853648362994709
 40
4.149740018405708
 40
4.149740018405708
 40
4.44593746957537
 40
4.44593746957537
 40
4.44593746957537
 40
4.44593746957537
 10
6.82878663746489
 20
-6.186181007415027
 30
38.10109451274867
 10
6.853871826001733
 20
-6.21126619595187
 30
38.31995206765934
 10
6.904912718053081
 20
-6.262607429620036
 30
38.50938400057861
 10
7.02561294881297
 20
-6.382894953850199
 30
38.83406130720522
 10
7.093832196155157
 20
-6.451290308383087
 30
38.96781885967968
 10
7.239454041789268
 20
-6.59679540889176
 30
39.20744207483233
 10
7.315868427451913
 20
-6.673282390319247
 30
39.31066987331418
 10
7.472905912965217
 20
-6.830282488794206
 30
39.4949303780596
 10
7.553129123275186
 20
-6.910564556216059
 30
39.57547082751948
 10
7.797362007493725
 20
-7.154699133638813
 30
39.79140848593209
 10
7.964397737676268
 20
-7.321750029709479
 30
39.90151002809878
 10
8.301398963921217
 20
-7.659046258594765
 30
40.07519539590727
 10
8.471611884014752
 20
-7.829006254085503
 30
40.13823162271817
 10
8.642605630049854
 20
-8.0
 30
40.18209472552188
  0
LINE
  5
20B
330
1F
100
AcDbEntity
  8
0
100
AcDbLine
 10
8.642605630049854
 20
-8.0
 30
40.18209472552188
 11
0.6426056300498559
 21
-8.0
 31
40.18209472552188
  0
SPLINE
  5
20C
330
1F
100
AcDbEntity
  8
0
100
AcDbSpline
210
0.0
220
0.0
230
1.0
 70
    24
 71
     2
 72
     6
 73
     3
 74
     0
 42
0.000000001
 43
0.0000000001
 40
-0.3749999999999964
 40
-0.3749999999999964
 40
-0.3749999999999964
 40
0.0
 40
0.0
 40
0.0
 10
6.642605630049855
 20
-1.999999999999997
 30
29.68209472552186
 10
6.642605630049854
 20
-1.999999999999997
 30
29.49459472552187
 10
6.642605630049854
 20
-1.999999999999997
 30
29.30709472552187
  0
SPLINE
  5
20D
330
1F
100
AcDbEntity
  8
0
100
AcDbSpline
210
0.0
220
0.0
230
1.0
 70
    24
 71
     2
 72
     6
 73
     3
 74
     0
 42
0.000000001
 43
0.0000000001
 40
2.0
 40
2.0
 40
2.0
 40
6.0
 40
6.0
 40
6.0
 10
6.642605630049854
 20
-1.999999999999997
 30
29.30709472552187
 10
4.642605630049854
 20
-1.999999999999997
 30
29.30709472552187
 10
2.642605630049854
 20
-1.999999999999997
 30
29.30709472552187
  0
SPLINE
  5
20E
330
1F
100
AcDbEntity
  8
0
100
AcDbSpline
210
0.0
220
0.0
230
1.0
 70
    24
 71
     2
 72
     6
 73
     3
 74
     0
 42
0.000000001
 43
0.0000000001
 40
-0.1874999999999964
 40
-0.1874999999999964
 40
-0.1874999999999964
 40
0.1875
 40
0.1875
 40
0.1875
 10
2.642605630049854
 20
-1.999999999999997
 30
29.30709472552187
 10
2.642605630049852
 20
-1.999999999999997
 30
29.49459472552187
 10
2.642605630049851
 20
-1.999999999999997
 30
29.68209472552186
  0
SPLINE
  5
20F
330
1F
100
AcDbEntity
  8
0
100
AcDbSpline
210
0.0
220
0.0
230
1.0
 70
    24
 71
     2
 72
     6
 73
     3
 74
     0
 42
0.000000001
 43
0.0000000001
 40
-6.000000000000004
 40
-6.000000000000004
 40
-6.000000000000004
 40
-2.0
 40
-2.0
 40
-2.0
 10
2.642605630049851
 20
-1.999999999999997
 30
29.68209472552186
 10
4.642605630049853
 20
-1.999999999999997
 30
29.68209472552186
 10
6.642605630049855
 20
-1.999999999999997
 30
29.68209472552186
  0
SPLINE
  5
210
330
1F
100
AcDbEntity
  8
0
100
AcDbSpline
210
0.0
220
0.0
230
1.0
 70
    24
 71
     2
 72
     6
 73
     3
 74
     0
 42
0.000000001
 43
0.0000000001
 40
-0.25
 40
-0.25
 40
-0.25
 40
0.0
 40
0.0
 40
0.0
 10
8.392605630049857
 20
-0.249999999999996
 30
28.43209472552187
 10
8.392605630049857
 20
-0.2499999999999958
 30
28.30709472552187
 10
8.392605630049857
 20
-0.2499999999999956
 30
28.18209472552187
  0
SPLINE
  5
211
330
1F
100
AcDbEntity
  8
0
100
AcDbSpline
210
0.0
220
0.0
230
1.0
 70
    24
 71
     2
 72
     6
 73
     3
 74
     0
 42
0.000000001
 43
0.0000000001
 40
0.2499999999999964
 40
0.2499999999999964
 40
0.2499999999999964
 40
7.750000000000007
 40
7.750000000000007
 40
7.750000000000007
 10
8.392605630049857
 20
-0.2499999999999956
 30
28.18209472552187
 10
4.642605630049852
 20
-0.2499999999999952
 30
28.18209472552187
 10
0.8926056300498466
 20
-0.2499999999999948
 30
28.18209472552187
  0
SPLINE
  5
212
330
1F
100
AcDbEntity
  8
0
100
AcDbSpline
210
0.0
220
0.0
230
1.0
 70
    24
 71
     2
 72
     6
 73
     3
 74
     0
 42
0.000000001
 43
0.0000000001
 40
-0.125
 40
-0.125
 40
-0.125
 40
0.125
 40
0.125
 40
0.125
 10
0.8926056300498466
 20
-0.2499999999999948
 30
28.18209472552187
 10
0.8926056300498453
 20
-0.249999999999995
 30
28.30709472552187
 10
0.8926056300498438
 20
-0.2499999999999952
 30
28.43209472552187
  0
SPLINE
  5
213
330
1F
100
AcDbEntity
  8
0
100
AcDbSpline
210
0.0
220
0.0
230
1.0
 70
    24
 71
     2
 72
     6
 73
     3
 74
     0
 42
0.000000001
 43
0.0000000001
 40
-7.750000000000011
 40
-7.750000000000011
 40
-7.750000000000011
 40
-0.2499999999999964
 40
-0.2499999999999964
 40
-0.2499999999999964
 10
0.8926056300498438
 20
-0.2499999999999952
 30
28.43209472552187
 10
4.64260563004985
 20
-0.2499999999999956
 30
28.43209472552187
 10
8.392605630049857
 20
-0.249999999999996
 30
28.43209472552187
  0
SPLINE
  5
214
330
1F
100
AcDbEntity
  8
0
100
AcDbSpline
 70
     0
 71
     3
 72
    12
 73
     8
 74
     0
 42
0.000000001
 43
0.0000000001
 40
4.831749101552164
 40
4.831749101552164
 40
4.831749101552164
 40
4.831749101552164
 40
5.251082527196378
 40
5.251082527196378
 40
5.460684380915376
 40
5.460684380915376
 40
5.67045163114772
 40
5.67045163114772
 40
5.67045163114772
 40
5.67045163114772
 10
0.8926056300498438
 20
-0.2499999999999952
 30
28.43209472552187
 10
1.14731895839589
 20
-0.5047133283460403
 30
28.46017455378009
 10
1.401037467824696
 20
-0.7581608703927759
 30
28.5343582930878
 10
1.773178582535666
 20
-1.130668062319897
 30
28.73712492947726
 10
1.895585703653781
 20
-1.25288180800294
 30
28.81981697745781
 10
2.134000137838194
 20
-1.491455492838798
 30
29.02727171621633
 10
2.249574097677278
 20
-1.606968467627427
 30
29.15045759530045
 10
2.357605630049849
 20
-1.714999999999997
 30
29.30709472552187
  0
LINE
  5
215
330
1F
100
AcDbEntity
  8
0
100
AcDbLine
 10
2.357605630049849
 20
-1.714999999999997
 30
29.30709472552187
 11
6.927605630049856
 21
-1.714999999999997
 31
29.30709472552187
  0
SPLINE
  5
216
330
1F
100
AcDbEntity
  8
0
100
AcDbSpline
 70
     0
 71
     3
 72
    12
 73
     8
 74
     0
 42
0.000000001
 43
0.0000000001
 40
1.690156447962372
 40
1.690156447962372
 40
1.690156447962372
 40
1.690156447962372
 40
2.109489898611729
 40
2.109489898611729
 40
2.319091764829431
 40
2.319091764829431
 40
2.528858977557927
 40
2.528858977557927
 40
2.528858977557927
 40
2.528858977557927
 10
8.392605630049857
 20
-7.750000000000009
 30
28.43209472552187
 10
8.137892301703811
 20
-7.495286671653963
 30
28.46017455378009
 10
7.884173792275008
 20
-7.241839129607227
 30
28.5343582930878
 10
7.512032677564039
 20
-6.869331937680107
 30
28.73712492947727
 10
7.389625556445922
 20
-6.747118191997062
 30
28.81981697745782
 10
7.151211150693936
 20
-6.508544535612617
 30
29.02727169147605
 10
7.035637217532384
 20
-6.393031587453454
 30
29.15045753656086
 10
6.927605630049856
 20
-6.285000000000005
 30
29.30709472552187
  0
LINE
  5
217
330
1F
100
AcDbEntity
  8
0
100
AcDbLine
 10
6.927605630049856
 20
-6.285000000000005
 30
29.30709472552187
 11
2.357605630049847
 21
-6.285000000000004
 31
29.30709472552187
  0
LINE
  5
218
330
1F
100
AcDbEntity
  8
0
100
AcDbLine
 10
0.8926056300498444
 20
-7.750000000000007
 30
28.43209472552187
 11
8.392605630049857
 21
-7.750000000000009
 31
28.43209472552187
  0
SPLINE
  5
219
330
1F
100
AcDbEntity
  8
0
100
AcDbSpline
210
0.0
220
0.0
230
1.0
 70
    24
 71
     2
 72
     6
 73
     3
 74
     0
 42
0.000000001
 43
0.0000000001
 40
-0.125
 40
-0.125
 40
-0.125
 40
0.125
 40
0.125
 40
0.125
 10
8.392605630049857
 20
-7.750000000000009
 30
28.18209472552187
 10
8.392605630049857
 20
-7.750000000000009
 30
28.30709472552187
 10
8.392605630049857
 20
-7.750000000000009
 30
28.43209472552187
  0
SPLINE
  5
21A
330
1F
100
AcDbEntity
  8
0
100
AcDbSpline
210
0.0
220
0.0
230
1.0
 70
    24
 71
     2
 72
     6
 73
     3
 74
     0
 42
0.000000001
 43
0.0000000001
 40
0.0
 40
0.0
 40
0.0
 40
0.25
 40
0.25
 40
0.25
 10
0.8926056300498444
 20
-7.750000000000007
 30
28.43209472552187
 10
0.8926056300498455
 20
-7.750000000000007
 30
28.30709472552187
 10
0.8926056300498467
 20
-7.750000000000007
 30
28.18209472552187
  0
SPLINE
  5
21B
330
1F
100
AcDbEntity
  8
0
100
AcDbSpline
210
0.0
220
0.0
230
1.0
 70
    24
 71
     2
 72
     6
 73
     3
 74
     0
 42
0.000000001
 43
0.0000000001
 40
-7.750000000000007
 40
-7.750000000000007
 40
-7.750000000000007
 40
-0.2499999999999964
 40
-0.2499999999999964
 40
-0.2499999999999964
 10
0.8926056300498467
 20
-7.750000000000007
 30
28.18209472552187
 10
4.642605630049852
 20
-7.750000000000008
 30
28.18209472552187
 10
8.392605630049857
 20
-7.750000000000009
 30
28.18209472552187
  0
SPLINE
  5
21C
330
1F
100
AcDbEntity
  8
0
100
AcDbSpline
 70
     0
 71
     3
 72
    20
 73
    16
 74
     0
 42
0.000000001
 43
0.0000000001
 40
2.256009425507797
 40
2.256009425507797
 40
2.256009425507797
 40
2.256009425507797
 40
2.459174490074465
 40
2.459174490074465
 40
2.662360214163097
 40
2.662360214163097
 40
2.763969391203703
 40
2.763969391203703
 40
2.865609635908968
 40
2.865609635908968
 40
2.967336559117226
 40
2.967336559117226
 40
3.018437666387235
 40
3.018437666387235
 40
3.06953876147379
 40
3.06953876147379
 40
3.06953876147379
 40
3.06953876147379
 10
2.642605630049851
 20
-1.999999999999997
 30
29.68209472552186
 10
2.48347234341903
 20
-1.840866713369175
 30
29.81073296150364
 10
2.324898669956126
 20
-1.682274510694157
 30
29.95559294003088
 10
2.009803298691901
 20
-1.36725532729751
 30
30.29099712435599
 10
1.853196726426605
 20
-1.21067912620714
 30
30.48095442106382
 10
1.621729621242845
 20
-0.9791113728573224
 30
30.82255688837481
 10
1.54512998108458
 20
-0.9026106764823336
 30
30.9458074817271
 10
1.394138405848555
 20
-0.751541553307737
 30
31.22031724202143
 10
1.319557359159603
 20
-0.677087053474912
 30
31.37094444468294
 10
1.17505816152113
 20
-0.5324335764859037
 30
31.71789867667124
 10
1.104919111454376
 20
-0.4622979830643603
 30
31.91158738892398
 10
1.008756563295498
 20
-0.3661588459621206
 30
32.27391278058359
 10
0.97906278465444
 20
-0.336576847919003
 30
32.40310719995249
 10
0.9266554179761084
 20
-0.2839695456593522
 30
32.70469655219554
 10
0.905197958882518
 20
-0.2625923287943985
 30
32.86579726771146
 10
0.8926056300498584
 20
-0.2500000000000001
 30
33.05709472552187
  0
LINE
  5
21D
330
1F
100
AcDbEntity
  8
0
100
AcDbLine
 10
0.8926056300498584
 20
-0.2500000000000001
 30
33.05709472552187
 11
8.392605630049854
 21
-0.2500000000000007
 31
33.05709472552186
  0
SPLINE
  5
21E
330
1F
100
AcDbEntity
  8
0
100
AcDbSpline
 70
     0
 71
     3
 72
    24
 73
    20
 74
     0
 42
0.000000001
 43
0.0000000001
 40
5.582157902219211
 40
5.582157902219211
 40
5.582157902219211
 40
5.582157902219211
 40
5.781096959743838
 40
5.781096959743838
 40
5.980063857923565
 40
5.980063857923565
 40
6.079550831152879
 40
6.079550831152879
 40
6.17897512308631
 40
6.17897512308631
 40
6.228728816280897
 40
6.228728816280897
 40
6.278482509475483
 40
6.278482509475483
 40
6.30559812993623
 40
6.30559812993623
 40
6.332713750396977
 40
6.332713750396977
 40
6.386944991318469
 40
6.386944991318469
 40
6.386944991318469
 40
6.386944991318469
 10
0.8926056300498584
 20
-0.2500000000000001
 30
33.05709472552187
 10
1.047068076943512
 20
-0.4044624468936547
 30
33.24180070591799
 10
1.201011172398791
 20
-0.5584630398067174
 30
33.44513951096763
 10
1.507272857040595
 20
-0.8645970990874083
 30
33.90879545671625
 10
1.659626394295035
 20
-1.017018586736324
 30
34.16815791994318
 10
1.884672862155902
 20
-1.241905245454558
 30
34.63525975893569
 10
1.959162956353003
 20
-1.316562497631877
 30
34.80485146457367
 10
2.105877756679476
 20
-1.463250520140981
 30
35.18696761153591
 10
2.178275510850221
 20
-1.535681334784731
 30
35.39891672589185
 10
2.282032550424008
 20
-1.639401899625774
 30
35.78030288221714
 10
2.315886124080952
 20
-1.673246182171237
 30
35.91859288311915
 10
2.37988690262057
 20
-1.737285305351665
 30
36.23093232810793
 10
2.41047559538513
 20
-1.767895478694377
 30
36.40602102537344
 10
2.449661696883727
 20
-1.807015081062644
 30
36.72287348764154
 10
2.462154310186459
 20
-1.819548710028118
 30
36.84893567438478
 10
2.479731656135305
 20
-1.8371259432843
 30
37.10182115816277
 10
2.484971835883189
 20
-1.842365938297772
 30
37.2279573417502
 10
2.490290550982856
 20
-1.847684227872233
 30
37.60499351915232
 10
2.479967262190656
 20
-1.837361632140794
 30
37.85451311639315
 10
2.456424622634825
 20
-1.813818992584965
 30
38.10109451274867
  0
LINE
  5
21F
330
1F
100
AcDbEntity
  8
0
100
AcDbLine
 10
2.456424622634825
 20
-1.813818992584965
 30
38.10109451274867
 11
6.82878663746489
 21
-1.813818992584965
 31
38.10109451274867
  0
SPLINE
  5
220
330
1F
100
AcDbEntity
  8
0
100
AcDbSpline
 70
     0
 71
     3
 72
    18
 73
    14
 74
     0
 42
0.000000001
 43
0.0000000001
 40
0.1239610357933862
 40
0.1239610357933862
 40
0.1239610357933862
 40
0.1239610357933862
 40
0.2680323434102707
 40
0.2680323434102707
 40
0.4158230420383623
 40
0.4158230420383623
 40
0.5639812881486806
 40
0.5639812881486806
 40
0.7120557094049096
 40
0.7120557094049096
 40
1.008147364815911
 40
1.008147364815911
 40
1.304344815985575
 40
1.304344815985575
 40
1.304344815985575
 40
1.304344815985575
 10
2.456424622634825
 20
-1.813818992584965
 30
38.10109451274867
 10
2.431339434097984
 20
-1.788733804048125
 30
38.31995206765933
 10
2.38029854204663
 20
-1.737392570379957
 30
38.50938400057861
 10
2.25959831128674
 20
-1.61710504614979
 30
38.83406130720522
 10
2.191379063944557
 20
-1.548709691616905
 30
38.96781885967968
 10
2.045757218310445
 20
-1.403204591108232
 30
39.20744207483232
 10
1.969342832647802
 20
-1.326717609680746
 30
39.31066987331418
 10
1.812305347134498
 20
-1.169717511205787
 30
39.4949303780596
 10
1.732082136824528
 20
-1.089435443783935
 30
39.57547082751948
 10
1.487849252605985
 20
-0.8453008663611828
 30
39.79140848593209
 10
1.32081352242344
 20
-0.6782499702905248
 30
39.90151002809878
 10
0.983812296178491
 20
-0.3409537414052385
 30
40.07519539590726
 10
0.8135993760849596
 20
-0.1709937459144969
 30
40.13823162271817
 10
0.6426056300498562
 20
-0.0000000000000018
 30
40.18209472552188
  0
LINE
  5
221
330
1F
100
AcDbEntity
  8
0
100
AcDbLine
 10
0.6426056300498562
 20
-0.0000000000000018
 30
40.18209472552188
 11
8.642605630049854
 21
-0.0000000000000029
 31
40.18209472552188
  0
SPLINE
  5
222
330
1F
100
AcDbEntity
  8
0
100
AcDbSpline
 70
     0
 71
     3
 72
    12
 73
     8
 74
     0
 42
0.000000001
 43
0.0000000001
 40
-5.670451631147725
 40
-5.670451631147725
 40
-5.670451631147725
 40
-5.670451631147725
 40
-5.460684380915382
 40
-5.460684380915382
 40
-5.251082527196383
 40
-5.251082527196383
 40
-4.831749101552166
 40
-4.831749101552166
 40
-4.831749101552166
 40
-4.831749101552166
 10
6.927605630049856
 20
-1.714999999999997
 30
29.30709472552187
 10
7.035637162422427
 20
-1.606968467627427
 30
29.15045759530045
 10
7.151150137211053
 20
-1.491394507788343
 30
29.02727171621633
 10
7.389723822046911
 20
-1.252980073603934
 30
28.81981697745782
 10
7.511937567729959
 20
-1.130572952485816
 30
28.73712492947726
 10
7.884444759657077
 20
-0.7584318377748461
 30
28.53435829308779
 10
8.137892301703808
 20
-0.5047133283460412
 30
28.46017455378009
 10
8.392605630049857
 20
-0.249999999999996
 30
28.43209472552187
  0
SPLINE
  5
223
330
1F
100
AcDbEntity
  8
0
100
AcDbSpline
210
0.0
220
0.0
230
1.0
 70
    24
 71
     2
 72
     6
 73
     3
 74
     0
 42
0.000000001
 43
0.0000000001
 40
0.0
 40
0.0
 40
0.0
 40
8.0
 40
8.0
 40
8.0
 10
0.6426056300498537
 20
-8.000000000000002
 30
28.18209472552187
 10
4.642605630049854
 20
-8.000000000000002
 30
28.18209472552187
 10
8.642605630049854
 20
-8.000000000000002
 30
28.18209472552187
  0
SPLINE
  5
224
330
1F
100
AcDbEntity
  8
0
100
AcDbSpline
210
0.0
220
0.0
230
1.0
 70
    24
 71
     2
 72
     6
 73
     3
 74
     0
 42
0.000000001
 43
0.0000000001
 40
0.0
 40
0.0
 40
0.0
 40
6.0
 40
6.0
 40
6.0
 10
0.6426056300498537
 20
-8.0
 30
22.18209472552187
 10
0.6426056300498537
 20
-8.0
 30
25.18209472552187
 10
0.6426056300498537
 20
-8.000000000000002
 30
28.18209472552187
  0
SPLINE
  5
225
330
1F
100
AcDbEntity
  8
0
100
AcDbSpline
210
0.0
220
0.0
230
1.0
 70
    24
 71
     2
 72
     6
 73
     3
 74
     0
 42
0.000000001
 43
0.0000000001
 40
0.0
 40
0.0
 40
0.0
 40
8.0
 40
8.0
 40
8.0
 10
8.642605630049854
 20
-8.0
 30
22.18209472552187
 10
4.642605630049854
 20
-8.0
 30
22.18209472552187
 10
0.6426056300498537
 20
-8.0
 30
22.18209472552187
  0
SPLINE
  5
226
330
1F
100
AcDbEntity
  8
0
100
AcDbSpline
210
0.0
220
0.0
230
1.0
 70
    24
 71
     2
 72
     6
 73
     3
 74
     0
 42
0.000000001
 43
0.0000000001
 40
-6.0
 40
-6.0
 40
-6.0
 40
0.0
 40
0.0
 40
0.0
 10
8.642605630049854
 20
-8.000000000000002
 30
28.18209472552187
 10
8.642605630049854
 20
-8.0
 30
25.18209472552187
 10
8.642605630049854
 20
-8.0
 30
22.18209472552187
  0
SPLINE
  5
227
330
1F
100
AcDbEntity
  8
0
100
AcDbSpline
210
0.0
220
0.0
230
1.0
 70
    24
 71
     2
 72
     6
 73
     3
 74
     0
 42
0.000000001
 43
0.0000000001
 40
0.2499999999999929
 40
0.2499999999999929
 40
0.2499999999999929
 40
7.750000000000006
 40
7.750000000000006
 40
7.750000000000006
 10
8.392605630049857
 20
-7.750000000000009
 30
28.18209472552187
 10
8.392605630049857
 20
-4.000000000000002
 30
28.18209472552187
 10
8.392605630049857
 20
-0.2499999999999956
 30
28.18209472552187
  0
SPLINE
  5
228
330
1F
100
AcDbEntity
  8
0
100
AcDbSpline
210
0.0
220
0.0
230
1.0
 70
    24
 71
     2
 72
     6
 73
     3
 74
     0
 42
0.000000001
 43
0.0000000001
 40
-7.750000000000006
 40
-7.750000000000006
 40
-7.750000000000006
 40
-0.2499999999999929
 40
-0.2499999999999929
 40
-0.2499999999999929
 10
8.392605630049857
 20
-0.249999999999996
 30
28.43209472552187
 10
8.392605630049857
 20
-4.000000000000003
 30
28.43209472552187
 10
8.392605630049857
 20
-7.750000000000009
 30
28.43209472552187
  0
SPLINE
  5
229
330
1F
100
AcDbEntity
  8
0
100
AcDbSpline
 70
     0
 71
     3
 72
    18
 73
    14
 74
     0
 42
0.000000001
 43
0.0000000001
 40
-4.44593746957537
 40
-4.44593746957537
 40
-4.44593746957537
 40
-4.44593746957537
 40
-4.149739965507368
 40
-4.149739965507368
 40
-3.853648327810687
 40
-3.853648327810687
 40
-3.705573915413328
 40
-3.705573915413328
 40
-3.557415678166897
 40
-3.557415678166897
 40
-3.409624988380701
 40
-3.409624988380701
 40
-3.26555368938318
 40
-3.26555368938318
 40
-3.26555368938318
 40
-3.26555368938318
 10
0.6426056300498559
 20
-8.0
 30
40.18209472552188
 10
0.8135992949210944
 20
-7.829006335128761
 30
40.13823165277619
 10
0.9835593312390575
 20
-7.658793374052226
 30
40.07519541661588
 10
1.320855600340377
 20
-7.321792107626412
 30
39.90151002809878
 10
1.487906496411041
 20
-7.154756377443868
 30
39.79140848593209
 10
1.732041073833793
 20
-6.910523493225329
 30
39.57547082751948
 10
1.812323141255647
 20
-6.830300282915358
 30
39.4949303780596
 10
1.969323239730605
 20
-6.673262797402053
 30
39.31066987331418
 10
2.04581022115809
 20
-6.596848411739409
 30
39.20744207483232
 10
2.191315321666762
 20
-6.451226566105295
 30
38.96781885967968
 10
2.259710676199653
 20
-6.38300731876311
 30
38.83406130720521
 10
2.379998200429815
 20
-6.262307088003221
 30
38.50938400057861
 10
2.43133943409798
 20
-6.211266195951871
 30
38.31995206765935
 10
2.456424622634823
 20
-6.186181007415027
 30
38.10109451274867
  0
LINE
  5
22A
330
1F
100
AcDbEntity
  8
0
100
AcDbLine
 10
0.6426056300498559
 20
-8.0
 30
40.18209472552188
 11
0.6426056300498562
 21
-0.0000000000000018
 31
40.18209472552188
  0
SPLINE
  5
22B
330
1F
100
AcDbEntity
  8
0
100
AcDbSpline
 70
     0
 71
     3
 72
    24
 73
    20
 74
     0
 42
0.000000001
 43
0.0000000001
 40
-3.245352337728675
 40
-3.245352337728675
 40
-3.245352337728675
 40
-3.245352337728675
 40
-3.191121093585466
 40
-3.191121093585466
 40
-3.164005471513861
 40
-3.164005471513861
 40
-3.136889849442257
 40
-3.136889849442257
 40
-3.087136153319043
 40
-3.087136153319043
 40
-3.037382457195829
 40
-3.037382457195829
 40
-2.937958159410046
 40
-2.937958159410046
 40
-2.838471180324693
 40
-2.838471180324693
 40
-2.6395042704333
 40
-2.6395042704333
 40
-2.440565248629418
 40
-2.440565248629418
 40
-2.440565248629418
 40
-2.440565248629418
 10
2.456424622634823
 20
-6.186181007415027
 30
38.10109451274867
 10
2.479967262203632
 20
-6.162638367846221
 30
37.8545131162572
 10
2.490289857916742
 20
-6.15231507904719
 30
37.60499351919609
 10
2.484971568353739
 20
-6.157633794144393
 30
37.227957341972
 10
2.47973157334803
 20
-6.162873973892752
 30
37.10182115842835
 10
2.462154340098396
 20
-6.180451319844901
 30
36.84893567461257
 10
2.449620711126673
 20
-6.19294393315195
 30
36.72287348776418
 10
2.410501108752331
 20
-6.232130034656599
 30
36.40602102542462
 10
2.379890935409843
 20
-6.262718727420981
 30
36.23093232815336
 10
2.315851812229585
 20
-6.326719505960406
 30
35.91859288315571
 10
2.282007529684102
 20
-6.360573079617382
 30
35.78030288225063
 10
2.178286964842788
 20
-6.464330119191428
 30
35.39891672591733
 10
2.105856150198657
 20
-6.53672787336257
 30
35.18696761155799
 10
1.959168127688719
 20
-6.683442673689857
 30
34.80485146459014
 10
1.884510875510944
 20
-6.757932767887428
 30
34.63525975895006
 10
1.659624216791285
 20
-6.982979235749703
 30
34.16815791995217
 10
1.507202729141366
 20
-7.135332773005155
 30
33.90879545672288
 10
1.201068706350123
 20
-7.441594421142308
 30
33.4451395662386
 10
1.047068150377755
 20
-7.595537479699517
 30
33.24180080287874
 10
0.8926056300498563
 20
-7.749999999999998
 30
33.05709472552188
  0
LINE
  5
22C
330
1F
100
AcDbEntity
  8
0
100
AcDbLine
 10
2.456424622634823
 20
-6.186181007415027
 30
38.10109451274867
 11
2.456424622634825
 21
-1.813818992584965
 31
38.10109451274867
  0
SPLINE
  5
22D
330
1F
100
AcDbEntity
  8
0
100
AcDbSpline
210
0.0
220
0.0
230
1.0
 70
    24
 71
     2
 72
     6
 73
     3
 74
     0
 42
0.000000001
 43
0.0000000001
 40
0.0
 40
0.0
 40
0.0
 40
8.0
 40
8.0
 40
8.0
 10
0.6426056300498537
 20
-0.0000000000000005
 30
28.18209472552187
 10
4.642605630049854
 20
-0.0000000000000008
 30
28.18209472552187
 10
8.642605630049854
 20
-0.0000000000000011
 30
28.18209472552187
  0
SPLINE
  5
22E
330
1F
100
AcDbEntity
  8
0
100
AcDbSpline
210
0.0
220
0.0
230
1.0
 70
    24
 71
     2
 72
     6
 73
     3
 74
     0
 42
0.000000001
 43
0.0000000001
 40
-6.0
 40
-6.0
 40
-6.0
 40
0.0
 40
0.0
 40
0.0
 10
8.642605630049854
 20
-0.0000000000000011
 30
28.18209472552187
 10
8.642605630049854
 20
-0.0000000000000011
 30
25.18209472552187
 10
8.642605630049854
 20
-0.0000000000000011
 30
22.18209472552187
  0
SPLINE
  5
22F
330
1F
100
AcDbEntity
  8
0
100
AcDbSpline
210
0.0
220
0.0
230
1.0
 70
    24
 71
     2
 72
     6
 73
     3
 74
     0
 42
0.000000001
 43
0.0000000001
 40
0.0
 40
0.0
 40
0.0
 40
8.0
 40
8.0
 40
8.0
 10
8.642605630049854
 20
-0.0000000000000011
 30
22.18209472552187
 10
4.642605630049854
 20
-0.0000000000000008
 30
22.18209472552187
 10
0.6426056300498537
 20
-0.0000000000000005
 30
22.18209472552187
  0
SPLINE
  5
230
330
1F
100
AcDbEntity
  8
0
100
AcDbSpline
210
0.0
220
0.0
230
1.0
 70
    24
 71
     2
 72
     6
 73
     3
 74
     0
 42
0.000000001
 43
0.0000000001
 40
0.0
 40
0.0
 40
0.0
 40
6.0
 40
6.0
 40
6.0
 10
0.6426056300498537
 20
-0.0000000000000005
 30
22.18209472552187
 10
0.6426056300498537
 20
-0.0000000000000005
 30
25.18209472552187
 10
0.6426056300498537
 20
-0.0000000000000005
 30
28.18209472552187
  0
SPLINE
  5
231
330
1F
100
AcDbEntity
  8
0
100
AcDbSpline
210
0.0
220
0.0
230
1.0
 70
    24
 71
     2
 72
     6
 73
     3
 74
     0
 42
0.000000001
 43
0.0000000001
 40
-3.999999999999993
 40
-3.999999999999993
 40
-3.999999999999993
 40
0.0
 40
0.0
 40
0.0
 10
0.6426056300498562
 20
-0.0000000000000018
 30
40.18209472552188
 10
0.6426056300498549
 20
-0.0000000000000016
 30
42.18209472552188
 10
0.6426056300498537
 20
-0.0000000000000014
 30
44.18209472552187
  0
SPLINE
  5
232
330
1F
100
AcDbEntity
  8
0
100
AcDbSpline
210
0.0
220
0.0
230
1.0
 70
    24
 71
     2
 72
     6
 73
     3
 74
     0
 42
0.000000001
 43
0.0000000001
 40
0.0
 40
0.0
 40
0.0
 40
8.000000000000002
 40
8.000000000000002
 40
8.000000000000002
 10
0.6426056300498537
 20
-0.0000000000000014
 30
44.18209472552187
 10
4.642605630049855
 20
-0.0000000000000017
 30
44.18209472552187
 10
8.642605630049855
 20
-0.000000000000002
 30
44.18209472552187
  0
SPLINE
  5
233
330
1F
100
AcDbEntity
  8
0
100
AcDbSpline
210
0.0
220
0.0
230
1.0
 70
    24
 71
     2
 72
     6
 73
     3
 74
     0
 42
0.000000001
 43
0.0000000001
 40
0.0
 40
0.0
 40
0.0
 40
3.999999999999993
 40
3.999999999999993
 40
3.999999999999993
 10
8.642605630049855
 20
-0.000000000000002
 30
44.18209472552187
 10
8.642605630049854
 20
-0.0000000000000024
 30
42.18209472552188
 10
8.642605630049854
 20
-0.0000000000000029
 30
40.18209472552188
  0
SPLINE
  5
234
330
1F
100
AcDbEntity
  8
0
100
AcDbSpline
 70
     0
 71
     3
 72
    20
 73
    16
 74
     0
 42
0.000000001
 43
0.0000000001
 40
-6.21113141506358
 40
-6.21113141506358
 40
-6.21113141506358
 40
-6.21113141506358
 40
-6.160030305516255
 40
-6.160030305516255
 40
-6.10892919596893
 40
-6.10892919596893
 40
-6.007202268227221
 40
-6.007202268227221
 40
-5.905562018992367
 40
-5.905562018992367
 40
-5.803952837423555
 40
-5.803952837423555
 40
-5.600767104279967
 40
-5.600767104279967
 40
-5.39760207909759
 40
-5.39760207909759
 40
-5.39760207909759
 40
-5.39760207909759
 10
0.8926056300498563
 20
-7.749999999999998
 30
33.05709472552188
 10
0.9051979486508006
 20
-7.737407681399054
 30
32.8657973445303
 10
0.9265751694379272
 20
-7.715950218321194
 30
32.7046965881478
 10
0.9791824779688575
 20
-7.663542845395416
 30
32.40310719995249
 10
1.008764476011976
 20
-7.633849066754356
 30
32.2739127805836
 10
1.104903613114215
 20
-7.537686518595478
 30
31.91158738892398
 10
1.175039206535755
 20
-7.467547468528724
 30
31.71789867667124
 10
1.319692683524764
 20
-7.323048270890251
 30
31.37094444468294
 10
1.394147183357591
 20
-7.248467224201298
 30
31.22031724202143
 10
1.54521630653219
 20
-7.097475648965274
 30
30.94580748172711
 10
1.621717002907179
 20
-7.020876008807008
 30
30.8225568883748
 10
1.853284756256997
 20
-6.789408903623247
 30
30.48095442106382
 10
2.009860957347368
 20
-6.632802331357952
 30
30.29099712435599
 10
2.324880103192705
 20
-6.31770699765411
 30
29.95559298001214
 10
2.483472267796377
 20
-6.159133362244644
 30
29.81073303057826
 10
2.642605630049853
 20
-6.000000000000002
 30
29.68209472552186
  0
LINE
  5
235
330
1F
100
AcDbEntity
  8
0
100
AcDbLine
 10
0.8926056300498563
 20
-7.749999999999998
 30
33.05709472552188
 11
0.8926056300498584
 21
-0.2500000000000001
 31
33.05709472552187
  0
LINE
  5
236
330
1F
100
AcDbEntity
  8
0
100
AcDbLine
 10
2.642605630049851
 20
-1.999999999999997
 30
29.68209472552186
 11
2.642605630049853
 21
-6.000000000000002
 31
29.68209472552186
  0
SPLINE
  5
237
330
1F
100
AcDbEntity
  8
0
100
AcDbSpline
210
0.0
220
0.0
230
1.0
 70
    24
 71
     2
 72
     6
 73
     3
 74
     0
 42
0.000000001
 43
0.0000000001
 40
-6.000000000000004
 40
-6.000000000000004
 40
-6.000000000000004
 40
-1.999999999999996
 40
-1.999999999999996
 40
-1.999999999999996
 10
2.642605630049854
 20
-1.999999999999997
 30
29.30709472552187
 10
2.642605630049854
 20
-4.000000000000001
 30
29.30709472552187
 10
2.642605630049854
 20
-6.000000000000004
 30
29.30709472552187
  0
SPLINE
  5
238
330
1F
100
AcDbEntity
  8
0
100
AcDbSpline
 70
     0
 71
     3
 72
    12
 73
     8
 74
     0
 42
0.000000001
 43
0.0000000001
 40
-2.528858977557928
 40
-2.528858977557928
 40
-2.528858977557928
 40
-2.528858977557928
 40
-2.31909173982429
 40
-2.31909173982429
 40
-2.109489848621157
 40
-2.109489848621157
 40
-1.690156447962371
 40
-1.690156447962371
 40
-1.690156447962371
 40
-1.690156447962371
 10
2.357605630049847
 20
-6.285000000000004
 30
29.30709472552187
 10
2.249574042596397
 20
-6.393031587482534
 30
29.15045753656085
 10
2.134061094437233
 20
-6.508605520644085
 30
29.02727169147605
 10
1.89548743805279
 20
-6.74701992639607
 30
28.81981697745781
 10
1.773273692369743
 20
-6.869427047514185
 30
28.73712492947726
 10
1.400766559657151
 20
-7.241568103068819
 30
28.53435832532
 10
1.147319079249096
 20
-7.495286550671548
 30
28.46017458915365
 10
0.8926056300498444
 20
-7.750000000000007
 30
28.43209472552187
  0
LINE
  5
239
330
1F
100
AcDbEntity
  8
0
100
AcDbLine
 10
2.357605630049847
 20
-6.285000000000004
 30
29.30709472552187
 11
2.357605630049849
 21
-1.714999999999997
 31
29.30709472552187
  0
LINE
  5
23A
330
1F
100
AcDbEntity
  8
0
100
AcDbLine
 10
0.8926056300498438
 20
-0.2499999999999952
 30
28.43209472552187
 11
0.8926056300498444
 21
-7.750000000000007
 31
28.43209472552187
  0
SPLINE
  5
23B
330
1F
100
AcDbEntity
  8
0
100
AcDbSpline
210
0.0
220
0.0
230
1.0
 70
    24
 71
     2
 72
     6
 73
     3
 74
     0
 42
0.000000001
 43
0.0000000001
 40
-7.750000000000007
 40
-7.750000000000007
 40
-7.750000000000007
 40
-0.2499999999999947
 40
-0.2499999999999947
 40
-0.2499999999999947
 10
0.8926056300498466
 20
-0.2499999999999948
 30
28.18209472552187
 10
0.8926056300498466
 20
-4.000000000000001
 30
28.18209472552187
 10
0.8926056300498467
 20
-7.750000000000007
 30
28.18209472552187
  0
SPLINE
  5
23C
330
1F
100
AcDbEntity
  8
0
100
AcDbSpline
210
0.0
220
0.0
230
1.0
 70
    24
 71
     2
 72
     6
 73
     3
 74
     0
 42
0.000000001
 43
0.0000000001
 40
-7.999999999999999
 40
-7.999999999999999
 40
-7.999999999999999
 40
0.0
 40
0.0
 40
0.0
 10
8.642605630049854
 20
-0.0000000000000011
 30
22.18209472552187
 10
8.642605630049854
 20
-4.000000000000001
 30
22.18209472552187
 10
8.642605630049854
 20
-8.0
 30
22.18209472552187
  0
SPLINE
  5
23D
330
1F
100
AcDbEntity
  8
0
100
AcDbSpline
210
0.0
220
0.0
230
1.0
 70
    24
 71
     2
 72
     6
 73
     3
 74
     0
 42
0.000000001
 43
0.0000000001
 40
0.0
 40
0.0
 40
0.0
 40
8.0
 40
8.0
 40
8.0
 10
0.6426056300498537
 20
-8.0
 30
22.18209472552187
 10
0.6426056300498537
 20
-4.0
 30
22.18209472552187
 10
0.6426056300498537
 20
-0.0000000000000005
 30
22.18209472552187
  0
SPLINE
  5
23E
330
1F
100
AcDbEntity
  8
0
100
AcDbSpline
210
0.0
220
0.0
230
1.0
 70
    24
 71
     2
 72
     6
 73
     3
 74
     0
 42
0.000000001
 43
0.0000000001
 40
0.0
 40
0.0
 40
0.0
 40
8.0
 40
8.0
 40
8.0
 10
8.642605630049854
 20
-8.000000000000002
 30
28.18209472552187
 10
8.642605630049854
 20
-4.000000000000002
 30
28.18209472552187
 10
8.642605630049854
 20
-0.0000000000000011
 30
28.18209472552187
  0
SPLINE
  5
23F
330
1F
100
AcDbEntity
  8
0
100
AcDbSpline
210
0.0
220
0.0
230
1.0
 70
    24
 71
     2
 72
     6
 73
     3
 74
     0
 42
0.000000001
 43
0.0000000001
 40
-8.000000000000002
 40
-8.000000000000002
 40
-8.000000000000002
 40
0.0
 40
0.0
 40
0.0
 10
0.6426056300498537
 20
-0.0000000000000005
 30
28.18209472552187
 10
0.6426056300498537
 20
-4.000000000000001
 30
28.18209472552187
 10
0.6426056300498537
 20
-8.000000000000002
 30
28.18209472552187
  0
SPLINE
  5
240
330
1F
100
AcDbEntity
  8
0
100
AcDbSpline
210
0.0
220
0.0
230
1.0
 70
    24
 71
     2
 72
     6
 73
     3
 74
     0
 42
0.000000001
 43
0.0000000001
 40
1.714999999999996
 40
1.714999999999996
 40
1.714999999999996
 40
6.285000000000005
 40
6.285000000000005
 40
6.285000000000005
 10
6.927605630049856
 20
-6.285000000000005
 30
29.30709472552187
 10
6.927605630049856
 20
-4.000000000000001
 30
29.30709472552187
 10
6.927605630049856
 20
-1.714999999999997
 30
29.30709472552187
  0
SPLINE
  5
241
330
1F
100
AcDbEntity
  8
0
100
AcDbSpline
210
0.0
220
0.0
230
1.0
 70
    24
 71
     2
 72
     6
 73
     3
 74
     0
 42
0.000000001
 43
0.0000000001
 40
-6.000000000000004
 40
-6.000000000000004
 40
-6.000000000000004
 40
-2.0
 40
-2.0
 40
-2.0
 10
6.642605630049854
 20
-1.999999999999997
 30
29.30709472552187
 10
6.642605630049854
 20
-4.0
 30
29.30709472552187
 10
6.642605630049854
 20
-6.000000000000002
 30
29.30709472552187
  0
SPLINE
  5
242
330
1F
100
AcDbEntity
  8
0
100
AcDbSpline
210
0.0
220
0.0
230
1.0
 70
    24
 71
     2
 72
     6
 73
     3
 74
     0
 42
0.000000001
 43
0.0000000001
 40
-6.000000000000004
 40
-6.000000000000004
 40
-6.000000000000004
 40
-2.0
 40
-2.0
 40
-2.0
 10
6.642605630049855
 20
-1.999999999999997
 30
29.68209472552186
 10
6.642605630049855
 20
-4.0
 30
29.68209472552186
 10
6.642605630049855
 20
-6.000000000000002
 30
29.68209472552186
  0
SPLINE
  5
243
330
1F
100
AcDbEntity
  8
0
100
AcDbSpline
 70
     0
 71
     3
 72
    20
 73
    16
 74
     0
 42
0.000000001
 43
0.0000000001
 40
-3.069538761473791
 40
-3.069538761473791
 40
-3.069538761473791
 40
-3.069538761473791
 40
-3.018437666387236
 40
-3.018437666387236
 40
-2.967336559117226
 40
-2.967336559117226
 40
-2.865609635908968
 40
-2.865609635908968
 40
-2.763969391203702
 40
-2.763969391203702
 40
-2.662360214163096
 40
-2.662360214163096
 40
-2.459174490074465
 40
-2.459174490074465
 40
-2.256009425507797
 40
-2.256009425507797
 40
-2.256009425507797
 40
-2.256009425507797
 10
8.392605630049854
 20
-0.2500000000000007
 30
33.05709472552186
 10
8.380013301255458
 20
-0.2625923288326611
 30
32.86579726771145
 10
8.358636084390502
 20
-0.2840497879262533
 30
32.70469655219554
 10
8.306028782130852
 20
-0.336457154604584
 30
32.40310719995248
 10
8.276446784087733
 20
-0.3661509332456421
 30
32.27391278058358
 10
8.180307646985492
 20
-0.4623134814045202
 30
31.91158738892398
 10
8.110172053563955
 20
-0.5324525314712749
 30
31.71789867667124
 10
7.965518576574943
 20
-0.6769517291097465
 30
31.37094444468294
 10
7.891064076742113
 20
-0.7515327757986998
 30
31.22031724202142
 10
7.73999495356752
 20
-0.9025243510347255
 30
30.9458074817271
 10
7.663494257192536
 20
-0.9791239911929903
 30
30.82255688837481
 10
7.431926503842715
 20
-1.210591096376752
 30
30.48095442106382
 10
7.275350302752346
 20
-1.367197668642046
 30
30.29099712435599
 10
6.960331119355701
 20
-1.682293039906272
 30
29.95559294003088
 10
6.801738916680677
 20
-1.840866713369174
 30
29.81073296150364
 10
6.642605630049855
 20
-1.999999999999997
 30
29.68209472552186
  0
LINE
  5
244
330
1F
100
AcDbEntity
  8
0
100
AcDbLine
 10
8.392605630049854
 20
-0.2500000000000007
 30
33.05709472552186
 11
8.392605630049852
 21
-7.749999999999998
 31
33.05709472552188
  0
SPLINE
  5
245
330
1F
100
AcDbEntity
  8
0
100
AcDbSpline
 70
     0
 71
     3
 72
    24
 73
    20
 74
     0
 42
0.000000001
 43
0.0000000001
 40
-6.386944991318467
 40
-6.386944991318467
 40
-6.386944991318467
 40
-6.386944991318467
 40
-6.332713750396972
 40
-6.332713750396972
 40
-6.305598129936225
 40
-6.305598129936225
 40
-6.278482509475477
 40
-6.278482509475477
 40
-6.22872881628089
 40
-6.22872881628089
 40
-6.178975123086304
 40
-6.178975123086304
 40
-6.079550831152877
 40
-6.079550831152877
 40
-5.980063857923563
 40
-5.980063857923563
 40
-5.781096959743839
 40
-5.781096959743839
 40
-5.582157902219212
 40
-5.582157902219212
 40
-5.582157902219212
 40
-5.582157902219212
 10
6.82878663746489
 20
-1.813818992584965
 30
38.10109451274867
 10
6.805243997909059
 20
-1.837361632140795
 30
37.85451311639315
 10
6.794921402177621
 20
-1.847684920932997
 30
37.60499351915231
 10
6.800239691752083
 20
-1.842366205833329
 30
37.22795734175018
 10
6.805479686765554
 20
-1.837126026085443
 30
37.10182115816276
 10
6.823056920021737
 20
-1.819548680136597
 30
36.84893567438477
 10
6.835590548987211
 20
-1.807056066833864
 30
36.72287348764153
 10
6.874710151355477
 20
-1.76786996533527
 30
36.40602102537344
 10
6.90532032469819
 20
-1.737281272570708
 30
36.23093232810793
 10
6.969359447878618
 20
-1.673280494031092
 30
35.91859288311914
 10
7.003203730424081
 20
-1.639426920374148
 30
35.78030288221713
 10
7.106924295265118
 20
-1.535669880800357
 30
35.39891672589187
 10
7.179355109908877
 20
-1.463272126629616
 30
35.18696761153589
 10
7.326043132417978
 20
-1.316557326303141
 30
34.80485146457367
 10
7.400700384595298
 20
-1.242067232106042
 30
34.63525975893568
 10
7.625587043313533
 20
-1.017020764245178
 30
34.16815791994317
 10
7.778008530962444
 20
-0.8646672269907352
 30
33.90879545671625
 10
8.084142590243133
 20
-0.5584055423489325
 30
33.44513951096763
 10
8.238143183156199
 20
-0.4044624468936542
 30
33.24180070591798
 10
8.392605630049854
 20
-0.2500000000000007
 30
33.05709472552186
  0
LINE
  5
246
330
1F
100
AcDbEntity
  8
0
100
AcDbLine
 10
6.82878663746489
 20
-1.813818992584965
 30
38.10109451274867
 11
6.82878663746489
 21
-6.186181007415027
 31
38.10109451274867
  0
SPLINE
  5
247
330
1F
100
AcDbEntity
  8
0
100
AcDbSpline
 70
     0
 71
     3
 72
    18
 73
    14
 74
     0
 42
0.000000001
 43
0.0000000001
 40
-1.304344815985575
 40
-1.304344815985575
 40
-1.304344815985575
 40
-1.304344815985575
 40
-1.008147364815915
 40
-1.008147364815915
 40
-0.7120557094049169
 40
-0.7120557094049169
 40
-0.5639812881486905
 40
-0.5639812881486905
 40
-0.4158230420383757
 40
-0.4158230420383757
 40
-0.268032343410286
 40
-0.268032343410286
 40
-0.1239610357933862
 40
-0.1239610357933862
 40
-0.1239610357933862
 40
-0.1239610357933862
 10
8.642605630049854
 20
-0.0000000000000029
 30
40.18209472552188
 10
8.471611884135356
 20
-0.1709937460351063
 30
40.13823162271817
 10
8.301651888644614
 20
-0.3412066661286369
 30
40.07519539590726
 10
7.96435565975933
 20
-0.6782078923735846
 30
39.90151002809878
 10
7.797304763688675
 20
-0.8452436225561321
 30
39.79140848593209
 10
7.553170186265922
 20
-1.089476506774672
 30
39.57547082751948
 10
7.472888118844067
 20
-1.16969971708464
 30
39.4949303780596
 10
7.315888020369108
 20
-1.326737202597944
 30
39.31066987331418
 10
7.239401038941621
 20
-1.403151588260588
 30
39.20744207483232
 10
7.093895938432948
 20
-1.548773433894699
 30
38.96781885967967
 10
7.025500583900058
 20
-1.616992681236888
 30
38.8340613072052
 10
6.905213059669897
 20
-1.737692911996775
 30
38.50938400057861
 10
6.853871826001734
 20
-1.788733804048122
 30
38.31995206765935
 10
6.82878663746489
 20
-1.813818992584965
 30
38.10109451274867
  0
LINE
  5
248
330
1F
100
AcDbEntity
  8
0
100
AcDbLine
 10
8.642605630049854
 20
-0.0000000000000029
 30
40.18209472552188
 11
8.642605630049854
 21
-8.0
 31
40.18209472552188
  0
SPLINE
  5
249
330
1F
100
AcDbEntity
  8
0
100
AcDbSpline
210
0.0
220
0.0
230
1.0
 70
    24
 71
     2
 72
     6
 73
     3
 74
     0
 42
0.000000001
 43
0.0000000001
 40
-8.0
 40
-8.0
 40
-8.0
 40
0.0
 40
0.0
 40
0.0
 10
8.642605630049855
 20
-0.000000000000002
 30
44.18209472552187
 10
8.642605630049854
 20
-4.000000000000002
 30
44.18209472552187
 10
8.642605630049854
 20
-8.000000000000002
 30
44.18209472552187
  0
SPLINE
  5
24A
330
1F
100
AcDbEntity
  8
0
100
AcDbSpline
210
0.0
220
0.0
230
1.0
 70
    24
 71
     2
 72
     6
 73
     3
 74
     0
 42
0.000000001
 43
0.0000000001
 40
0.0
 40
0.0
 40
0.0
 40
3.999999999999993
 40
3.999999999999993
 40
3.999999999999993
 10
8.642605630049854
 20
-8.000000000000002
 30
44.18209472552187
 10
8.642605630049854
 20
-8.0
 30
42.18209472552188
 10
8.642605630049854
 20
-8.0
 30
40.18209472552188
  0
SPLINE
  5
24B
330
1F
100
AcDbEntity
  8
0
100
AcDbSpline
210
0.0
220
0.0
230
1.0
 70
    24
 71
     2
 72
     6
 73
     3
 74
     0
 42
0.000000001
 43
0.0000000001
 40
-8.0
 40
-8.0
 40
-8.0
 40
0.0
 40
0.0
 40
0.0
 10
0.6426056300498537
 20
-0.0000000000000014
 30
44.18209472552187
 10
0.6426056300498537
 20
-4.000000000000002
 30
44.18209472552187
 10
0.6426056300498537
 20
-8.000000000000002
 30
44.18209472552187
  0
SPLINE
  5
24C
330
1F
100
AcDbEntity
  8
0
100
AcDbSpline
210
0.0
220
0.0
230
1.0
 70
    24
 71
     2
 72
     6
 73
     3
 74
     0
 42
0.000000001
 43
0.0000000001
 40
0.0
 40
0.0
 40
0.0
 40
7.999999999999998
 40
7.999999999999998
 40
7.999999999999998
 10
0.6426056300498537
 20
-8.000000000000002
 30
44.18209472552187
 10
4.642605630049854
 20
-8.000000000000002
 30
44.18209472552187
 10
8.642605630049854
 20
-8.000000000000002
 30
44.18209472552187
  0
SPLINE
  5
24D
330
1F
100
AcDbEntity
  8
0
100
AcDbSpline
210
0.0
220
0.0
230
1.0
 70
    24
 71
     2
 72
     6
 73
     3
 74
     0
 42
0.000000001
 43
0.0000000001
 40
-3.999999999999993
 40
-3.999999999999993
 40
-3.999999999999993
 40
0.0
 40
0.0
 40
0.0
 10
0.6426056300498559
 20
-8.0
 30
40.18209472552188
 10
0.6426056300498548
 20
-8.0
 30
42.18209472552188
 10
0.6426056300498537
 20
-8.000000000000002
 30
44.18209472552187
  0
ARC
  5
24E
330
1F
100
AcDbEntity
  8
0
100
AcDbCircle
 10
-3.020071732212603
 20
33.36844641993014
 30
4.642605630049854
 40
4.740164690812462
210
1.0
220
0.0
230
0.0
100
AcDbArc
 50
183.7661118450406
 51
231.0490390305959
  0
LINE
  5
24F
330
1F
100
AcDbEntity
  8
0
100
AcDbLine
 10
2.642605630049854
 20
-6.000000000000002
 30
29.49459472552187
 11
6.642605630049854
 21
-6.000000000000002
 31
29.49459472552187
  0
LINE
  5
250
330
1F
100
AcDbEntity
  8
0
100
AcDbLine
 10
4.642605630049854
 20
-6.000000000000002
 30
29.30709472552187
 11
4.642605630049854
 21
-6.000000000000002
 31
29.68209472552186
  0
ARC
  5
251
330
1F
100
AcDbEntity
  8
0
100
AcDbCircle
 10
-13.00329631744658
 20
37.45022266707545
 30
4.642605630049854
 40
6.848116186934664
210
1.0
220
0.0
230
0.0
100
AcDbArc
 50
320.0955683798701
 51
5.453848006068318
  0
LINE
  5
252
330
1F
100
AcDbEntity
  8
0
100
AcDbLine
 10
6.797785257489317
 20
-6.155180130511912
 30
37.45022266707545
 11
2.487426002610396
 21
-6.155180130511912
 31
37.45022266707545
  0
ARC
  5
253
330
1F
100
AcDbEntity
  8
0
100
AcDbCircle
 10
-8.604931235002056
 20
37.82386028381234
 30
4.642605630049854
 40
2.434586511329231
210
1.0
220
0.0
230
0.0
100
AcDbArc
 50
6.538638937387171
 51
75.61277546596416
  0
LINE
  5
254
330
1F
100
AcDbEntity
  8
0
100
AcDbLine
 10
6.642605630049854
 20
-1.999999999999997
 30
29.49459472552187
 11
2.642605630049852
 21
-1.999999999999997
 31
29.49459472552187
  0
LINE
  5
255
330
1F
100
AcDbEntity
  8
0
100
AcDbLine
 10
4.642605630049852
 20
-1.999999999999997
 30
29.30709472552187
 11
4.642605630049852
 21
-1.999999999999997
 31
29.68209472552186
  0
LINE
  5
256
330
1F
100
AcDbEntity
  8
0
100
AcDbLine
 10
8.392605630049857
 20
-0.2499999999999955
 30
28.30709472552187
 11
0.8926056300498448
 21
-0.2499999999999951
 31
28.30709472552187
  0
LINE
  5
257
330
1F
100
AcDbEntity
  8
0
100
AcDbLine
 10
4.64260563004985
 20
-0.2499999999999953
 30
28.18209472552187
 11
4.64260563004985
 21
-0.2499999999999953
 31
28.43209472552187
  0
ARC
  5
258
330
1F
100
AcDbEntity
  8
0
100
AcDbCircle
 10
-0.0250481418828942
 20
30.47264269368365
 30
4.642605630049854
 40
2.052909970953305
210
1.0
220
-6.245004513516506E-17
230
0.0
100
AcDbArc
 50
214.5937574666757
 51
263.709063950983
  0
ARC
  5
259
330
1F
100
AcDbEntity
  8
0
100
AcDbCircle
 10
-7.974951858117109
 20
30.47264269368365
 30
4.64260563004985
 40
2.052909970953305
210
1.0
220
0.0
230
0.0
100
AcDbArc
 50
276.290936049017
 51
325.4062425333243
  0
LINE
  5
25A
330
1F
100
AcDbEntity
  8
0
100
AcDbLine
 10
0.8926056300498448
 20
-7.750000000000008
 30
28.30709472552187
 11
8.392605630049855
 21
-7.750000000000009
 31
28.30709472552187
  0
LINE
  5
25B
330
1F
100
AcDbEntity
  8
0
100
AcDbLine
 10
4.64260563004985
 20
-7.750000000000009
 30
28.18209472552187
 11
4.64260563004985
 21
-7.750000000000009
 31
28.43209472552187
  0
ARC
  5
25C
330
1F
100
AcDbEntity
  8
0
100
AcDbCircle
 10
-4.9799282677874
 20
33.36844641993014
 30
4.642605630049857
 40
4.740164690812462
210
1.0
220
0.0
230
0.0
100
AcDbArc
 50
308.950960969404
 51
356.2338881549594
  0
ARC
  5
25D
330
1F
100
AcDbEntity
  8
0
100
AcDbCircle
 10
5.003296317446581
 20
37.45022266707545
 30
4.642605630049857
 40
6.848116186934663
210
1.0
220
0.0
230
0.0
100
AcDbArc
 50
174.5461519939317
 51
219.9044316201299
  0
LINE
  5
25E
330
1F
100
AcDbEntity
  8
0
100
AcDbLine
 10
6.797785260650516
 20
-1.844819869488083
 30
37.45022266707545
 11
2.487426002589836
 21
-1.844819869488083
 31
37.45022266707545
  0
ARC
  5
25F
330
1F
100
AcDbEntity
  8
0
100
AcDbCircle
 10
0.6049312350020611
 20
37.82386028381234
 30
4.642605630049854
 40
2.43458651132923
210
1.0
220
-1.110223024625157E-16
230
0.0
100
AcDbArc
 50
104.387224534036
 51
173.4613610626128
  0
ARC
  5
260
330
1F
100
AcDbEntity
  8
0
100
AcDbCircle
 10
-8.617557488166959
 20
30.47264269368365
 30
-4.0
 40
2.052909970953305
210
0.0
220
1.0
230
0.0
100
AcDbArc
 50
276.290936049017
 51
325.4062425333242
  0
LINE
  5
261
330
1F
100
AcDbEntity
  8
0
100
AcDbLine
 10
8.642605630049854
 20
-8.000000000000002
 30
25.18209472552187
 11
0.6426056300498533
 21
-8.000000000000002
 31
25.18209472552187
  0
LINE
  5
262
330
1F
100
AcDbEntity
  8
0
100
AcDbLine
 10
4.642605630049853
 20
-8.000000000000002
 30
22.18209472552187
 11
4.642605630049854
 21
-8.000000000000002
 31
28.18209472552187
  0
LINE
  5
263
330
1F
100
AcDbEntity
  8
0
100
AcDbLine
 10
8.392605630049857
 20
-7.750000000000009
 30
28.30709472552187
 11
8.392605630049857
 21
-0.2499999999999956
 31
28.30709472552187
  0
LINE
  5
264
330
1F
100
AcDbEntity
  8
0
100
AcDbLine
 10
8.392605630049857
 20
-4.000000000000002
 30
28.18209472552187
 11
8.392605630049857
 21
-4.000000000000002
 31
28.43209472552187
  0
ARC
  5
265
330
1F
100
AcDbEntity
  8
0
100
AcDbCircle
 10
-0.037674395047798
 20
37.82386028381234
 30
-4.0
 40
2.43458651132923
210
0.0
220
1.0
230
0.0
100
AcDbArc
 50
104.387224534036
 51
173.4613610626128
  0
ARC
  5
266
330
1F
100
AcDbEntity
  8
0
100
AcDbCircle
 10
4.360690687396722
 20
37.45022266707545
 30
-3.999999999999996
 40
6.848116186934663
210
0.0
220
1.0
230
0.0
100
AcDbArc
 50
174.5461519939317
 51
219.9044316201299
  0
LINE
  5
267
330
1F
100
AcDbEntity
  8
0
100
AcDbLine
 10
2.487425499537942
 20
-6.155179627439455
 30
37.45022266707545
 11
2.487425499537942
 21
-1.844820372560539
 31
37.45022266707545
  0
LINE
  5
268
330
1F
100
AcDbEntity
  8
0
100
AcDbLine
 10
8.642605630049854
 20
-0.0000000000000013
 30
25.18209472552187
 11
0.6426056300498533
 21
-0.0000000000000013
 31
25.18209472552187
  0
LINE
  5
269
330
1F
100
AcDbEntity
  8
0
100
AcDbLine
 10
4.642605630049853
 20
-0.0000000000000011
 30
22.18209472552187
 11
4.642605630049854
 21
-0.0000000000000015
 31
28.18209472552187
  0
LINE
  5
26A
330
1F
100
AcDbEntity
  8
0
100
AcDbLine
 10
8.642605630049854
 20
-0.0000000000000023
 30
42.18209472552188
 11
0.6426056300498553
 21
-0.0000000000000023
 31
42.18209472552188
  0
LINE
  5
26B
330
1F
100
AcDbEntity
  8
0
100
AcDbLine
 10
4.642605630049855
 20
-0.0000000000000022
 30
40.18209472552189
 11
4.642605630049856
 21
-0.0000000000000025
 31
44.18209472552186
  0
ARC
  5
26C
330
1F
100
AcDbEntity
  8
0
100
AcDbCircle
 10
-5.622533897837251
 20
33.36844641993014
 30
-3.999999999999996
 40
4.740164690812462
210
0.0
220
1.0
230
0.0
100
AcDbArc
 50
308.950960969404
 51
356.2338881549594
  0
LINE
  5
26D
330
1F
100
AcDbEntity
  8
0
100
AcDbLine
 10
2.642605630049854
 20
-1.999999999999997
 30
29.49459472552187
 11
2.642605630049854
 21
-6.000000000000004
 31
29.49459472552187
  0
LINE
  5
26E
330
1F
100
AcDbEntity
  8
0
100
AcDbLine
 10
2.642605630049854
 20
-4.000000000000002
 30
29.30709472552187
 11
2.642605630049854
 21
-4.000000000000002
 31
29.68209472552186
  0
ARC
  5
26F
330
1F
100
AcDbEntity
  8
0
100
AcDbCircle
 10
-0.6676537719327449
 20
30.47264269368365
 30
-4.0
 40
2.052909970953305
210
0.0
220
1.0
230
0.0
100
AcDbArc
 50
214.5937574666757
 51
263.7090639509831
  0
LINE
  5
270
330
1F
100
AcDbEntity
  8
0
100
AcDbLine
 10
0.8926056300498466
 20
-0.2499999999999947
 30
28.30709472552187
 11
0.8926056300498466
 21
-7.750000000000008
 31
28.30709472552187
  0
LINE
  5
271
330
1F
100
AcDbEntity
  8
0
100
AcDbLine
 10
0.8926056300498466
 20
-4.000000000000002
 30
28.18209472552187
 11
0.8926056300498466
 21
-4.000000000000002
 31
28.43209472552187
  0
LINE
  5
272
330
1F
100
AcDbEntity
  8
0
100
AcDbLine
 10
0.6426056300498535
 20
0.0000000000000002
 30
25.18209472552187
 11
0.6426056300498535
 21
-8.0
 31
25.18209472552187
  0
LINE
  5
273
330
1F
100
AcDbEntity
  8
0
100
AcDbLine
 10
0.6426056300498534
 20
-4.000000000000001
 30
22.18209472552187
 11
0.6426056300498537
 21
-4.000000000000001
 31
28.18209472552187
  0
LINE
  5
274
330
1F
100
AcDbEntity
  8
0
100
AcDbLine
 10
4.642605630049854
 20
0.0
 30
22.18209472552187
 11
4.642605630049854
 21
-7.999999999999999
 31
22.18209472552187
  0
LINE
  5
275
330
1F
100
AcDbEntity
  8
0
100
AcDbLine
 10
8.642605630049854
 20
-4.0
 30
22.18209472552187
 11
0.6426056300498537
 21
-4.0
 31
22.18209472552187
  0
LINE
  5
276
330
1F
100
AcDbEntity
  8
0
100
AcDbLine
 10
8.642605630049854
 20
-8.0
 30
25.18209472552187
 11
8.642605630049854
 21
-0.0000000000000002
 31
25.18209472552187
  0
LINE
  5
277
330
1F
100
AcDbEntity
  8
0
100
AcDbLine
 10
8.642605630049854
 20
-4.000000000000001
 30
22.18209472552187
 11
8.642605630049854
 21
-4.000000000000001
 31
28.18209472552187
  0
LINE
  5
278
330
1F
100
AcDbEntity
  8
0
100
AcDbLine
 10
4.642605630049854
 20
-8.0
 30
28.18209472552187
 11
4.642605630049854
 21
-7.750000000000007
 31
28.18209472552187
  0
LINE
  5
279
330
1F
100
AcDbEntity
  8
0
100
AcDbLine
 10
4.642605630049854
 20
-0.2499999999999952
 30
28.18209472552187
 11
4.642605630049854
 21
-0.0000000000000019
 31
28.18209472552187
  0
LINE
  5
27A
330
1F
100
AcDbEntity
  8
0
100
AcDbLine
 10
8.642605630049854
 20
-4.000000000000001
 30
28.18209472552187
 11
8.392605630049857
 21
-4.000000000000001
 31
28.18209472552187
  0
LINE
  5
27B
330
1F
100
AcDbEntity
  8
0
100
AcDbLine
 10
0.8926056300498463
 20
-4.000000000000001
 30
28.18209472552187
 11
0.6426056300498538
 21
-4.000000000000001
 31
28.18209472552187
  0
LINE
  5
27C
330
1F
100
AcDbEntity
  8
0
100
AcDbLine
 10
4.642605630049852
 20
-6.285000000000005
 30
29.30709472552187
 11
4.642605630049852
 21
-6.000000000000004
 31
29.30709472552187
  0
LINE
  5
27D
330
1F
100
AcDbEntity
  8
0
100
AcDbLine
 10
4.642605630049852
 20
-1.999999999999998
 30
29.30709472552187
 11
4.642605630049852
 21
-1.714999999999996
 31
29.30709472552187
  0
LINE
  5
27E
330
1F
100
AcDbEntity
  8
0
100
AcDbLine
 10
6.927605630049857
 20
-4.000000000000001
 30
29.30709472552187
 11
6.642605630049853
 21
-4.000000000000001
 31
29.30709472552187
  0
LINE
  5
27F
330
1F
100
AcDbEntity
  8
0
100
AcDbLine
 10
2.642605630049854
 20
-4.000000000000001
 30
29.30709472552187
 11
2.357605630049848
 21
-4.000000000000001
 31
29.30709472552187
  0
LINE
  5
280
330
1F
100
AcDbEntity
  8
0
100
AcDbLine
 10
6.642605630049854
 20
-6.000000000000002
 30
29.49459472552187
 11
6.642605630049854
 21
-1.999999999999997
 31
29.49459472552187
  0
LINE
  5
281
330
1F
100
AcDbEntity
  8
0
100
AcDbLine
 10
6.642605630049854
 20
-4.0
 30
29.30709472552187
 11
6.642605630049854
 21
-4.0
 31
29.68209472552186
  0
ARC
  5
282
330
1F
100
AcDbEntity
  8
0
100
AcDbCircle
 10
-3.662677362262453
 20
33.36844641993014
 30
-4.0
 40
4.740164690812462
210
0.0
220
1.0
230
0.0
100
AcDbArc
 50
183.7661118450406
 51
231.0490390305959
  0
ARC
  5
283
330
1F
100
AcDbEntity
  8
0
100
AcDbCircle
 10
-13.64590194749644
 20
37.45022266707545
 30
-3.999999999999996
 40
6.848116186934664
210
0.0
220
1.0
230
0.0
100
AcDbArc
 50
320.0955683798701
 51
5.453848006068318
  0
LINE
  5
284
330
1F
100
AcDbEntity
  8
0
100
AcDbLine
 10
6.797785760561773
 20
-6.155179627439454
 30
37.45022266707545
 11
6.797785760561773
 21
-1.844820372539976
 31
37.45022266707545
  0
ARC
  5
285
330
1F
100
AcDbEntity
  8
0
100
AcDbCircle
 10
-9.247536865051913
 20
37.82386028381234
 30
-4.0
 40
2.434586511329229
210
0.0
220
1.0
230
0.0
100
AcDbArc
 50
6.538638937387176
 51
75.61277546596405
  0
LINE
  5
286
330
1F
100
AcDbEntity
  8
0
100
AcDbLine
 10
8.642605630049854
 20
-8.0
 30
42.18209472552187
 11
8.642605630049854
 21
-0.0000000000000019
 31
42.18209472552187
  0
LINE
  5
287
330
1F
100
AcDbEntity
  8
0
100
AcDbLine
 10
8.642605630049854
 20
-4.000000000000002
 30
40.18209472552189
 11
8.642605630049854
 21
-4.000000000000002
 31
44.18209472552186
  0
LINE
  5
288
330
1F
100
AcDbEntity
  8
0
100
AcDbLine
 10
4.642605630049855
 20
-8.0
 30
44.18209472552187
 11
4.642605630049855
 21
-0.0000000000000018
 31
44.18209472552187
  0
LINE
  5
289
330
1F
100
AcDbEntity
  8
0
100
AcDbLine
 10
8.642605630049855
 20
-4.000000000000002
 30
44.18209472552187
 11
0.6426056300498537
 21
-4.000000000000002
 31
44.18209472552187
  0
LINE
  5
28A
330
1F
100
AcDbEntity
  8
0
100
AcDbLine
 10
0.6426056300498527
 20
-0.0000000000000017
 30
42.18209472552187
 11
0.6426056300498527
 21
-8.0
 31
42.18209472552187
  0
LINE
  5
28B
330
1F
100
AcDbEntity
  8
0
100
AcDbLine
 10
0.6426056300498517
 20
-4.000000000000002
 30
40.18209472552188
 11
0.6426056300498537
 21
-4.000000000000002
 31
44.18209472552186
  0
LINE
  5
28C
330
1F
100
AcDbEntity
  8
0
100
AcDbLine
 10
8.642605630049852
 20
-8.000000000000002
 30
42.18209472552188
 11
0.6426056300498553
 21
-8.000000000000002
 31
42.18209472552188
  0
LINE
  5
28D
330
1F
100
AcDbEntity
  8
0
100
AcDbLine
 10
4.642605630049854
 20
-8.000000000000002
 30
40.18209472552189
 11
4.642605630049855
 21
-8.000000000000002
 31
44.18209472552186
  0
ENDSEC
  0
SECTION
  2
OBJECTS
  0
DICTIONARY
  5
C
330
0
100
AcDbDictionary
281
     1
  3
ACAD_DETAILVIEWSTYLE
350
2D3
  3
ACAD_GROUP
350
D
  3
ACAD_LAYOUT
350
1A
  3
ACAD_MATERIAL
350
43
  3
ACAD_MLEADERSTYLE
350
6B
  3
ACAD_MLINESTYLE
350
17
  3
ACAD_PLOTSETTINGS
350
19
  3
ACAD_PLOTSTYLENAME
350
E
  3
ACAD_SCALELIST
350
47
  3
ACAD_SECTIONVIEWSTYLE
350
2D4
  3
ACAD_TABLESTYLE
350
69
  3
ACAD_VISUALSTYLE
350
2A
  3
ACDB_RECOMPOSE_DATA
350
2D0
  3
AcDbVariableDictionary
350
290
  0
DICTIONARY
  5
28E
330
8
100
AcDbDictionary
280
     1
281
     1
  3
ACAD_XREC_ROUNDTRIP
360
28F
  0
DICTIONARY
  5
2D3
102
{ACAD_REACTORS
330
C
102
}
330
C
100
AcDbDictionary
281
     1
  0
DICTIONARY
  5
D
102
{ACAD_REACTORS
330
C
102
}
330
C
100
AcDbDictionary
281
     1
  0
DICTIONARY
  5
1A
102
{ACAD_REACTORS
330
C
102
}
330
C
100
AcDbDictionary
281
     1
  3
Layout1
350
1E
  3
Layout2
350
26
  3
Model
350
22
  0
DICTIONARY
  5
43
102
{ACAD_REACTORS
330
C
102
}
330
C
100
AcDbDictionary
281
     1
  3
ByBlock
350
45
  3
ByLayer
350
44
  3
Global
350
46
  0
DICTIONARY
  5
6B
102
{ACAD_REACTORS
330
C
102
}
330
C
100
AcDbDictionary
281
     1
  3
Standard
350
6C
  0
DICTIONARY
  5
17
102
{ACAD_REACTORS
330
C
102
}
330
C
100
AcDbDictionary
281
     1
  3
Standard
350
18
  0
DICTIONARY
  5
19
102
{ACAD_REACTORS
330
C
102
}
330
C
100
AcDbDictionary
281
     1
  0
ACDBDICTIONARYWDFLT
  5
E
102
{ACAD_REACTORS
330
C
102
}
330
C
100
AcDbDictionary
281
     1
  3
Normal
350
F
100
AcDbDictionaryWithDefault
340
F
  0
DICTIONARY
  5
47
102
{ACAD_REACTORS
330
C
102
}
330
C
100
AcDbDictionary
281
     1
  3
A0
350
48
  3
A1
350
49
  3
A2
350
4A
  3
A3
350
4B
  3
A4
350
4C
  3
A5
350
4D
  3
A6
350
4E
  3
A7
350
4F
  3
A8
350
50
  3
A9
350
51
  3
B0
350
52
  3
B1
350
53
  3
B2
350
54
  3
B3
350
55
  3
B4
350
56
  3
B5
350
57
  3
B6
350
58
  3
B7
350
59
  3
B8
350
5A
  3
B9
350
5B
  3
C0
350
5C
  3
C1
350
5D
  3
C2
350
5E
  3
C3
350
5F
  3
C4
350
60
  3
C5
350
61
  3
C6
350
62
  3
C7
350
63
  3
C8
350
64
  3
C9
350
65
  3
D0
350
66
  3
D1
350
67
  3
D2
350
68
  0
DICTIONARY
  5
2D4
102
{ACAD_REACTORS
330
C
102
}
330
C
100
AcDbDictionary
281
     1
  0
DICTIONARY
  5
69
102
{ACAD_REACTORS
330
C
102
}
330
C
100
AcDbDictionary
281
     1
  3
Standard
350
6A
  0
DICTIONARY
  5
2A
102
{ACAD_REACTORS
330
C
102
}
330
C
100
AcDbDictionary
281
     1
  3
2dWireframe
350
2F
  3
Basic
350
32
  3
Brighten
350
36
  3
ColorChange
350
3A
  3
Conceptual
350
34
  3
Dim
350
35
  3
EdgeColorOff
350
3D
  3
Facepattern
350
39
  3
Flat
350
2B
  3
FlatWithEdges
350
2C
  3
Gouraud
350
2D
  3
GouraudWithEdges
350
2E
  3
Hidden
350
31
  3
JitterOff
350
3B
  3
Linepattern
350
38
  3
OverhangOff
350
3C
  3
Realistic
350
33
  3
Shaded
350
42
  3
Shaded with edges
350
41
  3
Shades of Gray
350
3E
  3
Sketchy
350
3F
  3
Thicken
350
37
  3
Wireframe
350
30
  3
X-Ray
350
40
  0
XRECORD
  5
2D0
102
{ACAD_REACTORS
330
C
102
}
330
C
100
AcDbXrecord
280
     1
 90
        1
330
6A
  0
DICTIONARY
  5
290
102
{ACAD_REACTORS
330
C
102
}
330
C
100
AcDbDictionary
281
     1
  3
CANNOSCALE
350
291
  3
CMLEADERSTYLE
350
2D2
  3
CTABLESTYLE
350
2D1
  3
MSLTSCALE
350
292
  3
XCLIPFRAME
350
293
  0
XRECORD
  5
28F
102
{ACAD_REACTORS
330
28E
102
}
330
28E
100
AcDbXrecord
280
     1
102
VTR_0.000_0.000_1.000_1.000_GRIDDISPLAY
 70
     3
102
VTR_0.000_0.000_1.000_1.000_GRIDMAJOR
 70
     5
102
VTR_0.000_0.000_1.000_1.000_DEFAULTLIGHTING
280
     1
102
VTR_0.000_0.000_1.000_1.000_DEFAULTLIGHTINGTYPE
 70
     1
102
VTR_0.000_0.000_1.000_1.000_BRIGHTNESS
141
0.0
102
VTR_0.000_0.000_1.000_1.000_CONTRAST
142
0.0
  0
LAYOUT
  5
1E
102
{ACAD_REACTORS
330
1A
102
}
330
1A
100
AcDbPlotSettings
  1

  2
none_device
  4

  6

 40
0.0
 41
0.0
 42
0.0
 43
0.0
 44
0.0
 45
0.0
 46
0.0
 47
0.0
 48
0.0
 49
0.0
140
0.0
141
0.0
142
1.0
143
1.0
 70
   688
 72
     0
 73
     0
 74
     5
  7

 75
    16
 76
     0
 77
     2
 78
   300
147
1.0
148
0.0
149
0.0
100
AcDbLayout
  1
Layout1
 70
     1
 71
     1
 10
0.0
 20
0.0
 11
12.0
 21
9.0
 12
0.0
 22
0.0
 32
0.0
 14
1.000000000000000E+20
 24
1.000000000000000E+20
 34
1.000000000000000E+20
 15
-1.000000000000000E+20
 25
-1.000000000000000E+20
 35
-1.000000000000000E+20
146
0.0
 13
0.0
 23
0.0
 33
0.0
 16
1.0
 26
0.0
 36
0.0
 17
0.0
 27
1.0
 37
0.0
 76
     0
330
1B
  0
LAYOUT
  5
26
102
{ACAD_REACTORS
330
1A
102
}
330
1A
100
AcDbPlotSettings
  1

  2
none_device
  4

  6

 40
0.0
 41
0.0
 42
0.0
 43
0.0
 44
0.0
 45
0.0
 46
0.0
 47
0.0
 48
0.0
 49
0.0
140
0.0
141
0.0
142
1.0
143
1.0
 70
   688
 72
     0
 73
     0
 74
     5
  7

 75
    16
 76
     0
 77
     2
 78
   300
147
1.0
148
0.0
149
0.0
100
AcDbLayout
  1
Layout2
 70
     1
 71
     2
 10
0.0
 20
0.0
 11
0.0
 21
0.0
 12
0.0
 22
0.0
 32
0.0
 14
0.0
 24
0.0
 34
0.0
 15
0.0
 25
0.0
 35
0.0
146
0.0
 13
0.0
 23
0.0
 33
0.0
 16
1.0
 26
0.0
 36
0.0
 17
0.0
 27
1.0
 37
0.0
 76
     0
330
23
  0
LAYOUT
  5
22
102
{ACAD_REACTORS
330
1A
102
}
330
1A
100
AcDbPlotSettings
  1

  2
none_device
  4
Letter_(8.50_x_11.00_Inches)
  6

 40
6.35
 41
6.35
 42
6.35000508
 43
6.35000508
 44
215.9
 45
279.4
 46
0.0
 47
0.0
 48
0.0
 49
0.0
140
0.0
141
0.0
142
1.0
143
1.0
 70
  1712
 72
     0
 73
     0
 74
     0
  7

 75
     0
 76
     0
 77
     2
 78
   300
147
1.0
148
0.0
149
0.0
100
AcDbLayout
  1
Model
 70
     1
 71
     0
 10
0.0
 20
0.0
 11
12.0
 21
9.0
 12
0.0
 22
0.0
 32
0.0
 14
0.6426056300498517
 24
-20.99999999999999
 34
19.18209472552186
 15
48.64260563005051
 25
12.99999999999999
 35
44.18209472552187
146
0.0
 13
0.0
 23
0.0
 33
0.0
 16
1.0
 26
0.0
 36
0.0
 17
0.0
 27
1.0
 37
0.0
 76
     0
330
1F
331
29
  0
MATERIAL
  5
45
102
{ACAD_REACTORS
330
43
102
}
102
{ACAD_XDICTIONARY
360
2C6
102
}
330
43
100
AcDbMaterial
  1
ByBlock
  0
MATERIAL
  5
44
102
{ACAD_REACTORS
330
43
102
}
102
{ACAD_XDICTIONARY
360
2C4
102
}
330
43
100
AcDbMaterial
  1
ByLayer
  0
MATERIAL
  5
46
102
{ACAD_REACTORS
330
43
102
}
102
{ACAD_XDICTIONARY
360
2C8
102
}
330
43
100
AcDbMaterial
  1
Global
  0
MLEADERSTYLE
  5
6C
102
{ACAD_REACTORS
330
6B
102
}
102
{ACAD_XDICTIONARY
360
2CE
102
}
330
6B
100
AcDbMLeaderStyle
170
     2
171
     1
172
     0
 90
        2
 40
0.0
 41
0.0
173
     1
 91
-1056964608
340
14
 92
       -2
290
     1
 42
0.09
291
     1
 43
0.36
  3
Standard
341
0
 44
0.18
300

342
11
174
     1
178
     6
175
     1
176
     0
 93
-1056964608
 45
0.18
292
     0
297
     0
 46
0.18
343
0
 94
-1056964608
 47
1.0
 49
1.0
140
1.0
293
     1
141
0.0
294
     1
177
     0
142
1.0
295
     0
296
     0
143
0.125
1001
ACAD_MLEADERVER
1070
     2
  0
MLINESTYLE
  5
18
102
{ACAD_REACTORS
330
17
102
}
330
17
100
AcDbMlineStyle
  2
Standard
 70
     0
  3

 62
   256
 51
90.0
 52
90.0
 71
     2
 49
0.5
 62
   256
  6
BYLAYER
 49
-0.5
 62
   256
  6
BYLAYER
  0
ACDBPLACEHOLDER
  5
F
102
{ACAD_REACTORS
330
E
102
}
330
E
  0
SCALE
  5
48
102
{ACAD_REACTORS
330
47
102
}
330
47
100
AcDbScale
 70
     0
300
1:1
140
1.0
141
1.0
290
     1
  0
SCALE
  5
49
102
{ACAD_REACTORS
330
47
102
}
330
47
100
AcDbScale
 70
     0
300
1:2
140
1.0
141
2.0
290
     0
  0
SCALE
  5
4A
102
{ACAD_REACTORS
330
47
102
}
330
47
100
AcDbScale
 70
     0
300
1:4
140
1.0
141
4.0
290
     0
  0
SCALE
  5
4B
102
{ACAD_REACTORS
330
47
102
}
330
47
100
AcDbScale
 70
     0
300
1:5
140
1.0
141
5.0
290
     0
  0
SCALE
  5
4C
102
{ACAD_REACTORS
330
47
102
}
330
47
100
AcDbScale
 70
     0
300
1:8
140
1.0
141
8.0
290
     0
  0
SCALE
  5
4D
102
{ACAD_REACTORS
330
47
102
}
330
47
100
AcDbScale
 70
     0
300
1:10
140
1.0
141
10.0
290
     0
  0
SCALE
  5
4E
102
{ACAD_REACTORS
330
47
102
}
330
47
100
AcDbScale
 70
     0
300
1:16
140
1.0
141
16.0
290
     0
  0
SCALE
  5
4F
102
{ACAD_REACTORS
330
47
102
}
330
47
100
AcDbScale
 70
     0
300
1:20
140
1.0
141
20.0
290
     0
  0
SCALE
  5
50
102
{ACAD_REACTORS
330
47
102
}
330
47
100
AcDbScale
 70
     0
300
1:30
140
1.0
141
30.0
290
     0
  0
SCALE
  5
51
102
{ACAD_REACTORS
330
47
102
}
330
47
100
AcDbScale
 70
     0
300
1:40
140
1.0
141
40.0
290
     0
  0
SCALE
  5
52
102
{ACAD_REACTORS
330
47
102
}
330
47
100
AcDbScale
 70
     0
300
1:50
140
1.0
141
50.0
290
     0
  0
SCALE
  5
53
102
{ACAD_REACTORS
330
47
102
}
330
47
100
AcDbScale
 70
     0
300
1:100
140
1.0
141
100.0
290
     0
  0
SCALE
  5
54
102
{ACAD_REACTORS
330
47
102
}
330
47
100
AcDbScale
 70
     0
300
2:1
140
2.0
141
1.0
290
     0
  0
SCALE
  5
55
102
{ACAD_REACTORS
330
47
102
}
330
47
100
AcDbScale
 70
     0
300
4:1
140
4.0
141
1.0
290
     0
  0
SCALE
  5
56
102
{ACAD_REACTORS
330
47
102
}
330
47
100
AcDbScale
 70
     0
300
8:1
140
8.0
141
1.0
290
     0
  0
SCALE
  5
57
102
{ACAD_REACTORS
330
47
102
}
330
47
100
AcDbScale
 70
     0
300
10:1
140
10.0
141
1.0
290
     0
  0
SCALE
  5
58
102
{ACAD_REACTORS
330
47
102
}
330
47
100
AcDbScale
 70
     0
300
100:1
140
100.0
141
1.0
290
     0
  0
SCALE
  5
59
102
{ACAD_REACTORS
330
47
102
}
330
47
100
AcDbScale
 70
     0
300
1/128" = 1'-0"
140
0.0078125
141
12.0
290
     0
  0
SCALE
  5
5A
102
{ACAD_REACTORS
330
47
102
}
330
47
100
AcDbScale
 70
     0
300
1/64" = 1'-0"
140
0.015625
141
12.0
290
     0
  0
SCALE
  5
5B
102
{ACAD_REACTORS
330
47
102
}
330
47
100
AcDbScale
 70
     0
300
1/32" = 1'-0"
140
0.03125
141
12.0
290
     0
  0
SCALE
  5
5C
102
{ACAD_REACTORS
330
47
102
}
330
47
100
AcDbScale
 70
     0
300
1/16" = 1'-0"
140
0.0625
141
12.0
290
     0
  0
SCALE
  5
5D
102
{ACAD_REACTORS
330
47
102
}
330
47
100
AcDbScale
 70
     0
300
3/32" = 1'-0"
140
0.09375
141
12.0
290
     0
  0
SCALE
  5
5E
102
{ACAD_REACTORS
330
47
102
}
330
47
100
AcDbScale
 70
     0
300
1/8" = 1'-0"
140
0.125
141
12.0
290
     0
  0
SCALE
  5
5F
102
{ACAD_REACTORS
330
47
102
}
330
47
100
AcDbScale
 70
     0
300
3/16" = 1'-0"
140
0.1875
141
12.0
290
     0
  0
SCALE
  5
60
102
{ACAD_REACTORS
330
47
102
}
330
47
100
AcDbScale
 70
     0
300
1/4" = 1'-0"
140
0.25
141
12.0
290
     0
  0
SCALE
  5
61
102
{ACAD_REACTORS
330
47
102
}
330
47
100
AcDbScale
 70
     0
300
3/8" = 1'-0"
140
0.375
141
12.0
290
     0
  0
SCALE
  5
62
102
{ACAD_REACTORS
330
47
102
}
330
47
100
AcDbScale
 70
     0
300
1/2" = 1'-0"
140
0.5
141
12.0
290
     0
  0
SCALE
  5
63
102
{ACAD_REACTORS
330
47
102
}
330
47
100
AcDbScale
 70
     0
300
3/4" = 1'-0"
140
0.75
141
12.0
290
     0
  0
SCALE
  5
64
102
{ACAD_REACTORS
330
47
102
}
330
47
100
AcDbScale
 70
     0
300
1" = 1'-0"
140
1.0
141
12.0
290
     0
  0
SCALE
  5
65
102
{ACAD_REACTORS
330
47
102
}
330
47
100
AcDbScale
 70
     0
300
1-1/2" = 1'-0"
140
1.5
141
12.0
290
     0
  0
SCALE
  5
66
102
{ACAD_REACTORS
330
47
102
}
330
47
100
AcDbScale
 70
     0
300
3" = 1'-0"
140
3.0
141
12.0
290
     0
  0
SCALE
  5
67
102
{ACAD_REACTORS
330
47
102
}
330
47
100
AcDbScale
 70
     0
300
6" = 1'-0"
140
6.0
141
12.0
290
     0
  0
SCALE
  5
68
102
{ACAD_REACTORS
330
47
102
}
330
47
100
AcDbScale
 70
     0
300
1'-0" = 1'-0"
140
12.0
141
12.0
290
     0
  0
TABLESTYLE
  5
6A
102
{ACAD_REACTORS
330
69
102
}
102
{ACAD_XDICTIONARY
360
2CA
102
}
330
69
100
AcDbTableStyle
  3
Standard
 70
     0
 71
     0
 40
0.06
 41
0.06
280
     0
281
     0
  7
Standard
140
0.18
170
     2
 62
     0
 63
   257
283
     0
274
    -2
284
     1
 64
     0
275
    -2
285
     1
 65
     0
276
    -2
286
     1
 66
     0
277
    -2
287
     1
 67
     0
278
    -2
288
     1
 68
     0
279
    -2
289
     1
 69
     0
  7
Standard
140
0.25
170
     5
 62
     0
 63
   257
283
     0
274
    -2
284
     1
 64
     0
275
    -2
285
     1
 65
     0
276
    -2
286
     1
 66
     0
277
    -2
287
     1
 67
     0
278
    -2
288
     1
 68
     0
279
    -2
289
     1
 69
     0
  7
Standard
140
0.18
170
     5
 62
     0
 63
   257
283
     0
274
    -2
284
     1
 64
     0
275
    -2
285
     1
 65
     0
276
    -2
286
     1
 66
     0
277
    -2
287
     1
 67
     0
278
    -2
288
     1
 68
     0
279
    -2
289
     1
 69
     0
  0
VISUALSTYLE
  5
2F
102
{ACAD_REACTORS
330
2A
102
}
102
{ACAD_XDICTIONARY
360
29C
102
}
330
2A
100
AcDbVisualStyle
  2
2dWireframe
 70
     4
 71
     0
 72
     2
 73
     0
 90
        0
 40
0.6
 41
30.0
 62
     5
 63
     7
421
 16777215
 74
     1
 91
        4
 64
     7
 65
   257
 75
     1
175
     1
 42
1.0
 92
        0
 66
   257
 43
1.0
 76
     1
 77
     6
 78
     2
 67
     7
 79
     5
170
     0
171
     0
290
     0
174
     0
 93
        1
 44
0.0
173
     0
291
     0
 45
0.0
1001
ACAD
1000
AcDbSavedByObjectVersion
1070
     0
  0
VISUALSTYLE
  5
32
102
{ACAD_REACTORS
330
2A
102
}
102
{ACAD_XDICTIONARY
360
2A2
102
}
330
2A
100
AcDbVisualStyle
  2
Basic
 70
     7
 71
     1
 72
     0
 73
     1
 90
        0
 40
0.6
 41
30.0
 62
     5
 63
     7
421
 16777215
 74
     0
 91
        4
 64
     7
 65
   257
 75
     1
175
     1
 42
1.0
 92
        8
 66
     7
 43
1.0
 76
     1
 77
     6
 78
     2
 67
     7
 79
     5
170
     0
171
     0
290
     0
174
     0
 93
        1
 44
0.0
173
     0
291
     1
 45
0.0
1001
ACAD
1000
AcDbSavedByObjectVersion
1070
     0
  0
VISUALSTYLE
  5
36
102
{ACAD_REACTORS
330
2A
102
}
102
{ACAD_XDICTIONARY
360
2AA
102
}
330
2A
100
AcDbVisualStyle
  2
Brighten
 70
    12
 71
     2
 72
     2
 73
     0
 90
        0
 40
0.6
 41
30.0
 62
     5
 63
     7
421
 16777215
 74
     1
 91
        4
 64
     7
 65
   257
 75
     1
175
     1
 42
1.0
 92
        8
 66
     7
 43
1.0
 76
     1
 77
     6
 78
     2
 67
     7
 79
     5
170
     0
171
     0
290
     0
174
     0
 93
        1
 44
50.0
173
     0
291
     1
 45
0.0
1001
ACAD
1000
AcDbSavedByObjectVersion
1070
     0
  0
VISUALSTYLE
  5
3A
102
{ACAD_REACTORS
330
2A
102
}
102
{ACAD_XDICTIONARY
360
2B2
102
}
330
2A
100
AcDbVisualStyle
  2
ColorChange
 70
    16
 71
     2
 72
     2
 73
     3
 90
        0
 40
0.6
 41
30.0
 62
     5
 63
     8
421
  8421504
 74
     1
 91
        4
 64
     7
 65
   257
 75
     1
175
     1
 42
1.0
 92
        8
 66
     8
424
  8421504
 43
1.0
 76
     1
 77
     6
 78
     2
 67
     7
 79
     5
170
     0
171
     0
290
     0
174
     0
 93
        1
 44
0.0
173
     0
291
     1
 45
0.0
1001
ACAD
1000
AcDbSavedByObjectVersion
1070
     0
  0
VISUALSTYLE
  5
34
102
{ACAD_REACTORS
330
2A
102
}
102
{ACAD_XDICTIONARY
360
2A6
102
}
330
2A
100
AcDbVisualStyle
  2
Conceptual
 70
     9
 71
     3
 72
     2
 73
     0
 90
        0
 40
0.6
 41
30.0
 62
     5
 63
     7
421
 16777215
 74
     2
 91
        2
 64
     7
 65
   257
 75
     1
175
     1
 42
179.0
 92
        8
 66
     7
 43
1.0
 76
     1
 77
     6
 78
     2
 67
     7
 79
     3
170
     0
171
     0
290
     0
174
     0
 93
        1
 44
0.0
173
     0
291
     0
 45
0.0
1001
ACAD
1000
AcDbSavedByObjectVersion
1070
     0
  0
VISUALSTYLE
  5
35
102
{ACAD_REACTORS
330
2A
102
}
102
{ACAD_XDICTIONARY
360
2A8
102
}
330
2A
100
AcDbVisualStyle
  2
Dim
 70
    11
 71
     2
 72
     2
 73
     0
 90
        0
 40
0.6
 41
30.0
 62
     5
 63
     7
421
 16777215
 74
     1
 91
        4
 64
     7
 65
   257
 75
     1
175
     1
 42
1.0
 92
        8
 66
     7
 43
1.0
 76
     1
 77
     6
 78
     2
 67
     7
 79
     5
170
     0
171
     0
290
     0
174
     0
 93
        1
 44
-50.0
173
     0
291
     1
 45
0.0
1001
ACAD
1000
AcDbSavedByObjectVersion
1070
     0
  0
VISUALSTYLE
  5
3D
102
{ACAD_REACTORS
330
2A
102
}
102
{ACAD_XDICTIONARY
360
2B8
102
}
330
2A
100
AcDbVisualStyle
  2
EdgeColorOff
 70
    22
 71
     2
 72
     2
 73
     0
 90
        0
 40
0.6
 41
30.0
 62
     5
 63
     7
421
 16777215
 74
     1
 91
        4
 64
     7
 65
   257
 75
     1
175
     1
 42
1.0
 92
        8
 66
     7
 43
1.0
 76
     1
 77
     6
 78
     2
 67
     7
 79
     5
170
     0
171
     0
290
     0
174
     0
 93
        1
 44
0.0
173
     0
291
     1
 45
0.0
1001
ACAD
1000
AcDbSavedByObjectVersion
1070
     0
  0
VISUALSTYLE
  5
39
102
{ACAD_REACTORS
330
2A
102
}
102
{ACAD_XDICTIONARY
360
2B0
102
}
330
2A
100
AcDbVisualStyle
  2
Facepattern
 70
    15
 71
     2
 72
     2
 73
     0
 90
        0
 40
0.6
 41
30.0
 62
     5
 63
     7
421
 16777215
 74
     1
 91
        4
 64
     7
 65
   257
 75
     1
175
     1
 42
1.0
 92
        8
 66
     7
 43
1.0
 76
     1
 77
     6
 78
     2
 67
     7
 79
     5
170
     0
171
     0
290
     0
174
     0
 93
        1
 44
0.0
173
     0
291
     1
 45
0.0
1001
ACAD
1000
AcDbSavedByObjectVersion
1070
     0
  0
VISUALSTYLE
  5
2B
102
{ACAD_REACTORS
330
2A
102
}
102
{ACAD_XDICTIONARY
360
294
102
}
330
2A
100
AcDbVisualStyle
  2
Flat
 70
     0
 71
     2
 72
     1
 73
     1
 90
        2
 40
0.6
 41
30.0
 62
     5
 63
     7
421
 16777215
 74
     0
 91
        0
 64
     7
 65
   257
 75
     1
175
     1
 42
1.0
 92
        8
 66
     7
 43
1.0
 76
     1
 77
     6
 78
     2
 67
     7
 79
     5
170
     0
171
     0
290
     0
174
     0
 93
       13
 44
0.0
173
     0
291
     1
 45
0.0
1001
ACAD
1000
AcDbSavedByObjectVersion
1070
     0
  0
VISUALSTYLE
  5
2C
102
{ACAD_REACTORS
330
2A
102
}
102
{ACAD_XDICTIONARY
360
296
102
}
330
2A
100
AcDbVisualStyle
  2
FlatWithEdges
 70
     1
 71
     2
 72
     1
 73
     1
 90
        2
 40
0.6
 41
30.0
 62
     5
 63
     7
421
 16777215
 74
     1
 91
        0
 64
     7
 65
   257
 75
     1
175
     1
 42
1.0
 92
        0
 66
   257
 43
1.0
 76
     1
 77
     6
 78
     2
 67
     7
 79
     5
170
     0
171
     0
290
     0
174
     0
 93
       13
 44
0.0
173
     0
291
     1
 45
0.0
1001
ACAD
1000
AcDbSavedByObjectVersion
1070
     0
  0
VISUALSTYLE
  5
2D
102
{ACAD_REACTORS
330
2A
102
}
102
{ACAD_XDICTIONARY
360
298
102
}
330
2A
100
AcDbVisualStyle
  2
Gouraud
 70
     2
 71
     2
 72
     2
 73
     1
 90
        2
 40
0.6
 41
30.0
 62
     5
 63
     7
421
 16777215
 74
     0
 91
        0
 64
     7
 65
   257
 75
     1
175
     1
 42
1.0
 92
        0
 66
     7
 43
1.0
 76
     1
 77
     6
 78
     2
 67
     7
 79
     5
170
     0
171
     0
290
     0
174
     0
 93
       13
 44
0.0
173
     0
291
     1
 45
0.0
1001
ACAD
1000
AcDbSavedByObjectVersion
1070
     0
  0
VISUALSTYLE
  5
2E
102
{ACAD_REACTORS
330
2A
102
}
102
{ACAD_XDICTIONARY
360
29A
102
}
330
2A
100
AcDbVisualStyle
  2
GouraudWithEdges
 70
     3
 71
     2
 72
     2
 73
     1
 90
        2
 40
0.6
 41
30.0
 62
     5
 63
     7
421
 16777215
 74
     1
 91
        0
 64
     7
 65
   257
 75
     1
175
     1
 42
1.0
 92
        0
 66
   257
 43
1.0
 76
     1
 77
     6
 78
     2
 67
     7
 79
     5
170
     0
171
     0
290
     0
174
     0
 93
       13
 44
0.0
173
     0
291
     1
 45
0.0
1001
ACAD
1000
AcDbSavedByObjectVersion
1070
     0
  0
VISUALSTYLE
  5
31
102
{ACAD_REACTORS
330
2A
102
}
102
{ACAD_XDICTIONARY
360
2A0
102
}
330
2A
100
AcDbVisualStyle
  2
Hidden
 70
     6
 71
     1
 72
     2
 73
     2
 90
        0
 40
0.6
 41
30.0
 62
     5
 63
     7
421
 16777215
 74
     2
 91
        2
 64
     7
 65
   257
 75
     2
175
     1
 42
40.0
 92
        0
 66
   257
 43
1.0
 76
     1
 77
     6
 78
     2
 67
     7
 79
     3
170
     0
171
     0
290
     0
174
     0
 93
        1
 44
0.0
173
     0
291
     0
 45
0.0
1001
ACAD
1000
AcDbSavedByObjectVersion
1070
     0
  0
VISUALSTYLE
  5
3B
102
{ACAD_REACTORS
330
2A
102
}
102
{ACAD_XDICTIONARY
360
2B4
102
}
330
2A
100
AcDbVisualStyle
  2
JitterOff
 70
    20
 71
     2
 72
     2
 73
     0
 90
        0
 40
0.6
 41
30.0
 62
     5
 63
     7
421
 16777215
 74
     1
 91
        4
 64
     7
 65
   257
 75
     1
175
     1
 42
1.0
 92
       10
 66
     7
 43
1.0
 76
     1
 77
     6
 78
     2
 67
     7
 79
     5
170
     0
171
     0
290
     0
174
     0
 93
        1
 44
0.0
173
     0
291
     1
 45
0.0
1001
ACAD
1000
AcDbSavedByObjectVersion
1070
     0
  0
VISUALSTYLE
  5
38
102
{ACAD_REACTORS
330
2A
102
}
102
{ACAD_XDICTIONARY
360
2AE
102
}
330
2A
100
AcDbVisualStyle
  2
Linepattern
 70
    14
 71
     2
 72
     2
 73
     0
 90
        0
 40
0.6
 41
30.0
 62
     5
 63
     7
421
 16777215
 74
     1
 91
        4
 64
     7
 65
   257
 75
     7
175
     7
 42
1.0
 92
        8
 66
     7
 43
1.0
 76
     1
 77
     6
 78
     2
 67
     7
 79
     5
170
     0
171
     0
290
     0
174
     0
 93
        1
 44
0.0
173
     0
291
     1
 45
0.0
1001
ACAD
1000
AcDbSavedByObjectVersion
1070
     0
  0
VISUALSTYLE
  5
3C
102
{ACAD_REACTORS
330
2A
102
}
102
{ACAD_XDICTIONARY
360
2B6
102
}
330
2A
100
AcDbVisualStyle
  2
OverhangOff
 70
    21
 71
     2
 72
     2
 73
     0
 90
        0
 40
0.6
 41
30.0
 62
     5
 63
     7
421
 16777215
 74
     1
 91
        4
 64
     7
 65
   257
 75
     1
175
     1
 42
1.0
 92
        9
 66
     7
 43
1.0
 76
     1
 77
     6
 78
     2
 67
     7
 79
     5
170
     0
171
     0
290
     0
174
     0
 93
        1
 44
0.0
173
     0
291
     1
 45
0.0
1001
ACAD
1000
AcDbSavedByObjectVersion
1070
     0
  0
VISUALSTYLE
  5
33
102
{ACAD_REACTORS
330
2A
102
}
102
{ACAD_XDICTIONARY
360
2A4
102
}
330
2A
100
AcDbVisualStyle
  2
Realistic
 70
     8
 71
     2
 72
     3
 73
     0
 90
        2
 40
0.6
 41
30.0
 62
     5
 63
     7
421
 16777215
 74
     0
 91
        0
 64
     7
 65
   257
 75
     1
175
     1
 42
1.0
 92
        8
 66
   257
 43
1.0
 76
     1
 77
     6
 78
     2
 67
     7
 79
     3
170
     0
171
     0
290
     0
174
     0
 93
       13
 44
0.0
173
     0
291
     0
 45
0.0
1001
ACAD
1000
AcDbSavedByObjectVersion
1070
     0
  0
VISUALSTYLE
  5
42
102
{ACAD_REACTORS
330
2A
102
}
102
{ACAD_XDICTIONARY
360
2C2
102
}
330
2A
100
AcDbVisualStyle
  2
Shaded
 70
    27
 71
     2
 72
     2
 73
     1
 90
        2
 40
0.6
 41
30.0
 62
     5
 63
     7
421
 16777215
 74
     0
 91
        4
 64
     7
 65
   257
 75
     1
175
     1
 42
1.0
 92
        8
 66
   257
 43
1.0
 76
     1
 77
     6
 78
     2
 67
     8
425
  7895160
 79
     3
170
     0
171
     0
290
     0
174
     0
 93
        5
 44
0.0
173
     0
291
     0
 45
0.0
1001
ACAD
1000
AcDbSavedByObjectVersion
1070
     0
  0
VISUALSTYLE
  5
41
102
{ACAD_REACTORS
330
2A
102
}
102
{ACAD_XDICTIONARY
360
2C0
102
}
330
2A
100
AcDbVisualStyle
  2
Shaded with edges
 70
    26
 71
     2
 72
     2
 73
     1
 90
        2
 40
0.6
 41
30.0
 62
     5
 63
     7
421
 16777215
 74
     1
 91
       10
 64
     7
 65
   257
 75
     2
175
     1
 42
1.0
 92
        8
 66
   257
 43
1.0
 76
     1
 77
     6
 78
     2
 67
     7
 79
     3
170
     0
171
     0
290
     0
174
     0
 93
        5
 44
0.0
173
     0
291
     0
 45
0.0
1001
ACAD
1000
AcDbSavedByObjectVersion
1070
     0
  0
VISUALSTYLE
  5
3E
102
{ACAD_REACTORS
330
2A
102
}
102
{ACAD_XDICTIONARY
360
2BA
102
}
330
2A
100
AcDbVisualStyle
  2
Shades of Gray
 70
    23
 71
     2
 72
     2
 73
     3
 90
        0
 40
0.6
 41
30.0
 62
     5
 63
     7
421
 16777215
 74
     2
 91
        2
 64
     7
 65
     7
 75
     1
175
     1
 42
40.0
 92
        8
 66
     7
 43
1.0
 76
     1
 77
     6
 78
     2
 67
     7
 79
     3
170
     0
171
     0
290
     0
174
     0
 93
        1
 44
0.0
173
     0
291
     0
 45
0.0
1001
ACAD
1000
AcDbSavedByObjectVersion
1070
     0
  0
VISUALSTYLE
  5
3F
102
{ACAD_REACTORS
330
2A
102
}
102
{ACAD_XDICTIONARY
360
2BC
102
}
330
2A
100
AcDbVisualStyle
  2
Sketchy
 70
    24
 71
     1
 72
     2
 73
     2
 90
        0
 40
0.6
 41
30.0
 62
     5
 63
     7
421
 16777215
 74
     2
 91
        2
 64
     7
 65
     7
 75
     1
175
     1
 42
40.0
 92
       11
 66
     7
 43
1.0
 76
     1
 77
     6
 78
     2
 67
     7
 79
     6
170
     0
171
     0
290
     0
174
     0
 93
        1
 44
0.0
173
     0
291
     0
 45
0.0
1001
ACAD
1000
AcDbSavedByObjectVersion
1070
     0
  0
VISUALSTYLE
  5
37
102
{ACAD_REACTORS
330
2A
102
}
102
{ACAD_XDICTIONARY
360
2AC
102
}
330
2A
100
AcDbVisualStyle
  2
Thicken
 70
    13
 71
     2
 72
     2
 73
     0
 90
        0
 40
0.6
 41
30.0
 62
     5
 63
     7
421
 16777215
 74
     1
 91
        4
 64
     7
 65
   257
 75
     1
175
     1
 42
1.0
 92
       12
 66
     7
 43
1.0
 76
     1
 77
     6
 78
     2
 67
     7
 79
     5
170
     0
171
     0
290
     0
174
     0
 93
        1
 44
0.0
173
     0
291
     1
 45
0.0
1001
ACAD
1000
AcDbSavedByObjectVersion
1070
     0
  0
VISUALSTYLE
  5
30
102
{ACAD_REACTORS
330
2A
102
}
102
{ACAD_XDICTIONARY
360
29E
102
}
330
2A
100
AcDbVisualStyle
  2
Wireframe
 70
     5
 71
     0
 72
     2
 73
     0
 90
        0
 40
0.6
 41
30.0
 62
     5
 63
     7
421
 16777215
 74
     1
 91
        4
 64
     7
 65
   257
 75
     1
175
     1
 42
1.0
 92
        0
 66
   257
 43
1.0
 76
     1
 77
     6
 78
     2
 67
     7
 79
     3
170
     0
171
     0
290
     0
174
     0
 93
        1
 44
0.0
173
     0
291
     0
 45
0.0
1001
ACAD
1000
AcDbSavedByObjectVersion
1070
     0
  0
VISUALSTYLE
  5
40
102
{ACAD_REACTORS
330
2A
102
}
102
{ACAD_XDICTIONARY
360
2BE
102
}
330
2A
100
AcDbVisualStyle
  2
X-Ray
 70
    25
 71
     2
 72
     2
 73
     1
 90
        1
 40
0.5
 41
30.0
 62
     5
 63
     7
421
 16777215
 74
     1
 91
        0
 64
     7
 65
   257
 75
     1
175
     1
 42
1.0
 92
        8
 66
     7
 43
1.0
 76
     1
 77
     6
 78
     2
 67
     7
 79
     3
170
     0
171
     0
290
     0
174
     0
 93
       13
 44
0.0
173
     0
291
     0
 45
0.0
1001
ACAD
1000
AcDbSavedByObjectVersion
1070
     0
  0
DICTIONARYVAR
  5
291
102
{ACAD_REACTORS
330
290
102
}
330
290
100
DictionaryVariables
280
     0
  1
1:1
  0
DICTIONARYVAR
  5
2D2
102
{ACAD_REACTORS
330
290
102
}
330
290
100
DictionaryVariables
280
     0
  1
Standard
  0
DICTIONARYVAR
  5
2D1
102
{ACAD_REACTORS
330
290
102
}
330
290
100
DictionaryVariables
280
     0
  1
Standard
  0
DICTIONARYVAR
  5
292
102
{ACAD_REACTORS
330
290
102
}
330
290
100
DictionaryVariables
280
     0
  1
1
  0
DICTIONARYVAR
  5
293
102
{ACAD_REACTORS
330
290
102
}
330
290
100
DictionaryVariables
280
     0
  1
2
  0
DICTIONARY
  5
2C6
330
45
100
AcDbDictionary
280
     1
281
     1
  3
ACAD_XREC_ROUNDTRIP
360
2C7
  0
DICTIONARY
  5
2C4
330
44
100
AcDbDictionary
280
     1
281
     1
  3
ACAD_XREC_ROUNDTRIP
360
2C5
  0
DICTIONARY
  5
2C8
330
46
100
AcDbDictionary
280
     1
281
     1
  3
ACAD_XREC_ROUNDTRIP
360
2C9
  0
DICTIONARY
  5
2CE
330
6C
100
AcDbDictionary
280
     1
281
     1
  3
ACAD_XREC_ROUNDTRIP
360
2CF
  0
DICTIONARY
  5
2CA
330
6A
100
AcDbDictionary
280
     1
281
     1
  3
ACAD_ROUNDTRIP_2008_TABLESTYLE_CELLSTYLEMAP
360
2CC
  3
ACAD_XREC_ROUNDTRIP
360
2CB
  0
DICTIONARY
  5
29C
330
2F
100
AcDbDictionary
280
     1
281
     1
  3
ACAD_XREC_ROUNDTRIP
360
29D
  0
DICTIONARY
  5
2A2
330
32
100
AcDbDictionary
280
     1
281
     1
  3
ACAD_XREC_ROUNDTRIP
360
2A3
  0
DICTIONARY
  5
2AA
330
36
100
AcDbDictionary
280
     1
281
     1
  3
ACAD_XREC_ROUNDTRIP
360
2AB
  0
DICTIONARY
  5
2B2
330
3A
100
AcDbDictionary
280
     1
281
     1
  3
ACAD_XREC_ROUNDTRIP
360
2B3
  0
DICTIONARY
  5
2A6
330
34
100
AcDbDictionary
280
     1
281
     1
  3
ACAD_XREC_ROUNDTRIP
360
2A7
  0
DICTIONARY
  5
2A8
330
35
100
AcDbDictionary
280
     1
281
     1
  3
ACAD_XREC_ROUNDTRIP
360
2A9
  0
DICTIONARY
  5
2B8
330
3D
100
AcDbDictionary
280
     1
281
     1
  3
ACAD_XREC_ROUNDTRIP
360
2B9
  0
DICTIONARY
  5
2B0
330
39
100
AcDbDictionary
280
     1
281
     1
  3
ACAD_XREC_ROUNDTRIP
360
2B1
  0
DICTIONARY
  5
294
330
2B
100
AcDbDictionary
280
     1
281
     1
  3
ACAD_XREC_ROUNDTRIP
360
295
  0
DICTIONARY
  5
296
330
2C
100
AcDbDictionary
280
     1
281
     1
  3
ACAD_XREC_ROUNDTRIP
360
297
  0
DICTIONARY
  5
298
330
2D
100
AcDbDictionary
280
     1
281
     1
  3
ACAD_XREC_ROUNDTRIP
360
299
  0
DICTIONARY
  5
29A
330
2E
100
AcDbDictionary
280
     1
281
     1
  3
ACAD_XREC_ROUNDTRIP
360
29B
  0
DICTIONARY
  5
2A0
330
31
100
AcDbDictionary
280
     1
281
     1
  3
ACAD_XREC_ROUNDTRIP
360
2A1
  0
DICTIONARY
  5
2B4
330
3B
100
AcDbDictionary
280
     1
281
     1
  3
ACAD_XREC_ROUNDTRIP
360
2B5
  0
DICTIONARY
  5
2AE
330
38
100
AcDbDictionary
280
     1
281
     1
  3
ACAD_XREC_ROUNDTRIP
360
2AF
  0
DICTIONARY
  5
2B6
330
3C
100
AcDbDictionary
280
     1
281
     1
  3
ACAD_XREC_ROUNDTRIP
360
2B7
  0
DICTIONARY
  5
2A4
330
33
100
AcDbDictionary
280
     1
281
     1
  3
ACAD_XREC_ROUNDTRIP
360
2A5
  0
DICTIONARY
  5
2C2
330
42
100
AcDbDictionary
280
     1
281
     1
  3
ACAD_XREC_ROUNDTRIP
360
2C3
  0
DICTIONARY
  5
2C0
330
41
100
AcDbDictionary
280
     1
281
     1
  3
ACAD_XREC_ROUNDTRIP
360
2C1
  0
DICTIONARY
  5
2BA
330
3E
100
AcDbDictionary
280
     1
281
     1
  3
ACAD_XREC_ROUNDTRIP
360
2BB
  0
DICTIONARY
  5
2BC
330
3F
100
AcDbDictionary
280
     1
281
     1
  3
ACAD_XREC_ROUNDTRIP
360
2BD
  0
DICTIONARY
  5
2AC
330
37
100
AcDbDictionary
280
     1
281
     1
  3
ACAD_XREC_ROUNDTRIP
360
2AD
  0
DICTIONARY
  5
29E
330
30
100
AcDbDictionary
280
     1
281
     1
  3
ACAD_XREC_ROUNDTRIP
360
29F
  0
DICTIONARY
  5
2BE
330
40
100
AcDbDictionary
280
     1
281
     1
  3
ACAD_XREC_ROUNDTRIP
360
2BF
  0
XRECORD
  5
2C7
102
{ACAD_REACTORS
330
2C6
102
}
330
2C6
100
AcDbXrecord
280
     1
102
MATERIAL
148
0.0
149
0.0
149
0.0
 93
        0
 94
      127
282
     0
 72
     1
 77
     1
171
     1
175
     1
179
     1
273
     0
  0
XRECORD
  5
2C5
102
{ACAD_REACTORS
330
2C4
102
}
330
2C4
100
AcDbXrecord
280
     1
102
MATERIAL
148
0.0
149
0.0
149
0.0
 93
        0
 94
      127
282
     0
 72
     1
 77
     1
171
     1
175
     1
179
     1
273
     0
  0
XRECORD
  5
2C9
102
{ACAD_REACTORS
330
2C8
102
}
330
2C8
100
AcDbXrecord
280
     1
102
MATERIAL
148
0.0
149
0.0
149
0.0
 93
        0
 94
      127
282
     0
 72
     1
 77
     1
171
     1
175
     1
179
     1
273
     0
  0
XRECORD
  5
2CF
102
{ACAD_REACTORS
330
2CE
102
}
330
2CE
100
AcDbXrecord
280
     1
102
ACAD_ROUNDTRIP_2010_MLEADER_STYLE
  0
CELLSTYLEMAP
  5
2CC
102
{ACAD_REACTORS
330
2CA
102
}
330
2CA
100
AcDbCellStyleMap
 90
        3
300
CELLSTYLE
  1
TABLEFORMAT_BEGIN
 90
        5
170
     1
 91
        0
 92
    32768
 62
   257
 93
        1
300
CONTENTFORMAT
  1
CONTENTFORMAT_BEGIN
 90
        0
 91
        0
 92
        4
 93
        0
300

 40
0.0
140
1.0
 94
        5
 62
     0
340
11
144
0.25
309
CONTENTFORMAT_END
171
     1
301
MARGIN
  1
CELLMARGIN_BEGIN
 40
0.06
 40
0.06
 40
0.06
 40
0.06
 40
0.06
 40
0.06
309
CELLMARGIN_END
 94
        6
 95
        1
302
GRIDFORMAT
  1
GRIDFORMAT_BEGIN
 90
        0
 91
        1
 62
     0
 92
       -2
340
14
 93
        0
 40
0.045
309
GRIDFORMAT_END
 95
        2
302
GRIDFORMAT
  1
GRIDFORMAT_BEGIN
 90
        0
 91
        1
 62
     0
 92
       -2
340
14
 93
        0
 40
0.045
309
GRIDFORMAT_END
 95
        4
302
GRIDFORMAT
  1
GRIDFORMAT_BEGIN
 90
        0
 91
        1
 62
     0
 92
       -2
340
14
 93
        0
 40
0.045
309
GRIDFORMAT_END
 95
        8
302
GRIDFORMAT
  1
GRIDFORMAT_BEGIN
 90
        0
 91
        1
 62
     0
 92
       -2
340
14
 93
        0
 40
0.045
309
GRIDFORMAT_END
 95
       16
302
GRIDFORMAT
  1
GRIDFORMAT_BEGIN
 90
        0
 91
        1
 62
     0
 92
       -2
340
14
 93
        0
 40
0.045
309
GRIDFORMAT_END
 95
       32
302
GRIDFORMAT
  1
GRIDFORMAT_BEGIN
 90
        0
 91
        1
 62
     0
 92
       -2
340
14
 93
        0
 40
0.045
309
GRIDFORMAT_END
309
TABLEFORMAT_END
  1
CELLSTYLE_BEGIN
 90
        1
 91
        1
300
_TITLE
309
CELLSTYLE_END
300
CELLSTYLE
  1
TABLEFORMAT_BEGIN
 90
        5
170
     1
 91
        0
 92
        0
 62
   257
 93
        1
300
CONTENTFORMAT
  1
CONTENTFORMAT_BEGIN
 90
        0
 91
        0
 92
        4
 93
        0
300

 40
0.0
140
1.0
 94
        5
 62
     0
340
11
144
0.18
309
CONTENTFORMAT_END
171
     1
301
MARGIN
  1
CELLMARGIN_BEGIN
 40
0.06
 40
0.06
 40
0.06
 40
0.06
 40
0.06
 40
0.06
309
CELLMARGIN_END
 94
        6
 95
        1
302
GRIDFORMAT
  1
GRIDFORMAT_BEGIN
 90
        0
 91
        1
 62
     0
 92
       -2
340
14
 93
        0
 40
0.045
309
GRIDFORMAT_END
 95
        2
302
GRIDFORMAT
  1
GRIDFORMAT_BEGIN
 90
        0
 91
        1
 62
     0
 92
       -2
340
14
 93
        0
 40
0.045
309
GRIDFORMAT_END
 95
        4
302
GRIDFORMAT
  1
GRIDFORMAT_BEGIN
 90
        0
 91
        1
 62
     0
 92
       -2
340
14
 93
        0
 40
0.045
309
GRIDFORMAT_END
 95
        8
302
GRIDFORMAT
  1
GRIDFORMAT_BEGIN
 90
        0
 91
        1
 62
     0
 92
       -2
340
14
 93
        0
 40
0.045
309
GRIDFORMAT_END
 95
       16
302
GRIDFORMAT
  1
GRIDFORMAT_BEGIN
 90
        0
 91
        1
 62
     0
 92
       -2
340
14
 93
        0
 40
0.045
309
GRIDFORMAT_END
 95
       32
302
GRIDFORMAT
  1
GRIDFORMAT_BEGIN
 90
        0
 91
        1
 62
     0
 92
       -2
340
14
 93
        0
 40
0.045
309
GRIDFORMAT_END
309
TABLEFORMAT_END
  1
CELLSTYLE_BEGIN
 90
        2
 91
        1
300
_HEADER
309
CELLSTYLE_END
300
CELLSTYLE
  1
TABLEFORMAT_BEGIN
 90
        5
170
     1
 91
        0
 92
        0
 62
   257
 93
        1
300
CONTENTFORMAT
  1
CONTENTFORMAT_BEGIN
 90
        0
 91
        0
 92
        4
 93
        0
300

 40
0.0
140
1.0
 94
        2
 62
     0
340
11
144
0.18
309
CONTENTFORMAT_END
171
     1
301
MARGIN
  1
CELLMARGIN_BEGIN
 40
0.06
 40
0.06
 40
0.06
 40
0.06
 40
0.06
 40
0.06
309
CELLMARGIN_END
 94
        6
 95
        1
302
GRIDFORMAT
  1
GRIDFORMAT_BEGIN
 90
        0
 91
        1
 62
     0
 92
       -2
340
14
 93
        0
 40
0.045
309
GRIDFORMAT_END
 95
        2
302
GRIDFORMAT
  1
GRIDFORMAT_BEGIN
 90
        0
 91
        1
 62
     0
 92
       -2
340
14
 93
        0
 40
0.045
309
GRIDFORMAT_END
 95
        4
302
GRIDFORMAT
  1
GRIDFORMAT_BEGIN
 90
        0
 91
        1
 62
     0
 92
       -2
340
14
 93
        0
 40
0.045
309
GRIDFORMAT_END
 95
        8
302
GRIDFORMAT
  1
GRIDFORMAT_BEGIN
 90
        0
 91
        1
 62
     0
 92
       -2
340
14
 93
        0
 40
0.045
309
GRIDFORMAT_END
 95
       16
302
GRIDFORMAT
  1
GRIDFORMAT_BEGIN
 90
        0
 91
        1
 62
     0
 92
       -2
340
14
 93
        0
 40
0.045
309
GRIDFORMAT_END
 95
       32
302
GRIDFORMAT
  1
GRIDFORMAT_BEGIN
 90
        0
 91
        1
 62
     0
 92
       -2
340
14
 93
        0
 40
0.045
309
GRIDFORMAT_END
309
TABLEFORMAT_END
  1
CELLSTYLE_BEGIN
 90
        3
 91
        2
300
_DATA
309
CELLSTYLE_END
  0
XRECORD
  5
2CB
102
{ACAD_REACTORS
330
2CA
102
}
330
2CA
100
AcDbXrecord
280
     1
102
ACAD_ROUNDTRIP_PRE2007_TABLESTYLE
 90
        4
 91
        0
  1

 92
        4
 93
        0
  2

 94
        4
 95
        0
  3

  0
XRECORD
  5
29D
102
{ACAD_REACTORS
330
29C
102
}
330
29C
100
AcDbXrecord
280
     1
102
RTVSPropertyOp0
 70
     1
102
RTVSPropertyOp1
 70
     1
102
RTVSPropertyOp2
 70
     1
102
RTVSPropertyOp3
 70
     1
102
RTVSPropertyOp4
 70
     1
102
RTVSPropertyOp5
 70
     1
102
RTVSPropertyOp6
 70
     1
102
RTVSPropertyOp7
 70
     1
102
RTVSPropertyOp8
 70
     1
102
RTVSPropertyOp9
 70
     1
102
RTVSPropertyOp10
 70
     1
102
RTVSPropertyOp11
 70
     1
102
RTVSPropertyOp12
 70
     1
102
RTVSPropertyOp13
 70
     1
102
RTVSPropertyOp14
 70
     1
102
RTVSPropertyOp15
 70
     1
102
RTVSPropertyOp16
 70
     1
102
RTVSPropertyOp17
 70
     1
102
RTVSPropertyOp18
 70
     1
102
RTVSPropertyOp19
 70
     1
102
RTVSPropertyOp20
 70
     1
102
RTVSPropertyOp21
 70
     1
102
RTVSPropertyOp22
 70
     1
102
RTVSPropertyOp23
 70
     1
102
RTVSPropertyOp24
 70
     1
102
RTVSPropertyOp25
 70
     1
102
RTVSPropertyOp26
 70
     1
102
RTVSPropertyOp27
 70
     1
102
RTVSPropertyOp28
 70
     1
102
RTVSPropertyOp29
 70
     1
102
RTVSPropertyOp30
 70
     1
102
RTVSPropertyOp31
 70
     1
102
RTVSPropertyOp32
 70
     1
102
RTVSPropertyOp33
 70
     1
102
RTVSPropertyOp34
 70
     1
102
RTVSPropertyOp35
 70
     1
102
RTVSPropertyOp36
 70
     1
102
RTVSPropertyOp37
 70
     1
102
RTVSPropertyOp38
 70
     1
102
RTVSPropertyOp39
 70
     1
102
RTVSPropertyOp40
 70
     1
102
RTVSPropertyOp41
 70
     1
102
RTVSPropertyOp42
 70
     1
102
RTVSPropertyOp43
 70
     1
102
RTVSPropertyOp44
 70
     1
102
RTVSPropertyOp45
 70
     1
102
RTVSPropertyOp46
 70
     1
102
RTVSPropertyOp47
 70
     1
102
RTVSPropertyOp48
 70
     1
102
RTVSPropertyOp49
 70
     1
102
RTVSPropertyOp50
 70
     1
102
RTVSPropertyOp51
 70
     0
102
RTVSPropertyOp52
 70
     0
102
RTVSPropertyOp53
 70
     1
102
RTVSPropertyOp54
 70
     1
102
RTVSPropertyOp55
 70
     1
102
RTVSPropertyOp56
 70
     1
102
RTVSPropertyOp57
 70
     1
102
RTVSPost2010Prop28
280
     1
102
RTVSPost2010PropOp28
 70
     1
102
RTVSPost2010Prop29
280
     1
102
RTVSPost2010PropOp29
 70
     1
102
RTVSPost2010Prop30
280
     0
102
RTVSPost2010PropOp30
 70
     1
102
RTVSPost2010Prop31
280
     0
102
RTVSPost2010PropOp31
 70
     1
102
RTVSPost2010Prop32
280
     0
102
RTVSPost2010PropOp32
 70
     1
102
RTVSPost2010Prop33
280
     0
102
RTVSPost2010PropOp33
 70
     1
102
RTVSPost2010Prop34
280
     0
102
RTVSPost2010PropOp34
 70
     1
102
RTVSPost2010Prop35
280
     0
102
RTVSPost2010PropOp35
 70
     1
102
RTVSPost2010Prop36
280
     0
102
RTVSPost2010PropOp36
 70
     1
102
RTVSPost2010Prop37
 90
       50
102
RTVSPost2010PropOp37
 70
     1
102
RTVSPost2010Prop38
140
0.0
102
RTVSPost2010PropOp38
 70
     1
102
RTVSPost2010Prop39
140
1.0
102
RTVSPost2010PropOp39
 70
     1
102
RTVSPost2010Prop40
 90
        0
102
RTVSPost2010PropOp40
 70
     1
102
RTVSPost2010Prop41ColorIndex
 90
       18
102
RTVSPost2010Prop41ColorRGB
 90
        0
102
RTVSPost2010PropOp41
 70
     1
102
RTVSPost2010Prop42
 90
       50
102
RTVSPost2010PropOp42
 70
     1
102
RTVSPost2010Prop43
 90
        3
102
RTVSPost2010PropOp43
 70
     1
102
RTVSPost2010Prop44ColorIndex
 90
        5
102
RTVSPost2010Prop44ColorRGB
 90
      255
102
RTVSPost2010PropOp44
 70
     1
102
RTVSPost2010Prop45
280
     0
102
RTVSPost2010PropOp45
 70
     1
102
RTVSPost2010Prop46
 90
       50
102
RTVSPost2010PropOp46
 70
     1
102
RTVSPost2010Prop47
 90
       50
102
RTVSPost2010PropOp47
 70
     1
102
RTVSPost2010Prop48
 90
       50
102
RTVSPost2010PropOp48
 70
     1
102
RTVSPost2010Prop49
280
     0
102
RTVSPost2010PropOp49
 70
     1
102
RTVSPost2010Prop50
 90
       50
102
RTVSPost2010PropOp50
 70
     1
102
RTVSPost2010Prop51ColorIndex
 90
      256
102
RTVSPost2010Prop51ColorRGB
 90
-16777216
102
RTVSPost2010PropOp51
 70
     0
102
RTVSPost2010Prop52
140
1.0
102
RTVSPost2010PropOp52
 70
     0
102
RTVSPost2010Prop53
 90
        2
102
RTVSPost2010PropOp53
 70
     1
102
RTVSPost2010Prop54
  1
strokes_ogs.tif
102
RTVSPost2010PropOp54
 70
     1
102
RTVSPost2010Prop55
280
     0
102
RTVSPost2010PropOp55
 70
     1
102
RTVSPost2010Prop56
140
1.0
102
RTVSPost2010PropOp56
 70
     1
102
RTVSPost2010Prop57
140
1.0
102
RTVSPost2010PropOp57
 70
     1
  0
XRECORD
  5
2A3
102
{ACAD_REACTORS
330
2A2
102
}
330
2A2
100
AcDbXrecord
280
     1
102
RTVSPropertyOp0
 70
     1
102
RTVSPropertyOp1
 70
     1
102
RTVSPropertyOp2
 70
     1
102
RTVSPropertyOp3
 70
     1
102
RTVSPropertyOp4
 70
     1
102
RTVSPropertyOp5
 70
     1
102
RTVSPropertyOp6
 70
     1
102
RTVSPropertyOp7
 70
     1
102
RTVSPropertyOp8
 70
     1
102
RTVSPropertyOp9
 70
     1
102
RTVSPropertyOp10
 70
     1
102
RTVSPropertyOp11
 70
     1
102
RTVSPropertyOp12
 70
     1
102
RTVSPropertyOp13
 70
     1
102
RTVSPropertyOp14
 70
     1
102
RTVSPropertyOp15
 70
     1
102
RTVSPropertyOp16
 70
     1
102
RTVSPropertyOp17
 70
     1
102
RTVSPropertyOp18
 70
     1
102
RTVSPropertyOp19
 70
     1
102
RTVSPropertyOp20
 70
     1
102
RTVSPropertyOp21
 70
     1
102
RTVSPropertyOp22
 70
     1
102
RTVSPropertyOp23
 70
     1
102
RTVSPropertyOp24
 70
     1
102
RTVSPropertyOp25
 70
     1
102
RTVSPropertyOp26
 70
     1
102
RTVSPropertyOp27
 70
     1
102
RTVSPropertyOp28
 70
     1
102
RTVSPropertyOp29
 70
     1
102
RTVSPropertyOp30
 70
     1
102
RTVSPropertyOp31
 70
     1
102
RTVSPropertyOp32
 70
     1
102
RTVSPropertyOp33
 70
     1
102
RTVSPropertyOp34
 70
     1
102
RTVSPropertyOp35
 70
     1
102
RTVSPropertyOp36
 70
     1
102
RTVSPropertyOp37
 70
     1
102
RTVSPropertyOp38
 70
     1
102
RTVSPropertyOp39
 70
     1
102
RTVSPropertyOp40
 70
     1
102
RTVSPropertyOp41
 70
     1
102
RTVSPropertyOp42
 70
     1
102
RTVSPropertyOp43
 70
     1
102
RTVSPropertyOp44
 70
     1
102
RTVSPropertyOp45
 70
     1
102
RTVSPropertyOp46
 70
     1
102
RTVSPropertyOp47
 70
     1
102
RTVSPropertyOp48
 70
     1
102
RTVSPropertyOp49
 70
     1
102
RTVSPropertyOp50
 70
     1
102
RTVSPropertyOp51
 70
     0
102
RTVSPropertyOp52
 70
     0
102
RTVSPropertyOp53
 70
     1
102
RTVSPropertyOp54
 70
     1
102
RTVSPropertyOp55
 70
     1
102
RTVSPropertyOp56
 70
     1
102
RTVSPropertyOp57
 70
     1
102
RTVSPost2010Prop28
280
     0
102
RTVSPost2010PropOp28
 70
     1
102
RTVSPost2010Prop29
280
     1
102
RTVSPost2010PropOp29
 70
     1
102
RTVSPost2010Prop30
280
     1
102
RTVSPost2010PropOp30
 70
     1
102
RTVSPost2010Prop31
280
     0
102
RTVSPost2010PropOp31
 70
     1
102
RTVSPost2010Prop32
280
     0
102
RTVSPost2010PropOp32
 70
     1
102
RTVSPost2010Prop33
280
     0
102
RTVSPost2010PropOp33
 70
     1
102
RTVSPost2010Prop34
280
     0
102
RTVSPost2010PropOp34
 70
     1
102
RTVSPost2010Prop35
280
     0
102
RTVSPost2010PropOp35
 70
     1
102
RTVSPost2010Prop36
280
     0
102
RTVSPost2010PropOp36
 70
     1
102
RTVSPost2010Prop37
 90
       50
102
RTVSPost2010PropOp37
 70
     1
102
RTVSPost2010Prop38
140
0.0
102
RTVSPost2010PropOp38
 70
     1
102
RTVSPost2010Prop39
140
1.0
102
RTVSPost2010PropOp39
 70
     1
102
RTVSPost2010Prop40
 90
        0
102
RTVSPost2010PropOp40
 70
     1
102
RTVSPost2010Prop41ColorIndex
 90
       18
102
RTVSPost2010Prop41ColorRGB
 90
        0
102
RTVSPost2010PropOp41
 70
     1
102
RTVSPost2010Prop42
 90
       50
102
RTVSPost2010PropOp42
 70
     1
102
RTVSPost2010Prop43
 90
        3
102
RTVSPost2010PropOp43
 70
     1
102
RTVSPost2010Prop44ColorIndex
 90
        5
102
RTVSPost2010Prop44ColorRGB
 90
      255
102
RTVSPost2010PropOp44
 70
     1
102
RTVSPost2010Prop45
280
     0
102
RTVSPost2010PropOp45
 70
     1
102
RTVSPost2010Prop46
 90
       50
102
RTVSPost2010PropOp46
 70
     1
102
RTVSPost2010Prop47
 90
       50
102
RTVSPost2010PropOp47
 70
     1
102
RTVSPost2010Prop48
 90
       50
102
RTVSPost2010PropOp48
 70
     1
102
RTVSPost2010Prop49
280
     0
102
RTVSPost2010PropOp49
 70
     1
102
RTVSPost2010Prop50
 90
       50
102
RTVSPost2010PropOp50
 70
     1
102
RTVSPost2010Prop51ColorIndex
 90
      256
102
RTVSPost2010Prop51ColorRGB
 90
-16777216
102
RTVSPost2010PropOp51
 70
     0
102
RTVSPost2010Prop52
140
1.0
102
RTVSPost2010PropOp52
 70
     0
102
RTVSPost2010Prop53
 90
        2
102
RTVSPost2010PropOp53
 70
     1
102
RTVSPost2010Prop54
  1
strokes_ogs.tif
102
RTVSPost2010PropOp54
 70
     1
102
RTVSPost2010Prop55
280
     0
102
RTVSPost2010PropOp55
 70
     1
102
RTVSPost2010Prop56
140
1.0
102
RTVSPost2010PropOp56
 70
     1
102
RTVSPost2010Prop57
140
1.0
102
RTVSPost2010PropOp57
 70
     1
  0
XRECORD
  5
2AB
102
{ACAD_REACTORS
330
2AA
102
}
330
2AA
100
AcDbXrecord
280
     1
102
RTVSPropertyOp0
 70
     1
102
RTVSPropertyOp1
 70
     1
102
RTVSPropertyOp2
 70
     1
102
RTVSPropertyOp3
 70
     1
102
RTVSPropertyOp4
 70
     1
102
RTVSPropertyOp5
 70
     1
102
RTVSPropertyOp6
 70
     1
102
RTVSPropertyOp7
 70
     1
102
RTVSPropertyOp8
 70
     1
102
RTVSPropertyOp9
 70
     1
102
RTVSPropertyOp10
 70
     1
102
RTVSPropertyOp11
 70
     1
102
RTVSPropertyOp12
 70
     1
102
RTVSPropertyOp13
 70
     1
102
RTVSPropertyOp14
 70
     1
102
RTVSPropertyOp15
 70
     1
102
RTVSPropertyOp16
 70
     1
102
RTVSPropertyOp17
 70
     1
102
RTVSPropertyOp18
 70
     1
102
RTVSPropertyOp19
 70
     1
102
RTVSPropertyOp20
 70
     1
102
RTVSPropertyOp21
 70
     1
102
RTVSPropertyOp22
 70
     1
102
RTVSPropertyOp23
 70
     1
102
RTVSPropertyOp24
 70
     1
102
RTVSPropertyOp25
 70
     1
102
RTVSPropertyOp26
 70
     1
102
RTVSPropertyOp27
 70
     1
102
RTVSPropertyOp28
 70
     1
102
RTVSPropertyOp29
 70
     1
102
RTVSPropertyOp30
 70
     1
102
RTVSPropertyOp31
 70
     1
102
RTVSPropertyOp32
 70
     1
102
RTVSPropertyOp33
 70
     1
102
RTVSPropertyOp34
 70
     1
102
RTVSPropertyOp35
 70
     1
102
RTVSPropertyOp36
 70
     1
102
RTVSPropertyOp37
 70
     1
102
RTVSPropertyOp38
 70
     1
102
RTVSPropertyOp39
 70
     1
102
RTVSPropertyOp40
 70
     1
102
RTVSPropertyOp41
 70
     1
102
RTVSPropertyOp42
 70
     1
102
RTVSPropertyOp43
 70
     1
102
RTVSPropertyOp44
 70
     1
102
RTVSPropertyOp45
 70
     1
102
RTVSPropertyOp46
 70
     1
102
RTVSPropertyOp47
 70
     1
102
RTVSPropertyOp48
 70
     1
102
RTVSPropertyOp49
 70
     1
102
RTVSPropertyOp50
 70
     1
102
RTVSPropertyOp51
 70
     0
102
RTVSPropertyOp52
 70
     0
102
RTVSPropertyOp53
 70
     1
102
RTVSPropertyOp54
 70
     1
102
RTVSPropertyOp55
 70
     1
102
RTVSPropertyOp56
 70
     1
102
RTVSPropertyOp57
 70
     1
102
RTVSPost2010Prop28
280
     0
102
RTVSPost2010PropOp28
 70
     1
102
RTVSPost2010Prop29
280
     1
102
RTVSPost2010PropOp29
 70
     1
102
RTVSPost2010Prop30
280
     1
102
RTVSPost2010PropOp30
 70
     1
102
RTVSPost2010Prop31
280
     0
102
RTVSPost2010PropOp31
 70
     1
102
RTVSPost2010Prop32
280
     0
102
RTVSPost2010PropOp32
 70
     1
102
RTVSPost2010Prop33
280
     0
102
RTVSPost2010PropOp33
 70
     1
102
RTVSPost2010Prop34
280
     0
102
RTVSPost2010PropOp34
 70
     1
102
RTVSPost2010Prop35
280
     0
102
RTVSPost2010PropOp35
 70
     1
102
RTVSPost2010Prop36
280
     0
102
RTVSPost2010PropOp36
 70
     1
102
RTVSPost2010Prop37
 90
       50
102
RTVSPost2010PropOp37
 70
     1
102
RTVSPost2010Prop38
140
0.0
102
RTVSPost2010PropOp38
 70
     1
102
RTVSPost2010Prop39
140
1.0
102
RTVSPost2010PropOp39
 70
     1
102
RTVSPost2010Prop40
 90
        0
102
RTVSPost2010PropOp40
 70
     1
102
RTVSPost2010Prop41ColorIndex
 90
       18
102
RTVSPost2010Prop41ColorRGB
 90
        0
102
RTVSPost2010PropOp41
 70
     1
102
RTVSPost2010Prop42
 90
       50
102
RTVSPost2010PropOp42
 70
     1
102
RTVSPost2010Prop43
 90
        3
102
RTVSPost2010PropOp43
 70
     1
102
RTVSPost2010Prop44ColorIndex
 90
        5
102
RTVSPost2010Prop44ColorRGB
 90
      255
102
RTVSPost2010PropOp44
 70
     1
102
RTVSPost2010Prop45
280
     0
102
RTVSPost2010PropOp45
 70
     1
102
RTVSPost2010Prop46
 90
       50
102
RTVSPost2010PropOp46
 70
     1
102
RTVSPost2010Prop47
 90
       50
102
RTVSPost2010PropOp47
 70
     1
102
RTVSPost2010Prop48
 90
       50
102
RTVSPost2010PropOp48
 70
     1
102
RTVSPost2010Prop49
280
     0
102
RTVSPost2010PropOp49
 70
     1
102
RTVSPost2010Prop50
 90
       50
102
RTVSPost2010PropOp50
 70
     1
102
RTVSPost2010Prop51ColorIndex
 90
      256
102
RTVSPost2010Prop51ColorRGB
 90
-16777216
102
RTVSPost2010PropOp51
 70
     0
102
RTVSPost2010Prop52
140
1.0
102
RTVSPost2010PropOp52
 70
     0
102
RTVSPost2010Prop53
 90
        2
102
RTVSPost2010PropOp53
 70
     1
102
RTVSPost2010Prop54
  1
strokes_ogs.tif
102
RTVSPost2010PropOp54
 70
     1
102
RTVSPost2010Prop55
280
     0
102
RTVSPost2010PropOp55
 70
     1
102
RTVSPost2010Prop56
140
1.0
102
RTVSPost2010PropOp56
 70
     1
102
RTVSPost2010Prop57
140
1.0
102
RTVSPost2010PropOp57
 70
     1
  0
XRECORD
  5
2B3
102
{ACAD_REACTORS
330
2B2
102
}
330
2B2
100
AcDbXrecord
280
     1
102
RTVSPropertyOp0
 70
     1
102
RTVSPropertyOp1
 70
     1
102
RTVSPropertyOp2
 70
     1
102
RTVSPropertyOp3
 70
     1
102
RTVSPropertyOp4
 70
     1
102
RTVSPropertyOp5
 70
     1
102
RTVSPropertyOp6
 70
     1
102
RTVSPropertyOp7
 70
     1
102
RTVSPropertyOp8
 70
     1
102
RTVSPropertyOp9
 70
     1
102
RTVSPropertyOp10
 70
     1
102
RTVSPropertyOp11
 70
     1
102
RTVSPropertyOp12
 70
     1
102
RTVSPropertyOp13
 70
     1
102
RTVSPropertyOp14
 70
     1
102
RTVSPropertyOp15
 70
     1
102
RTVSPropertyOp16
 70
     1
102
RTVSPropertyOp17
 70
     1
102
RTVSPropertyOp18
 70
     1
102
RTVSPropertyOp19
 70
     1
102
RTVSPropertyOp20
 70
     1
102
RTVSPropertyOp21
 70
     1
102
RTVSPropertyOp22
 70
     1
102
RTVSPropertyOp23
 70
     1
102
RTVSPropertyOp24
 70
     1
102
RTVSPropertyOp25
 70
     1
102
RTVSPropertyOp26
 70
     1
102
RTVSPropertyOp27
 70
     1
102
RTVSPropertyOp28
 70
     1
102
RTVSPropertyOp29
 70
     1
102
RTVSPropertyOp30
 70
     1
102
RTVSPropertyOp31
 70
     1
102
RTVSPropertyOp32
 70
     1
102
RTVSPropertyOp33
 70
     1
102
RTVSPropertyOp34
 70
     1
102
RTVSPropertyOp35
 70
     1
102
RTVSPropertyOp36
 70
     1
102
RTVSPropertyOp37
 70
     1
102
RTVSPropertyOp38
 70
     1
102
RTVSPropertyOp39
 70
     1
102
RTVSPropertyOp40
 70
     1
102
RTVSPropertyOp41
 70
     1
102
RTVSPropertyOp42
 70
     1
102
RTVSPropertyOp43
 70
     1
102
RTVSPropertyOp44
 70
     1
102
RTVSPropertyOp45
 70
     1
102
RTVSPropertyOp46
 70
     1
102
RTVSPropertyOp47
 70
     1
102
RTVSPropertyOp48
 70
     1
102
RTVSPropertyOp49
 70
     1
102
RTVSPropertyOp50
 70
     1
102
RTVSPropertyOp51
 70
     0
102
RTVSPropertyOp52
 70
     0
102
RTVSPropertyOp53
 70
     1
102
RTVSPropertyOp54
 70
     1
102
RTVSPropertyOp55
 70
     1
102
RTVSPropertyOp56
 70
     1
102
RTVSPropertyOp57
 70
     1
102
RTVSPost2010Prop28
280
     0
102
RTVSPost2010PropOp28
 70
     1
102
RTVSPost2010Prop29
280
     1
102
RTVSPost2010PropOp29
 70
     1
102
RTVSPost2010Prop30
280
     1
102
RTVSPost2010PropOp30
 70
     1
102
RTVSPost2010Prop31
280
     0
102
RTVSPost2010PropOp31
 70
     1
102
RTVSPost2010Prop32
280
     0
102
RTVSPost2010PropOp32
 70
     1
102
RTVSPost2010Prop33
280
     0
102
RTVSPost2010PropOp33
 70
     1
102
RTVSPost2010Prop34
280
     0
102
RTVSPost2010PropOp34
 70
     1
102
RTVSPost2010Prop35
280
     0
102
RTVSPost2010PropOp35
 70
     1
102
RTVSPost2010Prop36
280
     0
102
RTVSPost2010PropOp36
 70
     1
102
RTVSPost2010Prop37
 90
       50
102
RTVSPost2010PropOp37
 70
     1
102
RTVSPost2010Prop38
140
0.0
102
RTVSPost2010PropOp38
 70
     1
102
RTVSPost2010Prop39
140
1.0
102
RTVSPost2010PropOp39
 70
     1
102
RTVSPost2010Prop40
 90
        0
102
RTVSPost2010PropOp40
 70
     1
102
RTVSPost2010Prop41ColorIndex
 90
       18
102
RTVSPost2010Prop41ColorRGB
 90
        0
102
RTVSPost2010PropOp41
 70
     1
102
RTVSPost2010Prop42
 90
       50
102
RTVSPost2010PropOp42
 70
     1
102
RTVSPost2010Prop43
 90
        3
102
RTVSPost2010PropOp43
 70
     1
102
RTVSPost2010Prop44ColorIndex
 90
        5
102
RTVSPost2010Prop44ColorRGB
 90
      255
102
RTVSPost2010PropOp44
 70
     1
102
RTVSPost2010Prop45
280
     0
102
RTVSPost2010PropOp45
 70
     1
102
RTVSPost2010Prop46
 90
       50
102
RTVSPost2010PropOp46
 70
     1
102
RTVSPost2010Prop47
 90
       50
102
RTVSPost2010PropOp47
 70
     1
102
RTVSPost2010Prop48
 90
       50
102
RTVSPost2010PropOp48
 70
     1
102
RTVSPost2010Prop49
280
     0
102
RTVSPost2010PropOp49
 70
     1
102
RTVSPost2010Prop50
 90
       50
102
RTVSPost2010PropOp50
 70
     1
102
RTVSPost2010Prop51ColorIndex
 90
      256
102
RTVSPost2010Prop51ColorRGB
 90
-16777216
102
RTVSPost2010PropOp51
 70
     0
102
RTVSPost2010Prop52
140
1.0
102
RTVSPost2010PropOp52
 70
     0
102
RTVSPost2010Prop53
 90
        2
102
RTVSPost2010PropOp53
 70
     1
102
RTVSPost2010Prop54
  1
strokes_ogs.tif
102
RTVSPost2010PropOp54
 70
     1
102
RTVSPost2010Prop55
280
     0
102
RTVSPost2010PropOp55
 70
     1
102
RTVSPost2010Prop56
140
1.0
102
RTVSPost2010PropOp56
 70
     1
102
RTVSPost2010Prop57
140
1.0
102
RTVSPost2010PropOp57
 70
     1
  0
XRECORD
  5
2A7
102
{ACAD_REACTORS
330
2A6
102
}
330
2A6
100
AcDbXrecord
280
     1
102
RTVSPropertyOp0
 70
     1
102
RTVSPropertyOp1
 70
     1
102
RTVSPropertyOp2
 70
     1
102
RTVSPropertyOp3
 70
     1
102
RTVSPropertyOp4
 70
     1
102
RTVSPropertyOp5
 70
     1
102
RTVSPropertyOp6
 70
     1
102
RTVSPropertyOp7
 70
     1
102
RTVSPropertyOp8
 70
     1
102
RTVSPropertyOp9
 70
     1
102
RTVSPropertyOp10
 70
     1
102
RTVSPropertyOp11
 70
     1
102
RTVSPropertyOp12
 70
     1
102
RTVSPropertyOp13
 70
     1
102
RTVSPropertyOp14
 70
     1
102
RTVSPropertyOp15
 70
     1
102
RTVSPropertyOp16
 70
     1
102
RTVSPropertyOp17
 70
     1
102
RTVSPropertyOp18
 70
     1
102
RTVSPropertyOp19
 70
     1
102
RTVSPropertyOp20
 70
     1
102
RTVSPropertyOp21
 70
     1
102
RTVSPropertyOp22
 70
     1
102
RTVSPropertyOp23
 70
     1
102
RTVSPropertyOp24
 70
     1
102
RTVSPropertyOp25
 70
     1
102
RTVSPropertyOp26
 70
     1
102
RTVSPropertyOp27
 70
     1
102
RTVSPropertyOp28
 70
     1
102
RTVSPropertyOp29
 70
     1
102
RTVSPropertyOp30
 70
     1
102
RTVSPropertyOp31
 70
     1
102
RTVSPropertyOp32
 70
     1
102
RTVSPropertyOp33
 70
     1
102
RTVSPropertyOp34
 70
     1
102
RTVSPropertyOp35
 70
     1
102
RTVSPropertyOp36
 70
     1
102
RTVSPropertyOp37
 70
     1
102
RTVSPropertyOp38
 70
     1
102
RTVSPropertyOp39
 70
     1
102
RTVSPropertyOp40
 70
     1
102
RTVSPropertyOp41
 70
     1
102
RTVSPropertyOp42
 70
     1
102
RTVSPropertyOp43
 70
     1
102
RTVSPropertyOp44
 70
     1
102
RTVSPropertyOp45
 70
     1
102
RTVSPropertyOp46
 70
     1
102
RTVSPropertyOp47
 70
     1
102
RTVSPropertyOp48
 70
     1
102
RTVSPropertyOp49
 70
     1
102
RTVSPropertyOp50
 70
     1
102
RTVSPropertyOp51
 70
     0
102
RTVSPropertyOp52
 70
     0
102
RTVSPropertyOp53
 70
     1
102
RTVSPropertyOp54
 70
     1
102
RTVSPropertyOp55
 70
     1
102
RTVSPropertyOp56
 70
     1
102
RTVSPropertyOp57
 70
     1
102
RTVSPost2010Prop28
280
     0
102
RTVSPost2010PropOp28
 70
     1
102
RTVSPost2010Prop29
280
     1
102
RTVSPost2010PropOp29
 70
     1
102
RTVSPost2010Prop30
280
     1
102
RTVSPost2010PropOp30
 70
     1
102
RTVSPost2010Prop31
280
     0
102
RTVSPost2010PropOp31
 70
     1
102
RTVSPost2010Prop32
280
     0
102
RTVSPost2010PropOp32
 70
     1
102
RTVSPost2010Prop33
280
     0
102
RTVSPost2010PropOp33
 70
     1
102
RTVSPost2010Prop34
280
     0
102
RTVSPost2010PropOp34
 70
     1
102
RTVSPost2010Prop35
280
     0
102
RTVSPost2010PropOp35
 70
     1
102
RTVSPost2010Prop36
280
     0
102
RTVSPost2010PropOp36
 70
     1
102
RTVSPost2010Prop37
 90
       50
102
RTVSPost2010PropOp37
 70
     1
102
RTVSPost2010Prop38
140
0.0
102
RTVSPost2010PropOp38
 70
     1
102
RTVSPost2010Prop39
140
1.0
102
RTVSPost2010PropOp39
 70
     1
102
RTVSPost2010Prop40
 90
        0
102
RTVSPost2010PropOp40
 70
     1
102
RTVSPost2010Prop41ColorIndex
 90
       18
102
RTVSPost2010Prop41ColorRGB
 90
        0
102
RTVSPost2010PropOp41
 70
     1
102
RTVSPost2010Prop42
 90
       50
102
RTVSPost2010PropOp42
 70
     1
102
RTVSPost2010Prop43
 90
        3
102
RTVSPost2010PropOp43
 70
     1
102
RTVSPost2010Prop44ColorIndex
 90
        5
102
RTVSPost2010Prop44ColorRGB
 90
      255
102
RTVSPost2010PropOp44
 70
     1
102
RTVSPost2010Prop45
280
     0
102
RTVSPost2010PropOp45
 70
     1
102
RTVSPost2010Prop46
 90
       50
102
RTVSPost2010PropOp46
 70
     1
102
RTVSPost2010Prop47
 90
       50
102
RTVSPost2010PropOp47
 70
     1
102
RTVSPost2010Prop48
 90
       50
102
RTVSPost2010PropOp48
 70
     1
102
RTVSPost2010Prop49
280
     0
102
RTVSPost2010PropOp49
 70
     1
102
RTVSPost2010Prop50
 90
       50
102
RTVSPost2010PropOp50
 70
     1
102
RTVSPost2010Prop51ColorIndex
 90
      256
102
RTVSPost2010Prop51ColorRGB
 90
-16777216
102
RTVSPost2010PropOp51
 70
     0
102
RTVSPost2010Prop52
140
1.0
102
RTVSPost2010PropOp52
 70
     0
102
RTVSPost2010Prop53
 90
        2
102
RTVSPost2010PropOp53
 70
     1
102
RTVSPost2010Prop54
  1
strokes_ogs.tif
102
RTVSPost2010PropOp54
 70
     1
102
RTVSPost2010Prop55
280
     0
102
RTVSPost2010PropOp55
 70
     1
102
RTVSPost2010Prop56
140
1.0
102
RTVSPost2010PropOp56
 70
     1
102
RTVSPost2010Prop57
140
1.0
102
RTVSPost2010PropOp57
 70
     1
  0
XRECORD
  5
2A9
102
{ACAD_REACTORS
330
2A8
102
}
330
2A8
100
AcDbXrecord
280
     1
102
RTVSPropertyOp0
 70
     1
102
RTVSPropertyOp1
 70
     1
102
RTVSPropertyOp2
 70
     1
102
RTVSPropertyOp3
 70
     1
102
RTVSPropertyOp4
 70
     1
102
RTVSPropertyOp5
 70
     1
102
RTVSPropertyOp6
 70
     1
102
RTVSPropertyOp7
 70
     1
102
RTVSPropertyOp8
 70
     1
102
RTVSPropertyOp9
 70
     1
102
RTVSPropertyOp10
 70
     1
102
RTVSPropertyOp11
 70
     1
102
RTVSPropertyOp12
 70
     1
102
RTVSPropertyOp13
 70
     1
102
RTVSPropertyOp14
 70
     1
102
RTVSPropertyOp15
 70
     1
102
RTVSPropertyOp16
 70
     1
102
RTVSPropertyOp17
 70
     1
102
RTVSPropertyOp18
 70
     1
102
RTVSPropertyOp19
 70
     1
102
RTVSPropertyOp20
 70
     1
102
RTVSPropertyOp21
 70
     1
102
RTVSPropertyOp22
 70
     1
102
RTVSPropertyOp23
 70
     1
102
RTVSPropertyOp24
 70
     1
102
RTVSPropertyOp25
 70
     1
102
RTVSPropertyOp26
 70
     1
102
RTVSPropertyOp27
 70
     1
102
RTVSPropertyOp28
 70
     1
102
RTVSPropertyOp29
 70
     1
102
RTVSPropertyOp30
 70
     1
102
RTVSPropertyOp31
 70
     1
102
RTVSPropertyOp32
 70
     1
102
RTVSPropertyOp33
 70
     1
102
RTVSPropertyOp34
 70
     1
102
RTVSPropertyOp35
 70
     1
102
RTVSPropertyOp36
 70
     1
102
RTVSPropertyOp37
 70
     1
102
RTVSPropertyOp38
 70
     1
102
RTVSPropertyOp39
 70
     1
102
RTVSPropertyOp40
 70
     1
102
RTVSPropertyOp41
 70
     1
102
RTVSPropertyOp42
 70
     1
102
RTVSPropertyOp43
 70
     1
102
RTVSPropertyOp44
 70
     1
102
RTVSPropertyOp45
 70
     1
102
RTVSPropertyOp46
 70
     1
102
RTVSPropertyOp47
 70
     1
102
RTVSPropertyOp48
 70
     1
102
RTVSPropertyOp49
 70
     1
102
RTVSPropertyOp50
 70
     1
102
RTVSPropertyOp51
 70
     0
102
RTVSPropertyOp52
 70
     0
102
RTVSPropertyOp53
 70
     1
102
RTVSPropertyOp54
 70
     1
102
RTVSPropertyOp55
 70
     1
102
RTVSPropertyOp56
 70
     1
102
RTVSPropertyOp57
 70
     1
102
RTVSPost2010Prop28
280
     0
102
RTVSPost2010PropOp28
 70
     1
102
RTVSPost2010Prop29
280
     1
102
RTVSPost2010PropOp29
 70
     1
102
RTVSPost2010Prop30
280
     1
102
RTVSPost2010PropOp30
 70
     1
102
RTVSPost2010Prop31
280
     0
102
RTVSPost2010PropOp31
 70
     1
102
RTVSPost2010Prop32
280
     0
102
RTVSPost2010PropOp32
 70
     1
102
RTVSPost2010Prop33
280
     0
102
RTVSPost2010PropOp33
 70
     1
102
RTVSPost2010Prop34
280
     0
102
RTVSPost2010PropOp34
 70
     1
102
RTVSPost2010Prop35
280
     0
102
RTVSPost2010PropOp35
 70
     1
102
RTVSPost2010Prop36
280
     0
102
RTVSPost2010PropOp36
 70
     1
102
RTVSPost2010Prop37
 90
       50
102
RTVSPost2010PropOp37
 70
     1
102
RTVSPost2010Prop38
140
0.0
102
RTVSPost2010PropOp38
 70
     1
102
RTVSPost2010Prop39
140
1.0
102
RTVSPost2010PropOp39
 70
     1
102
RTVSPost2010Prop40
 90
        0
102
RTVSPost2010PropOp40
 70
     1
102
RTVSPost2010Prop41ColorIndex
 90
       18
102
RTVSPost2010Prop41ColorRGB
 90
        0
102
RTVSPost2010PropOp41
 70
     1
102
RTVSPost2010Prop42
 90
       50
102
RTVSPost2010PropOp42
 70
     1
102
RTVSPost2010Prop43
 90
        3
102
RTVSPost2010PropOp43
 70
     1
102
RTVSPost2010Prop44ColorIndex
 90
        5
102
RTVSPost2010Prop44ColorRGB
 90
      255
102
RTVSPost2010PropOp44
 70
     1
102
RTVSPost2010Prop45
280
     0
102
RTVSPost2010PropOp45
 70
     1
102
RTVSPost2010Prop46
 90
       50
102
RTVSPost2010PropOp46
 70
     1
102
RTVSPost2010Prop47
 90
       50
102
RTVSPost2010PropOp47
 70
     1
102
RTVSPost2010Prop48
 90
       50
102
RTVSPost2010PropOp48
 70
     1
102
RTVSPost2010Prop49
280
     0
102
RTVSPost2010PropOp49
 70
     1
102
RTVSPost2010Prop50
 90
       50
102
RTVSPost2010PropOp50
 70
     1
102
RTVSPost2010Prop51ColorIndex
 90
      256
102
RTVSPost2010Prop51ColorRGB
 90
-16777216
102
RTVSPost2010PropOp51
 70
     0
102
RTVSPost2010Prop52
140
1.0
102
RTVSPost2010PropOp52
 70
     0
102
RTVSPost2010Prop53
 90
        2
102
RTVSPost2010PropOp53
 70
     1
102
RTVSPost2010Prop54
  1
strokes_ogs.tif
102
RTVSPost2010PropOp54
 70
     1
102
RTVSPost2010Prop55
280
     0
102
RTVSPost2010PropOp55
 70
     1
102
RTVSPost2010Prop56
140
1.0
102
RTVSPost2010PropOp56
 70
     1
102
RTVSPost2010Prop57
140
1.0
102
RTVSPost2010PropOp57
 70
     1
  0
XRECORD
  5
2B9
102
{ACAD_REACTORS
330
2B8
102
}
330
2B8
100
AcDbXrecord
280
     1
102
RTVSPropertyOp0
 70
     0
102
RTVSPropertyOp1
 70
     0
102
RTVSPropertyOp2
 70
     0
102
RTVSPropertyOp3
 70
     0
102
RTVSPropertyOp4
 70
     0
102
RTVSPropertyOp5
 70
     0
102
RTVSPropertyOp6
 70
     0
102
RTVSPropertyOp7
 70
     0
102
RTVSPropertyOp8
 70
     0
102
RTVSPropertyOp9
 70
     0
102
RTVSPropertyOp10
 70
     0
102
RTVSPropertyOp11
 70
     0
102
RTVSPropertyOp12
 70
     0
102
RTVSPropertyOp13
 70
     0
102
RTVSPropertyOp14
 70
     2
102
RTVSPropertyOp15
 70
     0
102
RTVSPropertyOp16
 70
     0
102
RTVSPropertyOp17
 70
     0
102
RTVSPropertyOp18
 70
     0
102
RTVSPropertyOp19
 70
     0
102
RTVSPropertyOp20
 70
     0
102
RTVSPropertyOp21
 70
     0
102
RTVSPropertyOp22
 70
     0
102
RTVSPropertyOp23
 70
     0
102
RTVSPropertyOp24
 70
     0
102
RTVSPropertyOp25
 70
     0
102
RTVSPropertyOp26
 70
     0
102
RTVSPropertyOp27
 70
     0
102
RTVSPropertyOp28
 70
     0
102
RTVSPropertyOp29
 70
     0
102
RTVSPropertyOp30
 70
     0
102
RTVSPropertyOp31
 70
     0
102
RTVSPropertyOp32
 70
     0
102
RTVSPropertyOp33
 70
     0
102
RTVSPropertyOp34
 70
     0
102
RTVSPropertyOp35
 70
     0
102
RTVSPropertyOp36
 70
     0
102
RTVSPropertyOp37
 70
     0
102
RTVSPropertyOp38
 70
     0
102
RTVSPropertyOp39
 70
     0
102
RTVSPropertyOp40
 70
     0
102
RTVSPropertyOp41
 70
     0
102
RTVSPropertyOp42
 70
     0
102
RTVSPropertyOp43
 70
     0
102
RTVSPropertyOp44
 70
     0
102
RTVSPropertyOp45
 70
     0
102
RTVSPropertyOp46
 70
     0
102
RTVSPropertyOp47
 70
     0
102
RTVSPropertyOp48
 70
     0
102
RTVSPropertyOp49
 70
     0
102
RTVSPropertyOp50
 70
     0
102
RTVSPropertyOp51
 70
     0
102
RTVSPropertyOp52
 70
     0
102
RTVSPropertyOp53
 70
     0
102
RTVSPropertyOp54
 70
     0
102
RTVSPropertyOp55
 70
     0
102
RTVSPropertyOp56
 70
     0
102
RTVSPropertyOp57
 70
     0
102
RTVSPost2010Prop28
280
     0
102
RTVSPost2010PropOp28
 70
     0
102
RTVSPost2010Prop29
280
     1
102
RTVSPost2010PropOp29
 70
     0
102
RTVSPost2010Prop30
280
     1
102
RTVSPost2010PropOp30
 70
     0
102
RTVSPost2010Prop31
280
     0
102
RTVSPost2010PropOp31
 70
     0
102
RTVSPost2010Prop32
280
     0
102
RTVSPost2010PropOp32
 70
     0
102
RTVSPost2010Prop33
280
     0
102
RTVSPost2010PropOp33
 70
     0
102
RTVSPost2010Prop34
280
     0
102
RTVSPost2010PropOp34
 70
     0
102
RTVSPost2010Prop35
280
     0
102
RTVSPost2010PropOp35
 70
     0
102
RTVSPost2010Prop36
280
     0
102
RTVSPost2010PropOp36
 70
     0
102
RTVSPost2010Prop37
 90
       50
102
RTVSPost2010PropOp37
 70
     0
102
RTVSPost2010Prop38
140
0.0
102
RTVSPost2010PropOp38
 70
     0
102
RTVSPost2010Prop39
140
1.0
102
RTVSPost2010PropOp39
 70
     0
102
RTVSPost2010Prop40
 90
        0
102
RTVSPost2010PropOp40
 70
     0
102
RTVSPost2010Prop41ColorIndex
 90
       18
102
RTVSPost2010Prop41ColorRGB
 90
        0
102
RTVSPost2010PropOp41
 70
     0
102
RTVSPost2010Prop42
 90
       50
102
RTVSPost2010PropOp42
 70
     0
102
RTVSPost2010Prop43
 90
        3
102
RTVSPost2010PropOp43
 70
     0
102
RTVSPost2010Prop44ColorIndex
 90
        5
102
RTVSPost2010Prop44ColorRGB
 90
      255
102
RTVSPost2010PropOp44
 70
     0
102
RTVSPost2010Prop45
280
     0
102
RTVSPost2010PropOp45
 70
     0
102
RTVSPost2010Prop46
 90
       50
102
RTVSPost2010PropOp46
 70
     0
102
RTVSPost2010Prop47
 90
       50
102
RTVSPost2010PropOp47
 70
     0
102
RTVSPost2010Prop48
 90
       50
102
RTVSPost2010PropOp48
 70
     0
102
RTVSPost2010Prop49
280
     0
102
RTVSPost2010PropOp49
 70
     0
102
RTVSPost2010Prop50
 90
       50
102
RTVSPost2010PropOp50
 70
     0
102
RTVSPost2010Prop51ColorIndex
 90
      256
102
RTVSPost2010Prop51ColorRGB
 90
-16777216
102
RTVSPost2010PropOp51
 70
     0
102
RTVSPost2010Prop52
140
1.0
102
RTVSPost2010PropOp52
 70
     0
102
RTVSPost2010Prop53
 90
        2
102
RTVSPost2010PropOp53
 70
     0
102
RTVSPost2010Prop54
  1
strokes_ogs.tif
102
RTVSPost2010PropOp54
 70
     0
102
RTVSPost2010Prop55
280
     0
102
RTVSPost2010PropOp55
 70
     0
102
RTVSPost2010Prop56
140
1.0
102
RTVSPost2010PropOp56
 70
     0
102
RTVSPost2010Prop57
140
1.0
102
RTVSPost2010PropOp57
 70
     0
  0
XRECORD
  5
2B1
102
{ACAD_REACTORS
330
2B0
102
}
330
2B0
100
AcDbXrecord
280
     1
102
RTVSPropertyOp0
 70
     1
102
RTVSPropertyOp1
 70
     1
102
RTVSPropertyOp2
 70
     1
102
RTVSPropertyOp3
 70
     1
102
RTVSPropertyOp4
 70
     1
102
RTVSPropertyOp5
 70
     1
102
RTVSPropertyOp6
 70
     1
102
RTVSPropertyOp7
 70
     1
102
RTVSPropertyOp8
 70
     1
102
RTVSPropertyOp9
 70
     1
102
RTVSPropertyOp10
 70
     1
102
RTVSPropertyOp11
 70
     1
102
RTVSPropertyOp12
 70
     1
102
RTVSPropertyOp13
 70
     1
102
RTVSPropertyOp14
 70
     1
102
RTVSPropertyOp15
 70
     1
102
RTVSPropertyOp16
 70
     1
102
RTVSPropertyOp17
 70
     1
102
RTVSPropertyOp18
 70
     1
102
RTVSPropertyOp19
 70
     1
102
RTVSPropertyOp20
 70
     1
102
RTVSPropertyOp21
 70
     1
102
RTVSPropertyOp22
 70
     1
102
RTVSPropertyOp23
 70
     1
102
RTVSPropertyOp24
 70
     1
102
RTVSPropertyOp25
 70
     1
102
RTVSPropertyOp26
 70
     1
102
RTVSPropertyOp27
 70
     1
102
RTVSPropertyOp28
 70
     1
102
RTVSPropertyOp29
 70
     1
102
RTVSPropertyOp30
 70
     1
102
RTVSPropertyOp31
 70
     1
102
RTVSPropertyOp32
 70
     1
102
RTVSPropertyOp33
 70
     1
102
RTVSPropertyOp34
 70
     1
102
RTVSPropertyOp35
 70
     1
102
RTVSPropertyOp36
 70
     1
102
RTVSPropertyOp37
 70
     1
102
RTVSPropertyOp38
 70
     1
102
RTVSPropertyOp39
 70
     1
102
RTVSPropertyOp40
 70
     1
102
RTVSPropertyOp41
 70
     1
102
RTVSPropertyOp42
 70
     1
102
RTVSPropertyOp43
 70
     1
102
RTVSPropertyOp44
 70
     1
102
RTVSPropertyOp45
 70
     1
102
RTVSPropertyOp46
 70
     1
102
RTVSPropertyOp47
 70
     1
102
RTVSPropertyOp48
 70
     1
102
RTVSPropertyOp49
 70
     1
102
RTVSPropertyOp50
 70
     1
102
RTVSPropertyOp51
 70
     0
102
RTVSPropertyOp52
 70
     0
102
RTVSPropertyOp53
 70
     1
102
RTVSPropertyOp54
 70
     1
102
RTVSPropertyOp55
 70
     1
102
RTVSPropertyOp56
 70
     1
102
RTVSPropertyOp57
 70
     1
102
RTVSPost2010Prop28
280
     0
102
RTVSPost2010PropOp28
 70
     1
102
RTVSPost2010Prop29
280
     1
102
RTVSPost2010PropOp29
 70
     1
102
RTVSPost2010Prop30
280
     1
102
RTVSPost2010PropOp30
 70
     1
102
RTVSPost2010Prop31
280
     0
102
RTVSPost2010PropOp31
 70
     1
102
RTVSPost2010Prop32
280
     0
102
RTVSPost2010PropOp32
 70
     1
102
RTVSPost2010Prop33
280
     0
102
RTVSPost2010PropOp33
 70
     1
102
RTVSPost2010Prop34
280
     0
102
RTVSPost2010PropOp34
 70
     1
102
RTVSPost2010Prop35
280
     0
102
RTVSPost2010PropOp35
 70
     1
102
RTVSPost2010Prop36
280
     0
102
RTVSPost2010PropOp36
 70
     1
102
RTVSPost2010Prop37
 90
       50
102
RTVSPost2010PropOp37
 70
     1
102
RTVSPost2010Prop38
140
0.0
102
RTVSPost2010PropOp38
 70
     1
102
RTVSPost2010Prop39
140
1.0
102
RTVSPost2010PropOp39
 70
     1
102
RTVSPost2010Prop40
 90
        0
102
RTVSPost2010PropOp40
 70
     1
102
RTVSPost2010Prop41ColorIndex
 90
       18
102
RTVSPost2010Prop41ColorRGB
 90
        0
102
RTVSPost2010PropOp41
 70
     1
102
RTVSPost2010Prop42
 90
       50
102
RTVSPost2010PropOp42
 70
     1
102
RTVSPost2010Prop43
 90
        3
102
RTVSPost2010PropOp43
 70
     1
102
RTVSPost2010Prop44ColorIndex
 90
        5
102
RTVSPost2010Prop44ColorRGB
 90
      255
102
RTVSPost2010PropOp44
 70
     1
102
RTVSPost2010Prop45
280
     0
102
RTVSPost2010PropOp45
 70
     1
102
RTVSPost2010Prop46
 90
       50
102
RTVSPost2010PropOp46
 70
     1
102
RTVSPost2010Prop47
 90
       50
102
RTVSPost2010PropOp47
 70
     1
102
RTVSPost2010Prop48
 90
       50
102
RTVSPost2010PropOp48
 70
     1
102
RTVSPost2010Prop49
280
     0
102
RTVSPost2010PropOp49
 70
     1
102
RTVSPost2010Prop50
 90
       50
102
RTVSPost2010PropOp50
 70
     1
102
RTVSPost2010Prop51ColorIndex
 90
      256
102
RTVSPost2010Prop51ColorRGB
 90
-16777216
102
RTVSPost2010PropOp51
 70
     0
102
RTVSPost2010Prop52
140
1.0
102
RTVSPost2010PropOp52
 70
     0
102
RTVSPost2010Prop53
 90
        2
102
RTVSPost2010PropOp53
 70
     1
102
RTVSPost2010Prop54
  1
strokes_ogs.tif
102
RTVSPost2010PropOp54
 70
     1
102
RTVSPost2010Prop55
280
     0
102
RTVSPost2010PropOp55
 70
     1
102
RTVSPost2010Prop56
140
1.0
102
RTVSPost2010PropOp56
 70
     1
102
RTVSPost2010Prop57
140
1.0
102
RTVSPost2010PropOp57
 70
     1
  0
XRECORD
  5
295
102
{ACAD_REACTORS
330
294
102
}
330
294
100
AcDbXrecord
280
     1
102
RTVSPropertyOp0
 70
     1
102
RTVSPropertyOp1
 70
     1
102
RTVSPropertyOp2
 70
     1
102
RTVSPropertyOp3
 70
     1
102
RTVSPropertyOp4
 70
     1
102
RTVSPropertyOp5
 70
     1
102
RTVSPropertyOp6
 70
     1
102
RTVSPropertyOp7
 70
     1
102
RTVSPropertyOp8
 70
     1
102
RTVSPropertyOp9
 70
     1
102
RTVSPropertyOp10
 70
     1
102
RTVSPropertyOp11
 70
     1
102
RTVSPropertyOp12
 70
     1
102
RTVSPropertyOp13
 70
     1
102
RTVSPropertyOp14
 70
     1
102
RTVSPropertyOp15
 70
     1
102
RTVSPropertyOp16
 70
     1
102
RTVSPropertyOp17
 70
     1
102
RTVSPropertyOp18
 70
     1
102
RTVSPropertyOp19
 70
     1
102
RTVSPropertyOp20
 70
     1
102
RTVSPropertyOp21
 70
     1
102
RTVSPropertyOp22
 70
     1
102
RTVSPropertyOp23
 70
     1
102
RTVSPropertyOp24
 70
     1
102
RTVSPropertyOp25
 70
     1
102
RTVSPropertyOp26
 70
     1
102
RTVSPropertyOp27
 70
     1
102
RTVSPropertyOp28
 70
     1
102
RTVSPropertyOp29
 70
     1
102
RTVSPropertyOp30
 70
     1
102
RTVSPropertyOp31
 70
     1
102
RTVSPropertyOp32
 70
     1
102
RTVSPropertyOp33
 70
     1
102
RTVSPropertyOp34
 70
     1
102
RTVSPropertyOp35
 70
     1
102
RTVSPropertyOp36
 70
     1
102
RTVSPropertyOp37
 70
     1
102
RTVSPropertyOp38
 70
     1
102
RTVSPropertyOp39
 70
     1
102
RTVSPropertyOp40
 70
     1
102
RTVSPropertyOp41
 70
     1
102
RTVSPropertyOp42
 70
     1
102
RTVSPropertyOp43
 70
     1
102
RTVSPropertyOp44
 70
     1
102
RTVSPropertyOp45
 70
     1
102
RTVSPropertyOp46
 70
     1
102
RTVSPropertyOp47
 70
     1
102
RTVSPropertyOp48
 70
     1
102
RTVSPropertyOp49
 70
     1
102
RTVSPropertyOp50
 70
     1
102
RTVSPropertyOp51
 70
     0
102
RTVSPropertyOp52
 70
     0
102
RTVSPropertyOp53
 70
     1
102
RTVSPropertyOp54
 70
     1
102
RTVSPropertyOp55
 70
     1
102
RTVSPropertyOp56
 70
     1
102
RTVSPropertyOp57
 70
     1
102
RTVSPost2010Prop28
280
     0
102
RTVSPost2010PropOp28
 70
     1
102
RTVSPost2010Prop29
280
     1
102
RTVSPost2010PropOp29
 70
     1
102
RTVSPost2010Prop30
280
     1
102
RTVSPost2010PropOp30
 70
     1
102
RTVSPost2010Prop31
280
     0
102
RTVSPost2010PropOp31
 70
     1
102
RTVSPost2010Prop32
280
     0
102
RTVSPost2010PropOp32
 70
     1
102
RTVSPost2010Prop33
280
     0
102
RTVSPost2010PropOp33
 70
     1
102
RTVSPost2010Prop34
280
     0
102
RTVSPost2010PropOp34
 70
     1
102
RTVSPost2010Prop35
280
     0
102
RTVSPost2010PropOp35
 70
     1
102
RTVSPost2010Prop36
280
     0
102
RTVSPost2010PropOp36
 70
     1
102
RTVSPost2010Prop37
 90
       50
102
RTVSPost2010PropOp37
 70
     1
102
RTVSPost2010Prop38
140
0.0
102
RTVSPost2010PropOp38
 70
     1
102
RTVSPost2010Prop39
140
1.0
102
RTVSPost2010PropOp39
 70
     1
102
RTVSPost2010Prop40
 90
        0
102
RTVSPost2010PropOp40
 70
     1
102
RTVSPost2010Prop41ColorIndex
 90
       18
102
RTVSPost2010Prop41ColorRGB
 90
        0
102
RTVSPost2010PropOp41
 70
     1
102
RTVSPost2010Prop42
 90
       50
102
RTVSPost2010PropOp42
 70
     1
102
RTVSPost2010Prop43
 90
        3
102
RTVSPost2010PropOp43
 70
     1
102
RTVSPost2010Prop44ColorIndex
 90
        5
102
RTVSPost2010Prop44ColorRGB
 90
      255
102
RTVSPost2010PropOp44
 70
     1
102
RTVSPost2010Prop45
280
     0
102
RTVSPost2010PropOp45
 70
     1
102
RTVSPost2010Prop46
 90
       50
102
RTVSPost2010PropOp46
 70
     1
102
RTVSPost2010Prop47
 90
       50
102
RTVSPost2010PropOp47
 70
     1
102
RTVSPost2010Prop48
 90
       50
102
RTVSPost2010PropOp48
 70
     1
102
RTVSPost2010Prop49
280
     0
102
RTVSPost2010PropOp49
 70
     1
102
RTVSPost2010Prop50
 90
       50
102
RTVSPost2010PropOp50
 70
     1
102
RTVSPost2010Prop51ColorIndex
 90
      256
102
RTVSPost2010Prop51ColorRGB
 90
-16777216
102
RTVSPost2010PropOp51
 70
     0
102
RTVSPost2010Prop52
140
1.0
102
RTVSPost2010PropOp52
 70
     0
102
RTVSPost2010Prop53
 90
        2
102
RTVSPost2010PropOp53
 70
     1
102
RTVSPost2010Prop54
  1
strokes_ogs.tif
102
RTVSPost2010PropOp54
 70
     1
102
RTVSPost2010Prop55
280
     0
102
RTVSPost2010PropOp55
 70
     1
102
RTVSPost2010Prop56
140
1.0
102
RTVSPost2010PropOp56
 70
     1
102
RTVSPost2010Prop57
140
1.0
102
RTVSPost2010PropOp57
 70
     1
  0
XRECORD
  5
297
102
{ACAD_REACTORS
330
296
102
}
330
296
100
AcDbXrecord
280
     1
102
RTVSPropertyOp0
 70
     1
102
RTVSPropertyOp1
 70
     1
102
RTVSPropertyOp2
 70
     1
102
RTVSPropertyOp3
 70
     1
102
RTVSPropertyOp4
 70
     1
102
RTVSPropertyOp5
 70
     1
102
RTVSPropertyOp6
 70
     1
102
RTVSPropertyOp7
 70
     1
102
RTVSPropertyOp8
 70
     1
102
RTVSPropertyOp9
 70
     1
102
RTVSPropertyOp10
 70
     1
102
RTVSPropertyOp11
 70
     1
102
RTVSPropertyOp12
 70
     1
102
RTVSPropertyOp13
 70
     1
102
RTVSPropertyOp14
 70
     1
102
RTVSPropertyOp15
 70
     1
102
RTVSPropertyOp16
 70
     1
102
RTVSPropertyOp17
 70
     1
102
RTVSPropertyOp18
 70
     1
102
RTVSPropertyOp19
 70
     1
102
RTVSPropertyOp20
 70
     1
102
RTVSPropertyOp21
 70
     1
102
RTVSPropertyOp22
 70
     1
102
RTVSPropertyOp23
 70
     1
102
RTVSPropertyOp24
 70
     1
102
RTVSPropertyOp25
 70
     1
102
RTVSPropertyOp26
 70
     1
102
RTVSPropertyOp27
 70
     1
102
RTVSPropertyOp28
 70
     1
102
RTVSPropertyOp29
 70
     1
102
RTVSPropertyOp30
 70
     1
102
RTVSPropertyOp31
 70
     1
102
RTVSPropertyOp32
 70
     1
102
RTVSPropertyOp33
 70
     1
102
RTVSPropertyOp34
 70
     1
102
RTVSPropertyOp35
 70
     1
102
RTVSPropertyOp36
 70
     1
102
RTVSPropertyOp37
 70
     1
102
RTVSPropertyOp38
 70
     1
102
RTVSPropertyOp39
 70
     1
102
RTVSPropertyOp40
 70
     1
102
RTVSPropertyOp41
 70
     1
102
RTVSPropertyOp42
 70
     1
102
RTVSPropertyOp43
 70
     1
102
RTVSPropertyOp44
 70
     1
102
RTVSPropertyOp45
 70
     1
102
RTVSPropertyOp46
 70
     1
102
RTVSPropertyOp47
 70
     1
102
RTVSPropertyOp48
 70
     1
102
RTVSPropertyOp49
 70
     1
102
RTVSPropertyOp50
 70
     1
102
RTVSPropertyOp51
 70
     0
102
RTVSPropertyOp52
 70
     0
102
RTVSPropertyOp53
 70
     1
102
RTVSPropertyOp54
 70
     1
102
RTVSPropertyOp55
 70
     1
102
RTVSPropertyOp56
 70
     1
102
RTVSPropertyOp57
 70
     1
102
RTVSPost2010Prop28
280
     0
102
RTVSPost2010PropOp28
 70
     1
102
RTVSPost2010Prop29
280
     1
102
RTVSPost2010PropOp29
 70
     1
102
RTVSPost2010Prop30
280
     1
102
RTVSPost2010PropOp30
 70
     1
102
RTVSPost2010Prop31
280
     0
102
RTVSPost2010PropOp31
 70
     1
102
RTVSPost2010Prop32
280
     0
102
RTVSPost2010PropOp32
 70
     1
102
RTVSPost2010Prop33
280
     0
102
RTVSPost2010PropOp33
 70
     1
102
RTVSPost2010Prop34
280
     0
102
RTVSPost2010PropOp34
 70
     1
102
RTVSPost2010Prop35
280
     0
102
RTVSPost2010PropOp35
 70
     1
102
RTVSPost2010Prop36
280
     0
102
RTVSPost2010PropOp36
 70
     1
102
RTVSPost2010Prop37
 90
       50
102
RTVSPost2010PropOp37
 70
     1
102
RTVSPost2010Prop38
140
0.0
102
RTVSPost2010PropOp38
 70
     1
102
RTVSPost2010Prop39
140
1.0
102
RTVSPost2010PropOp39
 70
     1
102
RTVSPost2010Prop40
 90
        0
102
RTVSPost2010PropOp40
 70
     1
102
RTVSPost2010Prop41ColorIndex
 90
       18
102
RTVSPost2010Prop41ColorRGB
 90
        0
102
RTVSPost2010PropOp41
 70
     1
102
RTVSPost2010Prop42
 90
       50
102
RTVSPost2010PropOp42
 70
     1
102
RTVSPost2010Prop43
 90
        3
102
RTVSPost2010PropOp43
 70
     1
102
RTVSPost2010Prop44ColorIndex
 90
        5
102
RTVSPost2010Prop44ColorRGB
 90
      255
102
RTVSPost2010PropOp44
 70
     1
102
RTVSPost2010Prop45
280
     0
102
RTVSPost2010PropOp45
 70
     1
102
RTVSPost2010Prop46
 90
       50
102
RTVSPost2010PropOp46
 70
     1
102
RTVSPost2010Prop47
 90
       50
102
RTVSPost2010PropOp47
 70
     1
102
RTVSPost2010Prop48
 90
       50
102
RTVSPost2010PropOp48
 70
     1
102
RTVSPost2010Prop49
280
     0
102
RTVSPost2010PropOp49
 70
     1
102
RTVSPost2010Prop50
 90
       50
102
RTVSPost2010PropOp50
 70
     1
102
RTVSPost2010Prop51ColorIndex
 90
      256
102
RTVSPost2010Prop51ColorRGB
 90
-16777216
102
RTVSPost2010PropOp51
 70
     0
102
RTVSPost2010Prop52
140
1.0
102
RTVSPost2010PropOp52
 70
     0
102
RTVSPost2010Prop53
 90
        2
102
RTVSPost2010PropOp53
 70
     1
102
RTVSPost2010Prop54
  1
strokes_ogs.tif
102
RTVSPost2010PropOp54
 70
     1
102
RTVSPost2010Prop55
280
     0
102
RTVSPost2010PropOp55
 70
     1
102
RTVSPost2010Prop56
140
1.0
102
RTVSPost2010PropOp56
 70
     1
102
RTVSPost2010Prop57
140
1.0
102
RTVSPost2010PropOp57
 70
     1
  0
XRECORD
  5
299
102
{ACAD_REACTORS
330
298
102
}
330
298
100
AcDbXrecord
280
     1
102
RTVSPropertyOp0
 70
     1
102
RTVSPropertyOp1
 70
     1
102
RTVSPropertyOp2
 70
     1
102
RTVSPropertyOp3
 70
     1
102
RTVSPropertyOp4
 70
     1
102
RTVSPropertyOp5
 70
     1
102
RTVSPropertyOp6
 70
     1
102
RTVSPropertyOp7
 70
     1
102
RTVSPropertyOp8
 70
     1
102
RTVSPropertyOp9
 70
     1
102
RTVSPropertyOp10
 70
     1
102
RTVSPropertyOp11
 70
     1
102
RTVSPropertyOp12
 70
     1
102
RTVSPropertyOp13
 70
     1
102
RTVSPropertyOp14
 70
     1
102
RTVSPropertyOp15
 70
     1
102
RTVSPropertyOp16
 70
     1
102
RTVSPropertyOp17
 70
     1
102
RTVSPropertyOp18
 70
     1
102
RTVSPropertyOp19
 70
     1
102
RTVSPropertyOp20
 70
     1
102
RTVSPropertyOp21
 70
     1
102
RTVSPropertyOp22
 70
     1
102
RTVSPropertyOp23
 70
     1
102
RTVSPropertyOp24
 70
     1
102
RTVSPropertyOp25
 70
     1
102
RTVSPropertyOp26
 70
     1
102
RTVSPropertyOp27
 70
     1
102
RTVSPropertyOp28
 70
     1
102
RTVSPropertyOp29
 70
     1
102
RTVSPropertyOp30
 70
     1
102
RTVSPropertyOp31
 70
     1
102
RTVSPropertyOp32
 70
     1
102
RTVSPropertyOp33
 70
     1
102
RTVSPropertyOp34
 70
     1
102
RTVSPropertyOp35
 70
     1
102
RTVSPropertyOp36
 70
     1
102
RTVSPropertyOp37
 70
     1
102
RTVSPropertyOp38
 70
     1
102
RTVSPropertyOp39
 70
     1
102
RTVSPropertyOp40
 70
     1
102
RTVSPropertyOp41
 70
     1
102
RTVSPropertyOp42
 70
     1
102
RTVSPropertyOp43
 70
     1
102
RTVSPropertyOp44
 70
     1
102
RTVSPropertyOp45
 70
     1
102
RTVSPropertyOp46
 70
     1
102
RTVSPropertyOp47
 70
     1
102
RTVSPropertyOp48
 70
     1
102
RTVSPropertyOp49
 70
     1
102
RTVSPropertyOp50
 70
     1
102
RTVSPropertyOp51
 70
     0
102
RTVSPropertyOp52
 70
     0
102
RTVSPropertyOp53
 70
     1
102
RTVSPropertyOp54
 70
     1
102
RTVSPropertyOp55
 70
     1
102
RTVSPropertyOp56
 70
     1
102
RTVSPropertyOp57
 70
     1
102
RTVSPost2010Prop28
280
     0
102
RTVSPost2010PropOp28
 70
     1
102
RTVSPost2010Prop29
280
     1
102
RTVSPost2010PropOp29
 70
     1
102
RTVSPost2010Prop30
280
     1
102
RTVSPost2010PropOp30
 70
     1
102
RTVSPost2010Prop31
280
     0
102
RTVSPost2010PropOp31
 70
     1
102
RTVSPost2010Prop32
280
     0
102
RTVSPost2010PropOp32
 70
     1
102
RTVSPost2010Prop33
280
     0
102
RTVSPost2010PropOp33
 70
     1
102
RTVSPost2010Prop34
280
     0
102
RTVSPost2010PropOp34
 70
     1
102
RTVSPost2010Prop35
280
     0
102
RTVSPost2010PropOp35
 70
     1
102
RTVSPost2010Prop36
280
     0
102
RTVSPost2010PropOp36
 70
     1
102
RTVSPost2010Prop37
 90
       50
102
RTVSPost2010PropOp37
 70
     1
102
RTVSPost2010Prop38
140
0.0
102
RTVSPost2010PropOp38
 70
     1
102
RTVSPost2010Prop39
140
1.0
102
RTVSPost2010PropOp39
 70
     1
102
RTVSPost2010Prop40
 90
        0
102
RTVSPost2010PropOp40
 70
     1
102
RTVSPost2010Prop41ColorIndex
 90
       18
102
RTVSPost2010Prop41ColorRGB
 90
        0
102
RTVSPost2010PropOp41
 70
     1
102
RTVSPost2010Prop42
 90
       50
102
RTVSPost2010PropOp42
 70
     1
102
RTVSPost2010Prop43
 90
        3
102
RTVSPost2010PropOp43
 70
     1
102
RTVSPost2010Prop44ColorIndex
 90
        5
102
RTVSPost2010Prop44ColorRGB
 90
      255
102
RTVSPost2010PropOp44
 70
     1
102
RTVSPost2010Prop45
280
     0
102
RTVSPost2010PropOp45
 70
     1
102
RTVSPost2010Prop46
 90
       50
102
RTVSPost2010PropOp46
 70
     1
102
RTVSPost2010Prop47
 90
       50
102
RTVSPost2010PropOp47
 70
     1
102
RTVSPost2010Prop48
 90
       50
102
RTVSPost2010PropOp48
 70
     1
102
RTVSPost2010Prop49
280
     0
102
RTVSPost2010PropOp49
 70
     1
102
RTVSPost2010Prop50
 90
       50
102
RTVSPost2010PropOp50
 70
     1
102
RTVSPost2010Prop51ColorIndex
 90
      256
102
RTVSPost2010Prop51ColorRGB
 90
-16777216
102
RTVSPost2010PropOp51
 70
     0
102
RTVSPost2010Prop52
140
1.0
102
RTVSPost2010PropOp52
 70
     0
102
RTVSPost2010Prop53
 90
        2
102
RTVSPost2010PropOp53
 70
     1
102
RTVSPost2010Prop54
  1
strokes_ogs.tif
102
RTVSPost2010PropOp54
 70
     1
102
RTVSPost2010Prop55
280
     0
102
RTVSPost2010PropOp55
 70
     1
102
RTVSPost2010Prop56
140
1.0
102
RTVSPost2010PropOp56
 70
     1
102
RTVSPost2010Prop57
140
1.0
102
RTVSPost2010PropOp57
 70
     1
  0
XRECORD
  5
29B
102
{ACAD_REACTORS
330
29A
102
}
330
29A
100
AcDbXrecord
280
     1
102
RTVSPropertyOp0
 70
     1
102
RTVSPropertyOp1
 70
     1
102
RTVSPropertyOp2
 70
     1
102
RTVSPropertyOp3
 70
     1
102
RTVSPropertyOp4
 70
     1
102
RTVSPropertyOp5
 70
     1
102
RTVSPropertyOp6
 70
     1
102
RTVSPropertyOp7
 70
     1
102
RTVSPropertyOp8
 70
     1
102
RTVSPropertyOp9
 70
     1
102
RTVSPropertyOp10
 70
     1
102
RTVSPropertyOp11
 70
     1
102
RTVSPropertyOp12
 70
     1
102
RTVSPropertyOp13
 70
     1
102
RTVSPropertyOp14
 70
     1
102
RTVSPropertyOp15
 70
     1
102
RTVSPropertyOp16
 70
     1
102
RTVSPropertyOp17
 70
     1
102
RTVSPropertyOp18
 70
     1
102
RTVSPropertyOp19
 70
     1
102
RTVSPropertyOp20
 70
     1
102
RTVSPropertyOp21
 70
     1
102
RTVSPropertyOp22
 70
     1
102
RTVSPropertyOp23
 70
     1
102
RTVSPropertyOp24
 70
     1
102
RTVSPropertyOp25
 70
     1
102
RTVSPropertyOp26
 70
     1
102
RTVSPropertyOp27
 70
     1
102
RTVSPropertyOp28
 70
     1
102
RTVSPropertyOp29
 70
     1
102
RTVSPropertyOp30
 70
     1
102
RTVSPropertyOp31
 70
     1
102
RTVSPropertyOp32
 70
     1
102
RTVSPropertyOp33
 70
     1
102
RTVSPropertyOp34
 70
     1
102
RTVSPropertyOp35
 70
     1
102
RTVSPropertyOp36
 70
     1
102
RTVSPropertyOp37
 70
     1
102
RTVSPropertyOp38
 70
     1
102
RTVSPropertyOp39
 70
     1
102
RTVSPropertyOp40
 70
     1
102
RTVSPropertyOp41
 70
     1
102
RTVSPropertyOp42
 70
     1
102
RTVSPropertyOp43
 70
     1
102
RTVSPropertyOp44
 70
     1
102
RTVSPropertyOp45
 70
     1
102
RTVSPropertyOp46
 70
     1
102
RTVSPropertyOp47
 70
     1
102
RTVSPropertyOp48
 70
     1
102
RTVSPropertyOp49
 70
     1
102
RTVSPropertyOp50
 70
     1
102
RTVSPropertyOp51
 70
     0
102
RTVSPropertyOp52
 70
     0
102
RTVSPropertyOp53
 70
     1
102
RTVSPropertyOp54
 70
     1
102
RTVSPropertyOp55
 70
     1
102
RTVSPropertyOp56
 70
     1
102
RTVSPropertyOp57
 70
     1
102
RTVSPost2010Prop28
280
     0
102
RTVSPost2010PropOp28
 70
     1
102
RTVSPost2010Prop29
280
     1
102
RTVSPost2010PropOp29
 70
     1
102
RTVSPost2010Prop30
280
     1
102
RTVSPost2010PropOp30
 70
     1
102
RTVSPost2010Prop31
280
     0
102
RTVSPost2010PropOp31
 70
     1
102
RTVSPost2010Prop32
280
     0
102
RTVSPost2010PropOp32
 70
     1
102
RTVSPost2010Prop33
280
     0
102
RTVSPost2010PropOp33
 70
     1
102
RTVSPost2010Prop34
280
     0
102
RTVSPost2010PropOp34
 70
     1
102
RTVSPost2010Prop35
280
     0
102
RTVSPost2010PropOp35
 70
     1
102
RTVSPost2010Prop36
280
     0
102
RTVSPost2010PropOp36
 70
     1
102
RTVSPost2010Prop37
 90
       50
102
RTVSPost2010PropOp37
 70
     1
102
RTVSPost2010Prop38
140
0.0
102
RTVSPost2010PropOp38
 70
     1
102
RTVSPost2010Prop39
140
1.0
102
RTVSPost2010PropOp39
 70
     1
102
RTVSPost2010Prop40
 90
        0
102
RTVSPost2010PropOp40
 70
     1
102
RTVSPost2010Prop41ColorIndex
 90
       18
102
RTVSPost2010Prop41ColorRGB
 90
        0
102
RTVSPost2010PropOp41
 70
     1
102
RTVSPost2010Prop42
 90
       50
102
RTVSPost2010PropOp42
 70
     1
102
RTVSPost2010Prop43
 90
        3
102
RTVSPost2010PropOp43
 70
     1
102
RTVSPost2010Prop44ColorIndex
 90
        5
102
RTVSPost2010Prop44ColorRGB
 90
      255
102
RTVSPost2010PropOp44
 70
     1
102
RTVSPost2010Prop45
280
     0
102
RTVSPost2010PropOp45
 70
     1
102
RTVSPost2010Prop46
 90
       50
102
RTVSPost2010PropOp46
 70
     1
102
RTVSPost2010Prop47
 90
       50
102
RTVSPost2010PropOp47
 70
     1
102
RTVSPost2010Prop48
 90
       50
102
RTVSPost2010PropOp48
 70
     1
102
RTVSPost2010Prop49
280
     0
102
RTVSPost2010PropOp49
 70
     1
102
RTVSPost2010Prop50
 90
       50
102
RTVSPost2010PropOp50
 70
     1
102
RTVSPost2010Prop51ColorIndex
 90
      256
102
RTVSPost2010Prop51ColorRGB
 90
-16777216
102
RTVSPost2010PropOp51
 70
     0
102
RTVSPost2010Prop52
140
1.0
102
RTVSPost2010PropOp52
 70
     0
102
RTVSPost2010Prop53
 90
        2
102
RTVSPost2010PropOp53
 70
     1
102
RTVSPost2010Prop54
  1
strokes_ogs.tif
102
RTVSPost2010PropOp54
 70
     1
102
RTVSPost2010Prop55
280
     0
102
RTVSPost2010PropOp55
 70
     1
102
RTVSPost2010Prop56
140
1.0
102
RTVSPost2010PropOp56
 70
     1
102
RTVSPost2010Prop57
140
1.0
102
RTVSPost2010PropOp57
 70
     1
  0
XRECORD
  5
2A1
102
{ACAD_REACTORS
330
2A0
102
}
330
2A0
100
AcDbXrecord
280
     1
102
RTVSPropertyOp0
 70
     1
102
RTVSPropertyOp1
 70
     1
102
RTVSPropertyOp2
 70
     1
102
RTVSPropertyOp3
 70
     1
102
RTVSPropertyOp4
 70
     1
102
RTVSPropertyOp5
 70
     1
102
RTVSPropertyOp6
 70
     1
102
RTVSPropertyOp7
 70
     1
102
RTVSPropertyOp8
 70
     1
102
RTVSPropertyOp9
 70
     1
102
RTVSPropertyOp10
 70
     1
102
RTVSPropertyOp11
 70
     1
102
RTVSPropertyOp12
 70
     1
102
RTVSPropertyOp13
 70
     1
102
RTVSPropertyOp14
 70
     1
102
RTVSPropertyOp15
 70
     1
102
RTVSPropertyOp16
 70
     1
102
RTVSPropertyOp17
 70
     1
102
RTVSPropertyOp18
 70
     1
102
RTVSPropertyOp19
 70
     1
102
RTVSPropertyOp20
 70
     1
102
RTVSPropertyOp21
 70
     1
102
RTVSPropertyOp22
 70
     1
102
RTVSPropertyOp23
 70
     1
102
RTVSPropertyOp24
 70
     1
102
RTVSPropertyOp25
 70
     1
102
RTVSPropertyOp26
 70
     1
102
RTVSPropertyOp27
 70
     1
102
RTVSPropertyOp28
 70
     1
102
RTVSPropertyOp29
 70
     1
102
RTVSPropertyOp30
 70
     1
102
RTVSPropertyOp31
 70
     1
102
RTVSPropertyOp32
 70
     1
102
RTVSPropertyOp33
 70
     1
102
RTVSPropertyOp34
 70
     1
102
RTVSPropertyOp35
 70
     1
102
RTVSPropertyOp36
 70
     1
102
RTVSPropertyOp37
 70
     1
102
RTVSPropertyOp38
 70
     1
102
RTVSPropertyOp39
 70
     1
102
RTVSPropertyOp40
 70
     1
102
RTVSPropertyOp41
 70
     1
102
RTVSPropertyOp42
 70
     1
102
RTVSPropertyOp43
 70
     1
102
RTVSPropertyOp44
 70
     1
102
RTVSPropertyOp45
 70
     1
102
RTVSPropertyOp46
 70
     1
102
RTVSPropertyOp47
 70
     1
102
RTVSPropertyOp48
 70
     1
102
RTVSPropertyOp49
 70
     1
102
RTVSPropertyOp50
 70
     1
102
RTVSPropertyOp51
 70
     0
102
RTVSPropertyOp52
 70
     0
102
RTVSPropertyOp53
 70
     1
102
RTVSPropertyOp54
 70
     1
102
RTVSPropertyOp55
 70
     1
102
RTVSPropertyOp56
 70
     1
102
RTVSPropertyOp57
 70
     1
102
RTVSPost2010Prop28
280
     0
102
RTVSPost2010PropOp28
 70
     1
102
RTVSPost2010Prop29
280
     1
102
RTVSPost2010PropOp29
 70
     1
102
RTVSPost2010Prop30
280
     1
102
RTVSPost2010PropOp30
 70
     1
102
RTVSPost2010Prop31
280
     0
102
RTVSPost2010PropOp31
 70
     1
102
RTVSPost2010Prop32
280
     0
102
RTVSPost2010PropOp32
 70
     1
102
RTVSPost2010Prop33
280
     0
102
RTVSPost2010PropOp33
 70
     1
102
RTVSPost2010Prop34
280
     0
102
RTVSPost2010PropOp34
 70
     1
102
RTVSPost2010Prop35
280
     0
102
RTVSPost2010PropOp35
 70
     1
102
RTVSPost2010Prop36
280
     0
102
RTVSPost2010PropOp36
 70
     1
102
RTVSPost2010Prop37
 90
       50
102
RTVSPost2010PropOp37
 70
     1
102
RTVSPost2010Prop38
140
0.0
102
RTVSPost2010PropOp38
 70
     1
102
RTVSPost2010Prop39
140
1.0
102
RTVSPost2010PropOp39
 70
     1
102
RTVSPost2010Prop40
 90
        0
102
RTVSPost2010PropOp40
 70
     1
102
RTVSPost2010Prop41ColorIndex
 90
       18
102
RTVSPost2010Prop41ColorRGB
 90
        0
102
RTVSPost2010PropOp41
 70
     1
102
RTVSPost2010Prop42
 90
       50
102
RTVSPost2010PropOp42
 70
     1
102
RTVSPost2010Prop43
 90
        3
102
RTVSPost2010PropOp43
 70
     1
102
RTVSPost2010Prop44ColorIndex
 90
        5
102
RTVSPost2010Prop44ColorRGB
 90
      255
102
RTVSPost2010PropOp44
 70
     1
102
RTVSPost2010Prop45
280
     0
102
RTVSPost2010PropOp45
 70
     1
102
RTVSPost2010Prop46
 90
       50
102
RTVSPost2010PropOp46
 70
     1
102
RTVSPost2010Prop47
 90
       50
102
RTVSPost2010PropOp47
 70
     1
102
RTVSPost2010Prop48
 90
       50
102
RTVSPost2010PropOp48
 70
     1
102
RTVSPost2010Prop49
280
     0
102
RTVSPost2010PropOp49
 70
     1
102
RTVSPost2010Prop50
 90
       50
102
RTVSPost2010PropOp50
 70
     1
102
RTVSPost2010Prop51ColorIndex
 90
      256
102
RTVSPost2010Prop51ColorRGB
 90
-16777216
102
RTVSPost2010PropOp51
 70
     0
102
RTVSPost2010Prop52
140
1.0
102
RTVSPost2010PropOp52
 70
     0
102
RTVSPost2010Prop53
 90
        2
102
RTVSPost2010PropOp53
 70
     1
102
RTVSPost2010Prop54
  1
strokes_ogs.tif
102
RTVSPost2010PropOp54
 70
     1
102
RTVSPost2010Prop55
280
     0
102
RTVSPost2010PropOp55
 70
     1
102
RTVSPost2010Prop56
140
1.0
102
RTVSPost2010PropOp56
 70
     1
102
RTVSPost2010Prop57
140
1.0
102
RTVSPost2010PropOp57
 70
     1
  0
XRECORD
  5
2B5
102
{ACAD_REACTORS
330
2B4
102
}
330
2B4
100
AcDbXrecord
280
     1
102
RTVSPropertyOp0
 70
     0
102
RTVSPropertyOp1
 70
     0
102
RTVSPropertyOp2
 70
     0
102
RTVSPropertyOp3
 70
     0
102
RTVSPropertyOp4
 70
     0
102
RTVSPropertyOp5
 70
     0
102
RTVSPropertyOp6
 70
     0
102
RTVSPropertyOp7
 70
     0
102
RTVSPropertyOp8
 70
     0
102
RTVSPropertyOp9
 70
     0
102
RTVSPropertyOp10
 70
     0
102
RTVSPropertyOp11
 70
     0
102
RTVSPropertyOp12
 70
     0
102
RTVSPropertyOp13
 70
     0
102
RTVSPropertyOp14
 70
     2
102
RTVSPropertyOp15
 70
     0
102
RTVSPropertyOp16
 70
     0
102
RTVSPropertyOp17
 70
     0
102
RTVSPropertyOp18
 70
     0
102
RTVSPropertyOp19
 70
     0
102
RTVSPropertyOp20
 70
     0
102
RTVSPropertyOp21
 70
     0
102
RTVSPropertyOp22
 70
     0
102
RTVSPropertyOp23
 70
     0
102
RTVSPropertyOp24
 70
     0
102
RTVSPropertyOp25
 70
     0
102
RTVSPropertyOp26
 70
     0
102
RTVSPropertyOp27
 70
     0
102
RTVSPropertyOp28
 70
     0
102
RTVSPropertyOp29
 70
     0
102
RTVSPropertyOp30
 70
     0
102
RTVSPropertyOp31
 70
     0
102
RTVSPropertyOp32
 70
     0
102
RTVSPropertyOp33
 70
     0
102
RTVSPropertyOp34
 70
     0
102
RTVSPropertyOp35
 70
     0
102
RTVSPropertyOp36
 70
     0
102
RTVSPropertyOp37
 70
     0
102
RTVSPropertyOp38
 70
     0
102
RTVSPropertyOp39
 70
     0
102
RTVSPropertyOp40
 70
     0
102
RTVSPropertyOp41
 70
     0
102
RTVSPropertyOp42
 70
     0
102
RTVSPropertyOp43
 70
     0
102
RTVSPropertyOp44
 70
     0
102
RTVSPropertyOp45
 70
     0
102
RTVSPropertyOp46
 70
     0
102
RTVSPropertyOp47
 70
     0
102
RTVSPropertyOp48
 70
     0
102
RTVSPropertyOp49
 70
     0
102
RTVSPropertyOp50
 70
     0
102
RTVSPropertyOp51
 70
     0
102
RTVSPropertyOp52
 70
     0
102
RTVSPropertyOp53
 70
     0
102
RTVSPropertyOp54
 70
     0
102
RTVSPropertyOp55
 70
     0
102
RTVSPropertyOp56
 70
     0
102
RTVSPropertyOp57
 70
     0
102
RTVSPost2010Prop28
280
     0
102
RTVSPost2010PropOp28
 70
     0
102
RTVSPost2010Prop29
280
     1
102
RTVSPost2010PropOp29
 70
     0
102
RTVSPost2010Prop30
280
     1
102
RTVSPost2010PropOp30
 70
     0
102
RTVSPost2010Prop31
280
     0
102
RTVSPost2010PropOp31
 70
     0
102
RTVSPost2010Prop32
280
     0
102
RTVSPost2010PropOp32
 70
     0
102
RTVSPost2010Prop33
280
     0
102
RTVSPost2010PropOp33
 70
     0
102
RTVSPost2010Prop34
280
     0
102
RTVSPost2010PropOp34
 70
     0
102
RTVSPost2010Prop35
280
     0
102
RTVSPost2010PropOp35
 70
     0
102
RTVSPost2010Prop36
280
     0
102
RTVSPost2010PropOp36
 70
     0
102
RTVSPost2010Prop37
 90
       50
102
RTVSPost2010PropOp37
 70
     0
102
RTVSPost2010Prop38
140
0.0
102
RTVSPost2010PropOp38
 70
     0
102
RTVSPost2010Prop39
140
1.0
102
RTVSPost2010PropOp39
 70
     0
102
RTVSPost2010Prop40
 90
        0
102
RTVSPost2010PropOp40
 70
     0
102
RTVSPost2010Prop41ColorIndex
 90
       18
102
RTVSPost2010Prop41ColorRGB
 90
        0
102
RTVSPost2010PropOp41
 70
     0
102
RTVSPost2010Prop42
 90
       50
102
RTVSPost2010PropOp42
 70
     0
102
RTVSPost2010Prop43
 90
        3
102
RTVSPost2010PropOp43
 70
     0
102
RTVSPost2010Prop44ColorIndex
 90
        5
102
RTVSPost2010Prop44ColorRGB
 90
      255
102
RTVSPost2010PropOp44
 70
     0
102
RTVSPost2010Prop45
280
     0
102
RTVSPost2010PropOp45
 70
     0
102
RTVSPost2010Prop46
 90
       50
102
RTVSPost2010PropOp46
 70
     0
102
RTVSPost2010Prop47
 90
       50
102
RTVSPost2010PropOp47
 70
     0
102
RTVSPost2010Prop48
 90
       50
102
RTVSPost2010PropOp48
 70
     0
102
RTVSPost2010Prop49
280
     0
102
RTVSPost2010PropOp49
 70
     0
102
RTVSPost2010Prop50
 90
       50
102
RTVSPost2010PropOp50
 70
     0
102
RTVSPost2010Prop51ColorIndex
 90
      256
102
RTVSPost2010Prop51ColorRGB
 90
-16777216
102
RTVSPost2010PropOp51
 70
     0
102
RTVSPost2010Prop52
140
1.0
102
RTVSPost2010PropOp52
 70
     0
102
RTVSPost2010Prop53
 90
        2
102
RTVSPost2010PropOp53
 70
     0
102
RTVSPost2010Prop54
  1
strokes_ogs.tif
102
RTVSPost2010PropOp54
 70
     0
102
RTVSPost2010Prop55
280
     0
102
RTVSPost2010PropOp55
 70
     0
102
RTVSPost2010Prop56
140
1.0
102
RTVSPost2010PropOp56
 70
     0
102
RTVSPost2010Prop57
140
1.0
102
RTVSPost2010PropOp57
 70
     0
  0
XRECORD
  5
2AF
102
{ACAD_REACTORS
330
2AE
102
}
330
2AE
100
AcDbXrecord
280
     1
102
RTVSPropertyOp0
 70
     1
102
RTVSPropertyOp1
 70
     1
102
RTVSPropertyOp2
 70
     1
102
RTVSPropertyOp3
 70
     1
102
RTVSPropertyOp4
 70
     1
102
RTVSPropertyOp5
 70
     1
102
RTVSPropertyOp6
 70
     1
102
RTVSPropertyOp7
 70
     1
102
RTVSPropertyOp8
 70
     1
102
RTVSPropertyOp9
 70
     1
102
RTVSPropertyOp10
 70
     1
102
RTVSPropertyOp11
 70
     1
102
RTVSPropertyOp12
 70
     1
102
RTVSPropertyOp13
 70
     1
102
RTVSPropertyOp14
 70
     1
102
RTVSPropertyOp15
 70
     1
102
RTVSPropertyOp16
 70
     1
102
RTVSPropertyOp17
 70
     1
102
RTVSPropertyOp18
 70
     1
102
RTVSPropertyOp19
 70
     1
102
RTVSPropertyOp20
 70
     1
102
RTVSPropertyOp21
 70
     1
102
RTVSPropertyOp22
 70
     1
102
RTVSPropertyOp23
 70
     1
102
RTVSPropertyOp24
 70
     1
102
RTVSPropertyOp25
 70
     1
102
RTVSPropertyOp26
 70
     1
102
RTVSPropertyOp27
 70
     1
102
RTVSPropertyOp28
 70
     1
102
RTVSPropertyOp29
 70
     1
102
RTVSPropertyOp30
 70
     1
102
RTVSPropertyOp31
 70
     1
102
RTVSPropertyOp32
 70
     1
102
RTVSPropertyOp33
 70
     1
102
RTVSPropertyOp34
 70
     1
102
RTVSPropertyOp35
 70
     1
102
RTVSPropertyOp36
 70
     1
102
RTVSPropertyOp37
 70
     1
102
RTVSPropertyOp38
 70
     1
102
RTVSPropertyOp39
 70
     1
102
RTVSPropertyOp40
 70
     1
102
RTVSPropertyOp41
 70
     1
102
RTVSPropertyOp42
 70
     1
102
RTVSPropertyOp43
 70
     1
102
RTVSPropertyOp44
 70
     1
102
RTVSPropertyOp45
 70
     1
102
RTVSPropertyOp46
 70
     1
102
RTVSPropertyOp47
 70
     1
102
RTVSPropertyOp48
 70
     1
102
RTVSPropertyOp49
 70
     1
102
RTVSPropertyOp50
 70
     1
102
RTVSPropertyOp51
 70
     0
102
RTVSPropertyOp52
 70
     0
102
RTVSPropertyOp53
 70
     1
102
RTVSPropertyOp54
 70
     1
102
RTVSPropertyOp55
 70
     1
102
RTVSPropertyOp56
 70
     1
102
RTVSPropertyOp57
 70
     1
102
RTVSPost2010Prop28
280
     0
102
RTVSPost2010PropOp28
 70
     1
102
RTVSPost2010Prop29
280
     1
102
RTVSPost2010PropOp29
 70
     1
102
RTVSPost2010Prop30
280
     1
102
RTVSPost2010PropOp30
 70
     1
102
RTVSPost2010Prop31
280
     0
102
RTVSPost2010PropOp31
 70
     1
102
RTVSPost2010Prop32
280
     0
102
RTVSPost2010PropOp32
 70
     1
102
RTVSPost2010Prop33
280
     0
102
RTVSPost2010PropOp33
 70
     1
102
RTVSPost2010Prop34
280
     0
102
RTVSPost2010PropOp34
 70
     1
102
RTVSPost2010Prop35
280
     0
102
RTVSPost2010PropOp35
 70
     1
102
RTVSPost2010Prop36
280
     0
102
RTVSPost2010PropOp36
 70
     1
102
RTVSPost2010Prop37
 90
       50
102
RTVSPost2010PropOp37
 70
     1
102
RTVSPost2010Prop38
140
0.0
102
RTVSPost2010PropOp38
 70
     1
102
RTVSPost2010Prop39
140
1.0
102
RTVSPost2010PropOp39
 70
     1
102
RTVSPost2010Prop40
 90
        0
102
RTVSPost2010PropOp40
 70
     1
102
RTVSPost2010Prop41ColorIndex
 90
       18
102
RTVSPost2010Prop41ColorRGB
 90
        0
102
RTVSPost2010PropOp41
 70
     1
102
RTVSPost2010Prop42
 90
       50
102
RTVSPost2010PropOp42
 70
     1
102
RTVSPost2010Prop43
 90
        3
102
RTVSPost2010PropOp43
 70
     1
102
RTVSPost2010Prop44ColorIndex
 90
        5
102
RTVSPost2010Prop44ColorRGB
 90
      255
102
RTVSPost2010PropOp44
 70
     1
102
RTVSPost2010Prop45
280
     0
102
RTVSPost2010PropOp45
 70
     1
102
RTVSPost2010Prop46
 90
       50
102
RTVSPost2010PropOp46
 70
     1
102
RTVSPost2010Prop47
 90
       50
102
RTVSPost2010PropOp47
 70
     1
102
RTVSPost2010Prop48
 90
       50
102
RTVSPost2010PropOp48
 70
     1
102
RTVSPost2010Prop49
280
     0
102
RTVSPost2010PropOp49
 70
     1
102
RTVSPost2010Prop50
 90
       50
102
RTVSPost2010PropOp50
 70
     1
102
RTVSPost2010Prop51ColorIndex
 90
      256
102
RTVSPost2010Prop51ColorRGB
 90
-16777216
102
RTVSPost2010PropOp51
 70
     0
102
RTVSPost2010Prop52
140
1.0
102
RTVSPost2010PropOp52
 70
     0
102
RTVSPost2010Prop53
 90
        2
102
RTVSPost2010PropOp53
 70
     1
102
RTVSPost2010Prop54
  1
strokes_ogs.tif
102
RTVSPost2010PropOp54
 70
     1
102
RTVSPost2010Prop55
280
     0
102
RTVSPost2010PropOp55
 70
     1
102
RTVSPost2010Prop56
140
1.0
102
RTVSPost2010PropOp56
 70
     1
102
RTVSPost2010Prop57
140
1.0
102
RTVSPost2010PropOp57
 70
     1
  0
XRECORD
  5
2B7
102
{ACAD_REACTORS
330
2B6
102
}
330
2B6
100
AcDbXrecord
280
     1
102
RTVSPropertyOp0
 70
     0
102
RTVSPropertyOp1
 70
     0
102
RTVSPropertyOp2
 70
     0
102
RTVSPropertyOp3
 70
     0
102
RTVSPropertyOp4
 70
     0
102
RTVSPropertyOp5
 70
     0
102
RTVSPropertyOp6
 70
     0
102
RTVSPropertyOp7
 70
     0
102
RTVSPropertyOp8
 70
     0
102
RTVSPropertyOp9
 70
     0
102
RTVSPropertyOp10
 70
     0
102
RTVSPropertyOp11
 70
     0
102
RTVSPropertyOp12
 70
     0
102
RTVSPropertyOp13
 70
     0
102
RTVSPropertyOp14
 70
     2
102
RTVSPropertyOp15
 70
     0
102
RTVSPropertyOp16
 70
     0
102
RTVSPropertyOp17
 70
     0
102
RTVSPropertyOp18
 70
     0
102
RTVSPropertyOp19
 70
     0
102
RTVSPropertyOp20
 70
     0
102
RTVSPropertyOp21
 70
     0
102
RTVSPropertyOp22
 70
     0
102
RTVSPropertyOp23
 70
     0
102
RTVSPropertyOp24
 70
     0
102
RTVSPropertyOp25
 70
     0
102
RTVSPropertyOp26
 70
     0
102
RTVSPropertyOp27
 70
     0
102
RTVSPropertyOp28
 70
     0
102
RTVSPropertyOp29
 70
     0
102
RTVSPropertyOp30
 70
     0
102
RTVSPropertyOp31
 70
     0
102
RTVSPropertyOp32
 70
     0
102
RTVSPropertyOp33
 70
     0
102
RTVSPropertyOp34
 70
     0
102
RTVSPropertyOp35
 70
     0
102
RTVSPropertyOp36
 70
     0
102
RTVSPropertyOp37
 70
     0
102
RTVSPropertyOp38
 70
     0
102
RTVSPropertyOp39
 70
     0
102
RTVSPropertyOp40
 70
     0
102
RTVSPropertyOp41
 70
     0
102
RTVSPropertyOp42
 70
     0
102
RTVSPropertyOp43
 70
     0
102
RTVSPropertyOp44
 70
     0
102
RTVSPropertyOp45
 70
     0
102
RTVSPropertyOp46
 70
     0
102
RTVSPropertyOp47
 70
     0
102
RTVSPropertyOp48
 70
     0
102
RTVSPropertyOp49
 70
     0
102
RTVSPropertyOp50
 70
     0
102
RTVSPropertyOp51
 70
     0
102
RTVSPropertyOp52
 70
     0
102
RTVSPropertyOp53
 70
     0
102
RTVSPropertyOp54
 70
     0
102
RTVSPropertyOp55
 70
     0
102
RTVSPropertyOp56
 70
     0
102
RTVSPropertyOp57
 70
     0
102
RTVSPost2010Prop28
280
     0
102
RTVSPost2010PropOp28
 70
     0
102
RTVSPost2010Prop29
280
     1
102
RTVSPost2010PropOp29
 70
     0
102
RTVSPost2010Prop30
280
     1
102
RTVSPost2010PropOp30
 70
     0
102
RTVSPost2010Prop31
280
     0
102
RTVSPost2010PropOp31
 70
     0
102
RTVSPost2010Prop32
280
     0
102
RTVSPost2010PropOp32
 70
     0
102
RTVSPost2010Prop33
280
     0
102
RTVSPost2010PropOp33
 70
     0
102
RTVSPost2010Prop34
280
     0
102
RTVSPost2010PropOp34
 70
     0
102
RTVSPost2010Prop35
280
     0
102
RTVSPost2010PropOp35
 70
     0
102
RTVSPost2010Prop36
280
     0
102
RTVSPost2010PropOp36
 70
     0
102
RTVSPost2010Prop37
 90
       50
102
RTVSPost2010PropOp37
 70
     0
102
RTVSPost2010Prop38
140
0.0
102
RTVSPost2010PropOp38
 70
     0
102
RTVSPost2010Prop39
140
1.0
102
RTVSPost2010PropOp39
 70
     0
102
RTVSPost2010Prop40
 90
        0
102
RTVSPost2010PropOp40
 70
     0
102
RTVSPost2010Prop41ColorIndex
 90
       18
102
RTVSPost2010Prop41ColorRGB
 90
        0
102
RTVSPost2010PropOp41
 70
     0
102
RTVSPost2010Prop42
 90
       50
102
RTVSPost2010PropOp42
 70
     0
102
RTVSPost2010Prop43
 90
        3
102
RTVSPost2010PropOp43
 70
     0
102
RTVSPost2010Prop44ColorIndex
 90
        5
102
RTVSPost2010Prop44ColorRGB
 90
      255
102
RTVSPost2010PropOp44
 70
     0
102
RTVSPost2010Prop45
280
     0
102
RTVSPost2010PropOp45
 70
     0
102
RTVSPost2010Prop46
 90
       50
102
RTVSPost2010PropOp46
 70
     0
102
RTVSPost2010Prop47
 90
       50
102
RTVSPost2010PropOp47
 70
     0
102
RTVSPost2010Prop48
 90
       50
102
RTVSPost2010PropOp48
 70
     0
102
RTVSPost2010Prop49
280
     0
102
RTVSPost2010PropOp49
 70
     0
102
RTVSPost2010Prop50
 90
       50
102
RTVSPost2010PropOp50
 70
     0
102
RTVSPost2010Prop51ColorIndex
 90
      256
102
RTVSPost2010Prop51ColorRGB
 90
-16777216
102
RTVSPost2010PropOp51
 70
     0
102
RTVSPost2010Prop52
140
1.0
102
RTVSPost2010PropOp52
 70
     0
102
RTVSPost2010Prop53
 90
        2
102
RTVSPost2010PropOp53
 70
     0
102
RTVSPost2010Prop54
  1
strokes_ogs.tif
102
RTVSPost2010PropOp54
 70
     0
102
RTVSPost2010Prop55
280
     0
102
RTVSPost2010PropOp55
 70
     0
102
RTVSPost2010Prop56
140
1.0
102
RTVSPost2010PropOp56
 70
     0
102
RTVSPost2010Prop57
140
1.0
102
RTVSPost2010PropOp57
 70
     0
  0
XRECORD
  5
2A5
102
{ACAD_REACTORS
330
2A4
102
}
330
2A4
100
AcDbXrecord
280
     1
102
RTVSPropertyOp0
 70
     1
102
RTVSPropertyOp1
 70
     1
102
RTVSPropertyOp2
 70
     1
102
RTVSPropertyOp3
 70
     1
102
RTVSPropertyOp4
 70
     1
102
RTVSPropertyOp5
 70
     1
102
RTVSPropertyOp6
 70
     1
102
RTVSPropertyOp7
 70
     1
102
RTVSPropertyOp8
 70
     1
102
RTVSPropertyOp9
 70
     1
102
RTVSPropertyOp10
 70
     1
102
RTVSPropertyOp11
 70
     1
102
RTVSPropertyOp12
 70
     1
102
RTVSPropertyOp13
 70
     1
102
RTVSPropertyOp14
 70
     1
102
RTVSPropertyOp15
 70
     1
102
RTVSPropertyOp16
 70
     1
102
RTVSPropertyOp17
 70
     1
102
RTVSPropertyOp18
 70
     1
102
RTVSPropertyOp19
 70
     1
102
RTVSPropertyOp20
 70
     1
102
RTVSPropertyOp21
 70
     1
102
RTVSPropertyOp22
 70
     1
102
RTVSPropertyOp23
 70
     1
102
RTVSPropertyOp24
 70
     1
102
RTVSPropertyOp25
 70
     1
102
RTVSPropertyOp26
 70
     1
102
RTVSPropertyOp27
 70
     1
102
RTVSPropertyOp28
 70
     1
102
RTVSPropertyOp29
 70
     1
102
RTVSPropertyOp30
 70
     1
102
RTVSPropertyOp31
 70
     1
102
RTVSPropertyOp32
 70
     1
102
RTVSPropertyOp33
 70
     1
102
RTVSPropertyOp34
 70
     1
102
RTVSPropertyOp35
 70
     1
102
RTVSPropertyOp36
 70
     1
102
RTVSPropertyOp37
 70
     1
102
RTVSPropertyOp38
 70
     1
102
RTVSPropertyOp39
 70
     1
102
RTVSPropertyOp40
 70
     1
102
RTVSPropertyOp41
 70
     1
102
RTVSPropertyOp42
 70
     1
102
RTVSPropertyOp43
 70
     1
102
RTVSPropertyOp44
 70
     1
102
RTVSPropertyOp45
 70
     1
102
RTVSPropertyOp46
 70
     1
102
RTVSPropertyOp47
 70
     1
102
RTVSPropertyOp48
 70
     1
102
RTVSPropertyOp49
 70
     1
102
RTVSPropertyOp50
 70
     1
102
RTVSPropertyOp51
 70
     0
102
RTVSPropertyOp52
 70
     0
102
RTVSPropertyOp53
 70
     1
102
RTVSPropertyOp54
 70
     1
102
RTVSPropertyOp55
 70
     1
102
RTVSPropertyOp56
 70
     1
102
RTVSPropertyOp57
 70
     1
102
RTVSPost2010Prop28
280
     0
102
RTVSPost2010PropOp28
 70
     1
102
RTVSPost2010Prop29
280
     1
102
RTVSPost2010PropOp29
 70
     1
102
RTVSPost2010Prop30
280
     1
102
RTVSPost2010PropOp30
 70
     1
102
RTVSPost2010Prop31
280
     0
102
RTVSPost2010PropOp31
 70
     1
102
RTVSPost2010Prop32
280
     0
102
RTVSPost2010PropOp32
 70
     1
102
RTVSPost2010Prop33
280
     0
102
RTVSPost2010PropOp33
 70
     1
102
RTVSPost2010Prop34
280
     0
102
RTVSPost2010PropOp34
 70
     1
102
RTVSPost2010Prop35
280
     0
102
RTVSPost2010PropOp35
 70
     1
102
RTVSPost2010Prop36
280
     0
102
RTVSPost2010PropOp36
 70
     1
102
RTVSPost2010Prop37
 90
       50
102
RTVSPost2010PropOp37
 70
     1
102
RTVSPost2010Prop38
140
0.0
102
RTVSPost2010PropOp38
 70
     1
102
RTVSPost2010Prop39
140
1.0
102
RTVSPost2010PropOp39
 70
     1
102
RTVSPost2010Prop40
 90
        0
102
RTVSPost2010PropOp40
 70
     1
102
RTVSPost2010Prop41ColorIndex
 90
       18
102
RTVSPost2010Prop41ColorRGB
 90
        0
102
RTVSPost2010PropOp41
 70
     1
102
RTVSPost2010Prop42
 90
       50
102
RTVSPost2010PropOp42
 70
     1
102
RTVSPost2010Prop43
 90
        3
102
RTVSPost2010PropOp43
 70
     1
102
RTVSPost2010Prop44ColorIndex
 90
        5
102
RTVSPost2010Prop44ColorRGB
 90
      255
102
RTVSPost2010PropOp44
 70
     1
102
RTVSPost2010Prop45
280
     0
102
RTVSPost2010PropOp45
 70
     1
102
RTVSPost2010Prop46
 90
       50
102
RTVSPost2010PropOp46
 70
     1
102
RTVSPost2010Prop47
 90
       50
102
RTVSPost2010PropOp47
 70
     1
102
RTVSPost2010Prop48
 90
       50
102
RTVSPost2010PropOp48
 70
     1
102
RTVSPost2010Prop49
280
     0
102
RTVSPost2010PropOp49
 70
     1
102
RTVSPost2010Prop50
 90
       50
102
RTVSPost2010PropOp50
 70
     1
102
RTVSPost2010Prop51ColorIndex
 90
      256
102
RTVSPost2010Prop51ColorRGB
 90
-16777216
102
RTVSPost2010PropOp51
 70
     0
102
RTVSPost2010Prop52
140
1.0
102
RTVSPost2010PropOp52
 70
     0
102
RTVSPost2010Prop53
 90
        2
102
RTVSPost2010PropOp53
 70
     1
102
RTVSPost2010Prop54
  1
strokes_ogs.tif
102
RTVSPost2010PropOp54
 70
     1
102
RTVSPost2010Prop55
280
     0
102
RTVSPost2010PropOp55
 70
     1
102
RTVSPost2010Prop56
140
1.0
102
RTVSPost2010PropOp56
 70
     1
102
RTVSPost2010Prop57
140
1.0
102
RTVSPost2010PropOp57
 70
     1
  0
XRECORD
  5
2C3
102
{ACAD_REACTORS
330
2C2
102
}
330
2C2
100
AcDbXrecord
280
     1
102
RTVSPropertyOp0
 70
     1
102
RTVSPropertyOp1
 70
     1
102
RTVSPropertyOp2
 70
     1
102
RTVSPropertyOp3
 70
     1
102
RTVSPropertyOp4
 70
     1
102
RTVSPropertyOp5
 70
     1
102
RTVSPropertyOp6
 70
     1
102
RTVSPropertyOp7
 70
     1
102
RTVSPropertyOp8
 70
     1
102
RTVSPropertyOp9
 70
     1
102
RTVSPropertyOp10
 70
     1
102
RTVSPropertyOp11
 70
     1
102
RTVSPropertyOp12
 70
     1
102
RTVSPropertyOp13
 70
     1
102
RTVSPropertyOp14
 70
     1
102
RTVSPropertyOp15
 70
     1
102
RTVSPropertyOp16
 70
     1
102
RTVSPropertyOp17
 70
     1
102
RTVSPropertyOp18
 70
     1
102
RTVSPropertyOp19
 70
     1
102
RTVSPropertyOp20
 70
     1
102
RTVSPropertyOp21
 70
     1
102
RTVSPropertyOp22
 70
     1
102
RTVSPropertyOp23
 70
     1
102
RTVSPropertyOp24
 70
     1
102
RTVSPropertyOp25
 70
     1
102
RTVSPropertyOp26
 70
     1
102
RTVSPropertyOp27
 70
     1
102
RTVSPropertyOp28
 70
     1
102
RTVSPropertyOp29
 70
     1
102
RTVSPropertyOp30
 70
     1
102
RTVSPropertyOp31
 70
     1
102
RTVSPropertyOp32
 70
     1
102
RTVSPropertyOp33
 70
     1
102
RTVSPropertyOp34
 70
     1
102
RTVSPropertyOp35
 70
     1
102
RTVSPropertyOp36
 70
     1
102
RTVSPropertyOp37
 70
     1
102
RTVSPropertyOp38
 70
     1
102
RTVSPropertyOp39
 70
     1
102
RTVSPropertyOp40
 70
     1
102
RTVSPropertyOp41
 70
     1
102
RTVSPropertyOp42
 70
     1
102
RTVSPropertyOp43
 70
     1
102
RTVSPropertyOp44
 70
     1
102
RTVSPropertyOp45
 70
     1
102
RTVSPropertyOp46
 70
     1
102
RTVSPropertyOp47
 70
     1
102
RTVSPropertyOp48
 70
     1
102
RTVSPropertyOp49
 70
     1
102
RTVSPropertyOp50
 70
     1
102
RTVSPropertyOp51
 70
     0
102
RTVSPropertyOp52
 70
     0
102
RTVSPropertyOp53
 70
     1
102
RTVSPropertyOp54
 70
     1
102
RTVSPropertyOp55
 70
     1
102
RTVSPropertyOp56
 70
     1
102
RTVSPropertyOp57
 70
     1
102
RTVSPost2010Prop28
280
     0
102
RTVSPost2010PropOp28
 70
     1
102
RTVSPost2010Prop29
280
     1
102
RTVSPost2010PropOp29
 70
     1
102
RTVSPost2010Prop30
280
     1
102
RTVSPost2010PropOp30
 70
     1
102
RTVSPost2010Prop31
280
     0
102
RTVSPost2010PropOp31
 70
     1
102
RTVSPost2010Prop32
280
     0
102
RTVSPost2010PropOp32
 70
     1
102
RTVSPost2010Prop33
280
     0
102
RTVSPost2010PropOp33
 70
     1
102
RTVSPost2010Prop34
280
     0
102
RTVSPost2010PropOp34
 70
     1
102
RTVSPost2010Prop35
280
     0
102
RTVSPost2010PropOp35
 70
     1
102
RTVSPost2010Prop36
280
     0
102
RTVSPost2010PropOp36
 70
     1
102
RTVSPost2010Prop37
 90
       50
102
RTVSPost2010PropOp37
 70
     1
102
RTVSPost2010Prop38
140
0.0
102
RTVSPost2010PropOp38
 70
     1
102
RTVSPost2010Prop39
140
1.0
102
RTVSPost2010PropOp39
 70
     1
102
RTVSPost2010Prop40
 90
        0
102
RTVSPost2010PropOp40
 70
     1
102
RTVSPost2010Prop41ColorIndex
 90
       18
102
RTVSPost2010Prop41ColorRGB
 90
        0
102
RTVSPost2010PropOp41
 70
     1
102
RTVSPost2010Prop42
 90
       50
102
RTVSPost2010PropOp42
 70
     1
102
RTVSPost2010Prop43
 90
        3
102
RTVSPost2010PropOp43
 70
     1
102
RTVSPost2010Prop44ColorIndex
 90
        5
102
RTVSPost2010Prop44ColorRGB
 90
      255
102
RTVSPost2010PropOp44
 70
     1
102
RTVSPost2010Prop45
280
     0
102
RTVSPost2010PropOp45
 70
     1
102
RTVSPost2010Prop46
 90
       50
102
RTVSPost2010PropOp46
 70
     1
102
RTVSPost2010Prop47
 90
       50
102
RTVSPost2010PropOp47
 70
     1
102
RTVSPost2010Prop48
 90
       50
102
RTVSPost2010PropOp48
 70
     1
102
RTVSPost2010Prop49
280
     0
102
RTVSPost2010PropOp49
 70
     1
102
RTVSPost2010Prop50
 90
       50
102
RTVSPost2010PropOp50
 70
     1
102
RTVSPost2010Prop51ColorIndex
 90
      256
102
RTVSPost2010Prop51ColorRGB
 90
-16777216
102
RTVSPost2010PropOp51
 70
     0
102
RTVSPost2010Prop52
140
1.0
102
RTVSPost2010PropOp52
 70
     0
102
RTVSPost2010Prop53
 90
        2
102
RTVSPost2010PropOp53
 70
     1
102
RTVSPost2010Prop54
  1
strokes_ogs.tif
102
RTVSPost2010PropOp54
 70
     1
102
RTVSPost2010Prop55
280
     0
102
RTVSPost2010PropOp55
 70
     1
102
RTVSPost2010Prop56
140
1.0
102
RTVSPost2010PropOp56
 70
     1
102
RTVSPost2010Prop57
140
1.0
102
RTVSPost2010PropOp57
 70
     1
  0
XRECORD
  5
2C1
102
{ACAD_REACTORS
330
2C0
102
}
330
2C0
100
AcDbXrecord
280
     1
102
RTVSPropertyOp0
 70
     1
102
RTVSPropertyOp1
 70
     1
102
RTVSPropertyOp2
 70
     1
102
RTVSPropertyOp3
 70
     1
102
RTVSPropertyOp4
 70
     1
102
RTVSPropertyOp5
 70
     1
102
RTVSPropertyOp6
 70
     1
102
RTVSPropertyOp7
 70
     1
102
RTVSPropertyOp8
 70
     1
102
RTVSPropertyOp9
 70
     1
102
RTVSPropertyOp10
 70
     1
102
RTVSPropertyOp11
 70
     1
102
RTVSPropertyOp12
 70
     1
102
RTVSPropertyOp13
 70
     1
102
RTVSPropertyOp14
 70
     1
102
RTVSPropertyOp15
 70
     1
102
RTVSPropertyOp16
 70
     1
102
RTVSPropertyOp17
 70
     1
102
RTVSPropertyOp18
 70
     1
102
RTVSPropertyOp19
 70
     1
102
RTVSPropertyOp20
 70
     1
102
RTVSPropertyOp21
 70
     1
102
RTVSPropertyOp22
 70
     1
102
RTVSPropertyOp23
 70
     1
102
RTVSPropertyOp24
 70
     1
102
RTVSPropertyOp25
 70
     1
102
RTVSPropertyOp26
 70
     1
102
RTVSPropertyOp27
 70
     1
102
RTVSPropertyOp28
 70
     1
102
RTVSPropertyOp29
 70
     1
102
RTVSPropertyOp30
 70
     1
102
RTVSPropertyOp31
 70
     1
102
RTVSPropertyOp32
 70
     1
102
RTVSPropertyOp33
 70
     1
102
RTVSPropertyOp34
 70
     1
102
RTVSPropertyOp35
 70
     1
102
RTVSPropertyOp36
 70
     1
102
RTVSPropertyOp37
 70
     1
102
RTVSPropertyOp38
 70
     1
102
RTVSPropertyOp39
 70
     1
102
RTVSPropertyOp40
 70
     1
102
RTVSPropertyOp41
 70
     1
102
RTVSPropertyOp42
 70
     1
102
RTVSPropertyOp43
 70
     1
102
RTVSPropertyOp44
 70
     1
102
RTVSPropertyOp45
 70
     1
102
RTVSPropertyOp46
 70
     1
102
RTVSPropertyOp47
 70
     1
102
RTVSPropertyOp48
 70
     1
102
RTVSPropertyOp49
 70
     1
102
RTVSPropertyOp50
 70
     1
102
RTVSPropertyOp51
 70
     0
102
RTVSPropertyOp52
 70
     0
102
RTVSPropertyOp53
 70
     1
102
RTVSPropertyOp54
 70
     1
102
RTVSPropertyOp55
 70
     1
102
RTVSPropertyOp56
 70
     1
102
RTVSPropertyOp57
 70
     1
102
RTVSPost2010Prop28
280
     0
102
RTVSPost2010PropOp28
 70
     1
102
RTVSPost2010Prop29
280
     1
102
RTVSPost2010PropOp29
 70
     1
102
RTVSPost2010Prop30
280
     1
102
RTVSPost2010PropOp30
 70
     1
102
RTVSPost2010Prop31
280
     0
102
RTVSPost2010PropOp31
 70
     1
102
RTVSPost2010Prop32
280
     0
102
RTVSPost2010PropOp32
 70
     1
102
RTVSPost2010Prop33
280
     0
102
RTVSPost2010PropOp33
 70
     1
102
RTVSPost2010Prop34
280
     0
102
RTVSPost2010PropOp34
 70
     1
102
RTVSPost2010Prop35
280
     0
102
RTVSPost2010PropOp35
 70
     1
102
RTVSPost2010Prop36
280
     0
102
RTVSPost2010PropOp36
 70
     1
102
RTVSPost2010Prop37
 90
       50
102
RTVSPost2010PropOp37
 70
     1
102
RTVSPost2010Prop38
140
0.0
102
RTVSPost2010PropOp38
 70
     1
102
RTVSPost2010Prop39
140
1.0
102
RTVSPost2010PropOp39
 70
     1
102
RTVSPost2010Prop40
 90
        0
102
RTVSPost2010PropOp40
 70
     1
102
RTVSPost2010Prop41ColorIndex
 90
       18
102
RTVSPost2010Prop41ColorRGB
 90
        0
102
RTVSPost2010PropOp41
 70
     1
102
RTVSPost2010Prop42
 90
       50
102
RTVSPost2010PropOp42
 70
     1
102
RTVSPost2010Prop43
 90
        3
102
RTVSPost2010PropOp43
 70
     1
102
RTVSPost2010Prop44ColorIndex
 90
        5
102
RTVSPost2010Prop44ColorRGB
 90
      255
102
RTVSPost2010PropOp44
 70
     1
102
RTVSPost2010Prop45
280
     0
102
RTVSPost2010PropOp45
 70
     1
102
RTVSPost2010Prop46
 90
       50
102
RTVSPost2010PropOp46
 70
     1
102
RTVSPost2010Prop47
 90
       50
102
RTVSPost2010PropOp47
 70
     1
102
RTVSPost2010Prop48
 90
       50
102
RTVSPost2010PropOp48
 70
     1
102
RTVSPost2010Prop49
280
     0
102
RTVSPost2010PropOp49
 70
     1
102
RTVSPost2010Prop50
 90
       50
102
RTVSPost2010PropOp50
 70
     1
102
RTVSPost2010Prop51ColorIndex
 90
      256
102
RTVSPost2010Prop51ColorRGB
 90
-16777216
102
RTVSPost2010PropOp51
 70
     0
102
RTVSPost2010Prop52
140
1.0
102
RTVSPost2010PropOp52
 70
     0
102
RTVSPost2010Prop53
 90
        2
102
RTVSPost2010PropOp53
 70
     1
102
RTVSPost2010Prop54
  1
strokes_ogs.tif
102
RTVSPost2010PropOp54
 70
     1
102
RTVSPost2010Prop55
280
     0
102
RTVSPost2010PropOp55
 70
     1
102
RTVSPost2010Prop56
140
1.0
102
RTVSPost2010PropOp56
 70
     1
102
RTVSPost2010Prop57
140
1.0
102
RTVSPost2010PropOp57
 70
     1
  0
XRECORD
  5
2BB
102
{ACAD_REACTORS
330
2BA
102
}
330
2BA
100
AcDbXrecord
280
     1
102
RTVSPropertyOp0
 70
     1
102
RTVSPropertyOp1
 70
     1
102
RTVSPropertyOp2
 70
     1
102
RTVSPropertyOp3
 70
     1
102
RTVSPropertyOp4
 70
     1
102
RTVSPropertyOp5
 70
     1
102
RTVSPropertyOp6
 70
     1
102
RTVSPropertyOp7
 70
     1
102
RTVSPropertyOp8
 70
     1
102
RTVSPropertyOp9
 70
     1
102
RTVSPropertyOp10
 70
     1
102
RTVSPropertyOp11
 70
     1
102
RTVSPropertyOp12
 70
     1
102
RTVSPropertyOp13
 70
     1
102
RTVSPropertyOp14
 70
     1
102
RTVSPropertyOp15
 70
     1
102
RTVSPropertyOp16
 70
     1
102
RTVSPropertyOp17
 70
     1
102
RTVSPropertyOp18
 70
     1
102
RTVSPropertyOp19
 70
     1
102
RTVSPropertyOp20
 70
     1
102
RTVSPropertyOp21
 70
     1
102
RTVSPropertyOp22
 70
     1
102
RTVSPropertyOp23
 70
     1
102
RTVSPropertyOp24
 70
     1
102
RTVSPropertyOp25
 70
     1
102
RTVSPropertyOp26
 70
     1
102
RTVSPropertyOp27
 70
     1
102
RTVSPropertyOp28
 70
     1
102
RTVSPropertyOp29
 70
     1
102
RTVSPropertyOp30
 70
     1
102
RTVSPropertyOp31
 70
     1
102
RTVSPropertyOp32
 70
     1
102
RTVSPropertyOp33
 70
     1
102
RTVSPropertyOp34
 70
     1
102
RTVSPropertyOp35
 70
     1
102
RTVSPropertyOp36
 70
     1
102
RTVSPropertyOp37
 70
     1
102
RTVSPropertyOp38
 70
     1
102
RTVSPropertyOp39
 70
     1
102
RTVSPropertyOp40
 70
     1
102
RTVSPropertyOp41
 70
     1
102
RTVSPropertyOp42
 70
     1
102
RTVSPropertyOp43
 70
     1
102
RTVSPropertyOp44
 70
     1
102
RTVSPropertyOp45
 70
     1
102
RTVSPropertyOp46
 70
     1
102
RTVSPropertyOp47
 70
     1
102
RTVSPropertyOp48
 70
     1
102
RTVSPropertyOp49
 70
     1
102
RTVSPropertyOp50
 70
     1
102
RTVSPropertyOp51
 70
     0
102
RTVSPropertyOp52
 70
     0
102
RTVSPropertyOp53
 70
     1
102
RTVSPropertyOp54
 70
     1
102
RTVSPropertyOp55
 70
     1
102
RTVSPropertyOp56
 70
     1
102
RTVSPropertyOp57
 70
     1
102
RTVSPost2010Prop28
280
     0
102
RTVSPost2010PropOp28
 70
     1
102
RTVSPost2010Prop29
280
     1
102
RTVSPost2010PropOp29
 70
     1
102
RTVSPost2010Prop30
280
     1
102
RTVSPost2010PropOp30
 70
     1
102
RTVSPost2010Prop31
280
     0
102
RTVSPost2010PropOp31
 70
     1
102
RTVSPost2010Prop32
280
     0
102
RTVSPost2010PropOp32
 70
     1
102
RTVSPost2010Prop33
280
     0
102
RTVSPost2010PropOp33
 70
     1
102
RTVSPost2010Prop34
280
     0
102
RTVSPost2010PropOp34
 70
     1
102
RTVSPost2010Prop35
280
     0
102
RTVSPost2010PropOp35
 70
     1
102
RTVSPost2010Prop36
280
     0
102
RTVSPost2010PropOp36
 70
     1
102
RTVSPost2010Prop37
 90
       50
102
RTVSPost2010PropOp37
 70
     1
102
RTVSPost2010Prop38
140
0.0
102
RTVSPost2010PropOp38
 70
     1
102
RTVSPost2010Prop39
140
1.0
102
RTVSPost2010PropOp39
 70
     1
102
RTVSPost2010Prop40
 90
        0
102
RTVSPost2010PropOp40
 70
     1
102
RTVSPost2010Prop41ColorIndex
 90
       18
102
RTVSPost2010Prop41ColorRGB
 90
        0
102
RTVSPost2010PropOp41
 70
     1
102
RTVSPost2010Prop42
 90
       50
102
RTVSPost2010PropOp42
 70
     1
102
RTVSPost2010Prop43
 90
        3
102
RTVSPost2010PropOp43
 70
     1
102
RTVSPost2010Prop44ColorIndex
 90
        5
102
RTVSPost2010Prop44ColorRGB
 90
      255
102
RTVSPost2010PropOp44
 70
     1
102
RTVSPost2010Prop45
280
     0
102
RTVSPost2010PropOp45
 70
     1
102
RTVSPost2010Prop46
 90
       50
102
RTVSPost2010PropOp46
 70
     1
102
RTVSPost2010Prop47
 90
       50
102
RTVSPost2010PropOp47
 70
     1
102
RTVSPost2010Prop48
 90
       50
102
RTVSPost2010PropOp48
 70
     1
102
RTVSPost2010Prop49
280
     0
102
RTVSPost2010PropOp49
 70
     1
102
RTVSPost2010Prop50
 90
       50
102
RTVSPost2010PropOp50
 70
     1
102
RTVSPost2010Prop51ColorIndex
 90
      256
102
RTVSPost2010Prop51ColorRGB
 90
-16777216
102
RTVSPost2010PropOp51
 70
     0
102
RTVSPost2010Prop52
140
1.0
102
RTVSPost2010PropOp52
 70
     0
102
RTVSPost2010Prop53
 90
        2
102
RTVSPost2010PropOp53
 70
     1
102
RTVSPost2010Prop54
  1
strokes_ogs.tif
102
RTVSPost2010PropOp54
 70
     1
102
RTVSPost2010Prop55
280
     0
102
RTVSPost2010PropOp55
 70
     1
102
RTVSPost2010Prop56
140
1.0
102
RTVSPost2010PropOp56
 70
     1
102
RTVSPost2010Prop57
140
1.0
102
RTVSPost2010PropOp57
 70
     1
  0
XRECORD
  5
2BD
102
{ACAD_REACTORS
330
2BC
102
}
330
2BC
100
AcDbXrecord
280
     1
102
RTVSPropertyOp0
 70
     1
102
RTVSPropertyOp1
 70
     1
102
RTVSPropertyOp2
 70
     1
102
RTVSPropertyOp3
 70
     1
102
RTVSPropertyOp4
 70
     1
102
RTVSPropertyOp5
 70
     1
102
RTVSPropertyOp6
 70
     1
102
RTVSPropertyOp7
 70
     1
102
RTVSPropertyOp8
 70
     1
102
RTVSPropertyOp9
 70
     1
102
RTVSPropertyOp10
 70
     1
102
RTVSPropertyOp11
 70
     1
102
RTVSPropertyOp12
 70
     1
102
RTVSPropertyOp13
 70
     1
102
RTVSPropertyOp14
 70
     1
102
RTVSPropertyOp15
 70
     1
102
RTVSPropertyOp16
 70
     1
102
RTVSPropertyOp17
 70
     1
102
RTVSPropertyOp18
 70
     1
102
RTVSPropertyOp19
 70
     1
102
RTVSPropertyOp20
 70
     1
102
RTVSPropertyOp21
 70
     1
102
RTVSPropertyOp22
 70
     1
102
RTVSPropertyOp23
 70
     1
102
RTVSPropertyOp24
 70
     1
102
RTVSPropertyOp25
 70
     1
102
RTVSPropertyOp26
 70
     1
102
RTVSPropertyOp27
 70
     1
102
RTVSPropertyOp28
 70
     1
102
RTVSPropertyOp29
 70
     1
102
RTVSPropertyOp30
 70
     1
102
RTVSPropertyOp31
 70
     1
102
RTVSPropertyOp32
 70
     1
102
RTVSPropertyOp33
 70
     1
102
RTVSPropertyOp34
 70
     1
102
RTVSPropertyOp35
 70
     1
102
RTVSPropertyOp36
 70
     1
102
RTVSPropertyOp37
 70
     1
102
RTVSPropertyOp38
 70
     1
102
RTVSPropertyOp39
 70
     1
102
RTVSPropertyOp40
 70
     1
102
RTVSPropertyOp41
 70
     1
102
RTVSPropertyOp42
 70
     1
102
RTVSPropertyOp43
 70
     1
102
RTVSPropertyOp44
 70
     1
102
RTVSPropertyOp45
 70
     1
102
RTVSPropertyOp46
 70
     1
102
RTVSPropertyOp47
 70
     1
102
RTVSPropertyOp48
 70
     1
102
RTVSPropertyOp49
 70
     1
102
RTVSPropertyOp50
 70
     1
102
RTVSPropertyOp51
 70
     0
102
RTVSPropertyOp52
 70
     0
102
RTVSPropertyOp53
 70
     1
102
RTVSPropertyOp54
 70
     1
102
RTVSPropertyOp55
 70
     1
102
RTVSPropertyOp56
 70
     1
102
RTVSPropertyOp57
 70
     1
102
RTVSPost2010Prop28
280
     0
102
RTVSPost2010PropOp28
 70
     1
102
RTVSPost2010Prop29
280
     1
102
RTVSPost2010PropOp29
 70
     1
102
RTVSPost2010Prop30
280
     1
102
RTVSPost2010PropOp30
 70
     1
102
RTVSPost2010Prop31
280
     0
102
RTVSPost2010PropOp31
 70
     1
102
RTVSPost2010Prop32
280
     0
102
RTVSPost2010PropOp32
 70
     1
102
RTVSPost2010Prop33
280
     0
102
RTVSPost2010PropOp33
 70
     1
102
RTVSPost2010Prop34
280
     0
102
RTVSPost2010PropOp34
 70
     1
102
RTVSPost2010Prop35
280
     0
102
RTVSPost2010PropOp35
 70
     1
102
RTVSPost2010Prop36
280
     0
102
RTVSPost2010PropOp36
 70
     1
102
RTVSPost2010Prop37
 90
       50
102
RTVSPost2010PropOp37
 70
     1
102
RTVSPost2010Prop38
140
0.0
102
RTVSPost2010PropOp38
 70
     1
102
RTVSPost2010Prop39
140
1.0
102
RTVSPost2010PropOp39
 70
     1
102
RTVSPost2010Prop40
 90
        0
102
RTVSPost2010PropOp40
 70
     1
102
RTVSPost2010Prop41ColorIndex
 90
       18
102
RTVSPost2010Prop41ColorRGB
 90
        0
102
RTVSPost2010PropOp41
 70
     1
102
RTVSPost2010Prop42
 90
       50
102
RTVSPost2010PropOp42
 70
     1
102
RTVSPost2010Prop43
 90
        3
102
RTVSPost2010PropOp43
 70
     1
102
RTVSPost2010Prop44ColorIndex
 90
        5
102
RTVSPost2010Prop44ColorRGB
 90
      255
102
RTVSPost2010PropOp44
 70
     1
102
RTVSPost2010Prop45
280
     0
102
RTVSPost2010PropOp45
 70
     1
102
RTVSPost2010Prop46
 90
       50
102
RTVSPost2010PropOp46
 70
     1
102
RTVSPost2010Prop47
 90
       50
102
RTVSPost2010PropOp47
 70
     1
102
RTVSPost2010Prop48
 90
       50
102
RTVSPost2010PropOp48
 70
     1
102
RTVSPost2010Prop49
280
     0
102
RTVSPost2010PropOp49
 70
     1
102
RTVSPost2010Prop50
 90
       50
102
RTVSPost2010PropOp50
 70
     1
102
RTVSPost2010Prop51ColorIndex
 90
      256
102
RTVSPost2010Prop51ColorRGB
 90
-16777216
102
RTVSPost2010PropOp51
 70
     0
102
RTVSPost2010Prop52
140
1.0
102
RTVSPost2010PropOp52
 70
     0
102
RTVSPost2010Prop53
 90
        2
102
RTVSPost2010PropOp53
 70
     1
102
RTVSPost2010Prop54
  1
strokes_ogs.tif
102
RTVSPost2010PropOp54
 70
     1
102
RTVSPost2010Prop55
280
     0
102
RTVSPost2010PropOp55
 70
     1
102
RTVSPost2010Prop56
140
1.0
102
RTVSPost2010PropOp56
 70
     1
102
RTVSPost2010Prop57
140
1.0
102
RTVSPost2010PropOp57
 70
     1
  0
XRECORD
  5
2AD
102
{ACAD_REACTORS
330
2AC
102
}
330
2AC
100
AcDbXrecord
280
     1
102
RTVSPropertyOp0
 70
     1
102
RTVSPropertyOp1
 70
     1
102
RTVSPropertyOp2
 70
     1
102
RTVSPropertyOp3
 70
     1
102
RTVSPropertyOp4
 70
     1
102
RTVSPropertyOp5
 70
     1
102
RTVSPropertyOp6
 70
     1
102
RTVSPropertyOp7
 70
     1
102
RTVSPropertyOp8
 70
     1
102
RTVSPropertyOp9
 70
     1
102
RTVSPropertyOp10
 70
     1
102
RTVSPropertyOp11
 70
     1
102
RTVSPropertyOp12
 70
     1
102
RTVSPropertyOp13
 70
     1
102
RTVSPropertyOp14
 70
     1
102
RTVSPropertyOp15
 70
     1
102
RTVSPropertyOp16
 70
     1
102
RTVSPropertyOp17
 70
     1
102
RTVSPropertyOp18
 70
     1
102
RTVSPropertyOp19
 70
     1
102
RTVSPropertyOp20
 70
     1
102
RTVSPropertyOp21
 70
     1
102
RTVSPropertyOp22
 70
     1
102
RTVSPropertyOp23
 70
     1
102
RTVSPropertyOp24
 70
     1
102
RTVSPropertyOp25
 70
     1
102
RTVSPropertyOp26
 70
     1
102
RTVSPropertyOp27
 70
     1
102
RTVSPropertyOp28
 70
     1
102
RTVSPropertyOp29
 70
     1
102
RTVSPropertyOp30
 70
     1
102
RTVSPropertyOp31
 70
     1
102
RTVSPropertyOp32
 70
     1
102
RTVSPropertyOp33
 70
     1
102
RTVSPropertyOp34
 70
     1
102
RTVSPropertyOp35
 70
     1
102
RTVSPropertyOp36
 70
     1
102
RTVSPropertyOp37
 70
     1
102
RTVSPropertyOp38
 70
     1
102
RTVSPropertyOp39
 70
     1
102
RTVSPropertyOp40
 70
     1
102
RTVSPropertyOp41
 70
     1
102
RTVSPropertyOp42
 70
     1
102
RTVSPropertyOp43
 70
     1
102
RTVSPropertyOp44
 70
     1
102
RTVSPropertyOp45
 70
     1
102
RTVSPropertyOp46
 70
     1
102
RTVSPropertyOp47
 70
     1
102
RTVSPropertyOp48
 70
     1
102
RTVSPropertyOp49
 70
     1
102
RTVSPropertyOp50
 70
     1
102
RTVSPropertyOp51
 70
     0
102
RTVSPropertyOp52
 70
     0
102
RTVSPropertyOp53
 70
     1
102
RTVSPropertyOp54
 70
     1
102
RTVSPropertyOp55
 70
     1
102
RTVSPropertyOp56
 70
     1
102
RTVSPropertyOp57
 70
     1
102
RTVSPost2010Prop28
280
     0
102
RTVSPost2010PropOp28
 70
     1
102
RTVSPost2010Prop29
280
     1
102
RTVSPost2010PropOp29
 70
     1
102
RTVSPost2010Prop30
280
     1
102
RTVSPost2010PropOp30
 70
     1
102
RTVSPost2010Prop31
280
     0
102
RTVSPost2010PropOp31
 70
     1
102
RTVSPost2010Prop32
280
     0
102
RTVSPost2010PropOp32
 70
     1
102
RTVSPost2010Prop33
280
     0
102
RTVSPost2010PropOp33
 70
     1
102
RTVSPost2010Prop34
280
     0
102
RTVSPost2010PropOp34
 70
     1
102
RTVSPost2010Prop35
280
     0
102
RTVSPost2010PropOp35
 70
     1
102
RTVSPost2010Prop36
280
     0
102
RTVSPost2010PropOp36
 70
     1
102
RTVSPost2010Prop37
 90
       50
102
RTVSPost2010PropOp37
 70
     1
102
RTVSPost2010Prop38
140
0.0
102
RTVSPost2010PropOp38
 70
     1
102
RTVSPost2010Prop39
140
1.0
102
RTVSPost2010PropOp39
 70
     1
102
RTVSPost2010Prop40
 90
        0
102
RTVSPost2010PropOp40
 70
     1
102
RTVSPost2010Prop41ColorIndex
 90
       18
102
RTVSPost2010Prop41ColorRGB
 90
        0
102
RTVSPost2010PropOp41
 70
     1
102
RTVSPost2010Prop42
 90
       50
102
RTVSPost2010PropOp42
 70
     1
102
RTVSPost2010Prop43
 90
        3
102
RTVSPost2010PropOp43
 70
     1
102
RTVSPost2010Prop44ColorIndex
 90
        5
102
RTVSPost2010Prop44ColorRGB
 90
      255
102
RTVSPost2010PropOp44
 70
     1
102
RTVSPost2010Prop45
280
     0
102
RTVSPost2010PropOp45
 70
     1
102
RTVSPost2010Prop46
 90
       50
102
RTVSPost2010PropOp46
 70
     1
102
RTVSPost2010Prop47
 90
       50
102
RTVSPost2010PropOp47
 70
     1
102
RTVSPost2010Prop48
 90
       50
102
RTVSPost2010PropOp48
 70
     1
102
RTVSPost2010Prop49
280
     0
102
RTVSPost2010PropOp49
 70
     1
102
RTVSPost2010Prop50
 90
       50
102
RTVSPost2010PropOp50
 70
     1
102
RTVSPost2010Prop51ColorIndex
 90
      256
102
RTVSPost2010Prop51ColorRGB
 90
-16777216
102
RTVSPost2010PropOp51
 70
     0
102
RTVSPost2010Prop52
140
1.0
102
RTVSPost2010PropOp52
 70
     0
102
RTVSPost2010Prop53
 90
        2
102
RTVSPost2010PropOp53
 70
     1
102
RTVSPost2010Prop54
  1
strokes_ogs.tif
102
RTVSPost2010PropOp54
 70
     1
102
RTVSPost2010Prop55
280
     0
102
RTVSPost2010PropOp55
 70
     1
102
RTVSPost2010Prop56
140
1.0
102
RTVSPost2010PropOp56
 70
     1
102
RTVSPost2010Prop57
140
1.0
102
RTVSPost2010PropOp57
 70
     1
  0
XRECORD
  5
29F
102
{ACAD_REACTORS
330
29E
102
}
330
29E
100
AcDbXrecord
280
     1
102
RTVSPropertyOp0
 70
     1
102
RTVSPropertyOp1
 70
     1
102
RTVSPropertyOp2
 70
     1
102
RTVSPropertyOp3
 70
     1
102
RTVSPropertyOp4
 70
     1
102
RTVSPropertyOp5
 70
     1
102
RTVSPropertyOp6
 70
     1
102
RTVSPropertyOp7
 70
     1
102
RTVSPropertyOp8
 70
     1
102
RTVSPropertyOp9
 70
     1
102
RTVSPropertyOp10
 70
     1
102
RTVSPropertyOp11
 70
     1
102
RTVSPropertyOp12
 70
     1
102
RTVSPropertyOp13
 70
     1
102
RTVSPropertyOp14
 70
     1
102
RTVSPropertyOp15
 70
     1
102
RTVSPropertyOp16
 70
     1
102
RTVSPropertyOp17
 70
     1
102
RTVSPropertyOp18
 70
     1
102
RTVSPropertyOp19
 70
     1
102
RTVSPropertyOp20
 70
     1
102
RTVSPropertyOp21
 70
     1
102
RTVSPropertyOp22
 70
     1
102
RTVSPropertyOp23
 70
     1
102
RTVSPropertyOp24
 70
     1
102
RTVSPropertyOp25
 70
     1
102
RTVSPropertyOp26
 70
     1
102
RTVSPropertyOp27
 70
     1
102
RTVSPropertyOp28
 70
     1
102
RTVSPropertyOp29
 70
     1
102
RTVSPropertyOp30
 70
     1
102
RTVSPropertyOp31
 70
     1
102
RTVSPropertyOp32
 70
     1
102
RTVSPropertyOp33
 70
     1
102
RTVSPropertyOp34
 70
     1
102
RTVSPropertyOp35
 70
     1
102
RTVSPropertyOp36
 70
     1
102
RTVSPropertyOp37
 70
     1
102
RTVSPropertyOp38
 70
     1
102
RTVSPropertyOp39
 70
     1
102
RTVSPropertyOp40
 70
     1
102
RTVSPropertyOp41
 70
     1
102
RTVSPropertyOp42
 70
     1
102
RTVSPropertyOp43
 70
     1
102
RTVSPropertyOp44
 70
     1
102
RTVSPropertyOp45
 70
     1
102
RTVSPropertyOp46
 70
     1
102
RTVSPropertyOp47
 70
     1
102
RTVSPropertyOp48
 70
     1
102
RTVSPropertyOp49
 70
     1
102
RTVSPropertyOp50
 70
     1
102
RTVSPropertyOp51
 70
     0
102
RTVSPropertyOp52
 70
     0
102
RTVSPropertyOp53
 70
     1
102
RTVSPropertyOp54
 70
     1
102
RTVSPropertyOp55
 70
     1
102
RTVSPropertyOp56
 70
     1
102
RTVSPropertyOp57
 70
     1
102
RTVSPost2010Prop28
280
     0
102
RTVSPost2010PropOp28
 70
     1
102
RTVSPost2010Prop29
280
     1
102
RTVSPost2010PropOp29
 70
     1
102
RTVSPost2010Prop30
280
     1
102
RTVSPost2010PropOp30
 70
     1
102
RTVSPost2010Prop31
280
     0
102
RTVSPost2010PropOp31
 70
     1
102
RTVSPost2010Prop32
280
     0
102
RTVSPost2010PropOp32
 70
     1
102
RTVSPost2010Prop33
280
     0
102
RTVSPost2010PropOp33
 70
     1
102
RTVSPost2010Prop34
280
     0
102
RTVSPost2010PropOp34
 70
     1
102
RTVSPost2010Prop35
280
     0
102
RTVSPost2010PropOp35
 70
     1
102
RTVSPost2010Prop36
280
     0
102
RTVSPost2010PropOp36
 70
     1
102
RTVSPost2010Prop37
 90
       50
102
RTVSPost2010PropOp37
 70
     1
102
RTVSPost2010Prop38
140
0.0
102
RTVSPost2010PropOp38
 70
     1
102
RTVSPost2010Prop39
140
1.0
102
RTVSPost2010PropOp39
 70
     1
102
RTVSPost2010Prop40
 90
        0
102
RTVSPost2010PropOp40
 70
     1
102
RTVSPost2010Prop41ColorIndex
 90
       18
102
RTVSPost2010Prop41ColorRGB
 90
        0
102
RTVSPost2010PropOp41
 70
     1
102
RTVSPost2010Prop42
 90
       50
102
RTVSPost2010PropOp42
 70
     1
102
RTVSPost2010Prop43
 90
        3
102
RTVSPost2010PropOp43
 70
     1
102
RTVSPost2010Prop44ColorIndex
 90
        5
102
RTVSPost2010Prop44ColorRGB
 90
      255
102
RTVSPost2010PropOp44
 70
     1
102
RTVSPost2010Prop45
280
     0
102
RTVSPost2010PropOp45
 70
     1
102
RTVSPost2010Prop46
 90
       50
102
RTVSPost2010PropOp46
 70
     1
102
RTVSPost2010Prop47
 90
       50
102
RTVSPost2010PropOp47
 70
     1
102
RTVSPost2010Prop48
 90
       50
102
RTVSPost2010PropOp48
 70
     1
102
RTVSPost2010Prop49
280
     0
102
RTVSPost2010PropOp49
 70
     1
102
RTVSPost2010Prop50
 90
       50
102
RTVSPost2010PropOp50
 70
     1
102
RTVSPost2010Prop51ColorIndex
 90
      256
102
RTVSPost2010Prop51ColorRGB
 90
-16777216
102
RTVSPost2010PropOp51
 70
     0
102
RTVSPost2010Prop52
140
1.0
102
RTVSPost2010PropOp52
 70
     0
102
RTVSPost2010Prop53
 90
        2
102
RTVSPost2010PropOp53
 70
     1
102
RTVSPost2010Prop54
  1
strokes_ogs.tif
102
RTVSPost2010PropOp54
 70
     1
102
RTVSPost2010Prop55
280
     0
102
RTVSPost2010PropOp55
 70
     1
102
RTVSPost2010Prop56
140
1.0
102
RTVSPost2010PropOp56
 70
     1
102
RTVSPost2010Prop57
140
1.0
102
RTVSPost2010PropOp57
 70
     1
  0
XRECORD
  5
2BF
102
{ACAD_REACTORS
330
2BE
102
}
330
2BE
100
AcDbXrecord
280
     1
102
RTVSPropertyOp0
 70
     1
102
RTVSPropertyOp1
 70
     1
102
RTVSPropertyOp2
 70
     1
102
RTVSPropertyOp3
 70
     1
102
RTVSPropertyOp4
 70
     1
102
RTVSPropertyOp5
 70
     1
102
RTVSPropertyOp6
 70
     1
102
RTVSPropertyOp7
 70
     1
102
RTVSPropertyOp8
 70
     1
102
RTVSPropertyOp9
 70
     1
102
RTVSPropertyOp10
 70
     1
102
RTVSPropertyOp11
 70
     1
102
RTVSPropertyOp12
 70
     1
102
RTVSPropertyOp13
 70
     1
102
RTVSPropertyOp14
 70
     1
102
RTVSPropertyOp15
 70
     1
102
RTVSPropertyOp16
 70
     1
102
RTVSPropertyOp17
 70
     1
102
RTVSPropertyOp18
 70
     1
102
RTVSPropertyOp19
 70
     1
102
RTVSPropertyOp20
 70
     1
102
RTVSPropertyOp21
 70
     1
102
RTVSPropertyOp22
 70
     1
102
RTVSPropertyOp23
 70
     1
102
RTVSPropertyOp24
 70
     1
102
RTVSPropertyOp25
 70
     1
102
RTVSPropertyOp26
 70
     1
102
RTVSPropertyOp27
 70
     1
102
RTVSPropertyOp28
 70
     1
102
RTVSPropertyOp29
 70
     1
102
RTVSPropertyOp30
 70
     1
102
RTVSPropertyOp31
 70
     1
102
RTVSPropertyOp32
 70
     1
102
RTVSPropertyOp33
 70
     1
102
RTVSPropertyOp34
 70
     1
102
RTVSPropertyOp35
 70
     1
102
RTVSPropertyOp36
 70
     1
102
RTVSPropertyOp37
 70
     1
102
RTVSPropertyOp38
 70
     1
102
RTVSPropertyOp39
 70
     1
102
RTVSPropertyOp40
 70
     1
102
RTVSPropertyOp41
 70
     1
102
RTVSPropertyOp42
 70
     1
102
RTVSPropertyOp43
 70
     1
102
RTVSPropertyOp44
 70
     1
102
RTVSPropertyOp45
 70
     1
102
RTVSPropertyOp46
 70
     1
102
RTVSPropertyOp47
 70
     1
102
RTVSPropertyOp48
 70
     1
102
RTVSPropertyOp49
 70
     1
102
RTVSPropertyOp50
 70
     1
102
RTVSPropertyOp51
 70
     0
102
RTVSPropertyOp52
 70
     0
102
RTVSPropertyOp53
 70
     1
102
RTVSPropertyOp54
 70
     1
102
RTVSPropertyOp55
 70
     1
102
RTVSPropertyOp56
 70
     1
102
RTVSPropertyOp57
 70
     1
102
RTVSPost2010Prop28
280
     0
102
RTVSPost2010PropOp28
 70
     1
102
RTVSPost2010Prop29
280
     1
102
RTVSPost2010PropOp29
 70
     1
102
RTVSPost2010Prop30
280
     1
102
RTVSPost2010PropOp30
 70
     1
102
RTVSPost2010Prop31
280
     0
102
RTVSPost2010PropOp31
 70
     1
102
RTVSPost2010Prop32
280
     0
102
RTVSPost2010PropOp32
 70
     1
102
RTVSPost2010Prop33
280
     0
102
RTVSPost2010PropOp33
 70
     1
102
RTVSPost2010Prop34
280
     0
102
RTVSPost2010PropOp34
 70
     1
102
RTVSPost2010Prop35
280
     0
102
RTVSPost2010PropOp35
 70
     1
102
RTVSPost2010Prop36
280
     0
102
RTVSPost2010PropOp36
 70
     1
102
RTVSPost2010Prop37
 90
       50
102
RTVSPost2010PropOp37
 70
     1
102
RTVSPost2010Prop38
140
0.0
102
RTVSPost2010PropOp38
 70
     1
102
RTVSPost2010Prop39
140
1.0
102
RTVSPost2010PropOp39
 70
     1
102
RTVSPost2010Prop40
 90
        0
102
RTVSPost2010PropOp40
 70
     1
102
RTVSPost2010Prop41ColorIndex
 90
       18
102
RTVSPost2010Prop41ColorRGB
 90
        0
102
RTVSPost2010PropOp41
 70
     1
102
RTVSPost2010Prop42
 90
       50
102
RTVSPost2010PropOp42
 70
     1
102
RTVSPost2010Prop43
 90
        3
102
RTVSPost2010PropOp43
 70
     1
102
RTVSPost2010Prop44ColorIndex
 90
        5
102
RTVSPost2010Prop44ColorRGB
 90
      255
102
RTVSPost2010PropOp44
 70
     1
102
RTVSPost2010Prop45
280
     0
102
RTVSPost2010PropOp45
 70
     1
102
RTVSPost2010Prop46
 90
       50
102
RTVSPost2010PropOp46
 70
     1
102
RTVSPost2010Prop47
 90
       50
102
RTVSPost2010PropOp47
 70
     1
102
RTVSPost2010Prop48
 90
       50
102
RTVSPost2010PropOp48
 70
     1
102
RTVSPost2010Prop49
280
     0
102
RTVSPost2010PropOp49
 70
     1
102
RTVSPost2010Prop50
 90
       50
102
RTVSPost2010PropOp50
 70
     1
102
RTVSPost2010Prop51ColorIndex
 90
      256
102
RTVSPost2010Prop51ColorRGB
 90
-16777216
102
RTVSPost2010PropOp51
 70
     0
102
RTVSPost2010Prop52
140
1.0
102
RTVSPost2010PropOp52
 70
     0
102
RTVSPost2010Prop53
 90
        2
102
RTVSPost2010PropOp53
 70
     1
102
RTVSPost2010Prop54
  1
strokes_ogs.tif
102
RTVSPost2010PropOp54
 70
     1
102
RTVSPost2010Prop55
280
     0
102
RTVSPost2010PropOp55
 70
     1
102
RTVSPost2010Prop56
140
1.0
102
RTVSPost2010PropOp56
 70
     1
102
RTVSPost2010Prop57
140
1.0
102
RTVSPost2010PropOp57
 70
     1
  0
ENDSEC
  0
EOF
