  0
SECTION
  2
HEADER
  9
$ACADVER
  1
AC1021
  9
$ACADMAINTVER
 70
    25
  9
$DWGCODEPAGE
  3
ANSI_1252
  9
$LASTSAVEDBY
  1
Haden
  9
$INSBASE
 10
0.0
 20
0.0
 30
0.0
  9
$EXTMIN
 10
7.579852930104816
 20
40.79043197631835
 30
-36.300048828125
  9
$EXTMAX
 10
11.57985305786133
 20
44.7904329403333
 30
-0.3000480166260655
  9
$LIMMIN
 10
0.0
 20
0.0
  9
$LIMMAX
 10
12.0
 20
9.0
  9
$ORTHOMODE
 70
     0
  9
$REGENMODE
 70
     1
  9
$FILLMODE
 70
     1
  9
$QTEXTMODE
 70
     0
  9
$MIRRTEXT
 70
     0
  9
$LTSCALE
 40
1.0
  9
$ATTMODE
 70
     1
  9
$TEXTSIZE
 40
0.2
  9
$TRACEWID
 40
0.05
  9
$TEXTSTYLE
  7
Standard
  9
$CLAYER
  8
0
  9
$CELTYPE
  6
ByLayer
  9
$CECOLOR
 62
   256
  9
$CELTSCALE
 40
1.0
  9
$DISPSILH
 70
     0
  9
$DIMSCALE
 40
1.0
  9
$DIMASZ
 40
0.18
  9
$DIMEXO
 40
0.0625
  9
$DIMDLI
 40
0.38
  9
$DIMRND
 40
0.0
  9
$DIMDLE
 40
0.0
  9
$DIMEXE
 40
0.18
  9
$DIMTP
 40
0.0
  9
$DIMTM
 40
0.0
  9
$DIMTXT
 40
0.18
  9
$DIMCEN
 40
0.09
  9
$DIMTSZ
 40
0.0
  9
$DIMTOL
 70
     0
  9
$DIMLIM
 70
     0
  9
$DIMTIH
 70
     1
  9
$DIMTOH
 70
     1
  9
$DIMSE1
 70
     0
  9
$DIMSE2
 70
     0
  9
$DIMTAD
 70
     0
  9
$DIMZIN
 70
     0
  9
$DIMBLK
  1

  9
$DIMASO
 70
     1
  9
$DIMSHO
 70
     1
  9
$DIMPOST
  1

  9
$DIMAPOST
  1

  9
$DIMALT
 70
     0
  9
$DIMALTD
 70
     2
  9
$DIMALTF
 40
25.4
  9
$DIMLFAC
 40
1.0
  9
$DIMTOFL
 70
     0
  9
$DIMTVP
 40
0.0
  9
$DIMTIX
 70
     0
  9
$DIMSOXD
 70
     0
  9
$DIMSAH
 70
     0
  9
$DIMBLK1
  1

  9
$DIMBLK2
  1

  9
$DIMSTYLE
  2
Standard
  9
$DIMCLRD
 70
     0
  9
$DIMCLRE
 70
     0
  9
$DIMCLRT
 70
     0
  9
$DIMTFAC
 40
1.0
  9
$DIMGAP
 40
0.09
  9
$DIMJUST
 70
     0
  9
$DIMSD1
 70
     0
  9
$DIMSD2
 70
     0
  9
$DIMTOLJ
 70
     1
  9
$DIMTZIN
 70
     0
  9
$DIMALTZ
 70
     0
  9
$DIMALTTZ
 70
     0
  9
$DIMUPT
 70
     0
  9
$DIMDEC
 70
     4
  9
$DIMTDEC
 70
     4
  9
$DIMALTU
 70
     2
  9
$DIMALTTD
 70
     2
  9
$DIMTXSTY
  7
Standard
  9
$DIMAUNIT
 70
     0
  9
$DIMADEC
 70
     0
  9
$DIMALTRND
 40
0.0
  9
$DIMAZIN
 70
     0
  9
$DIMDSEP
 70
    46
  9
$DIMATFIT
 70
     3
  9
$DIMFRAC
 70
     0
  9
$DIMLDRBLK
  1

  9
$DIMLUNIT
 70
     2
  9
$DIMLWD
 70
    -2
  9
$DIMLWE
 70
    -2
  9
$DIMTMOVE
 70
     0
  9
$DIMFXL
 40
1.0
  9
$DIMFXLON
 70
     0
  9
$DIMJOGANG
 40
0.7853981633974483
  9
$DIMTFILL
 70
     0
  9
$DIMTFILLCLR
 70
     0
  9
$DIMARCSYM
 70
     0
  9
$DIMLTYPE
  6

  9
$DIMLTEX1
  6

  9
$DIMLTEX2
  6

  9
$LUNITS
 70
     2
  9
$LUPREC
 70
     4
  9
$SKETCHINC
 40
0.1
  9
$FILLETRAD
 40
0.0
  9
$AUNITS
 70
     0
  9
$AUPREC
 70
     0
  9
$MENU
  1
.
  9
$ELEVATION
 40
0.0
  9
$PELEVATION
 40
0.0
  9
$THICKNESS
 40
0.0
  9
$LIMCHECK
 70
     0
  9
$CHAMFERA
 40
0.0
  9
$CHAMFERB
 40
0.0
  9
$CHAMFERC
 40
0.0
  9
$CHAMFERD
 40
0.0
  9
$SKPOLY
 70
     0
  9
$TDCREATE
 40
2454579.611719768
  9
$TDUCREATE
 40
2454579.778386435
  9
$TDUPDATE
 40
2454580.652540590
  9
$TDUUPDATE
 40
2454580.819207258
  9
$TDINDWG
 40
0.1300460648
  9
$TDUSRTIMER
 40
0.1300435069
  9
$USRTIMER
 70
     1
  9
$ANGBASE
 50
0.0
  9
$ANGDIR
 70
     0
  9
$PDMODE
 70
     0
  9
$PDSIZE
 40
0.0
  9
$PLINEWID
 40
0.0
  9
$SPLFRAME
 70
     0
  9
$SPLINETYPE
 70
     6
  9
$SPLINESEGS
 70
     8
  9
$HANDSEED
  5
778
  9
$SURFTAB1
 70
     6
  9
$SURFTAB2
 70
     6
  9
$SURFTYPE
 70
     6
  9
$SURFU
 70
     6
  9
$SURFV
 70
     6
  9
$UCSBASE
  2

  9
$UCSNAME
  2

  9
$UCSORG
 10
0.0
 20
0.0
 30
0.0
  9
$UCSXDIR
 10
-1.0
 20
0.0
 30
0.0
  9
$UCSYDIR
 10
0.0
 20
0.0
 30
1.0
  9
$UCSORTHOREF
  2

  9
$UCSORTHOVIEW
 70
     0
  9
$UCSORGTOP
 10
0.0
 20
0.0
 30
0.0
  9
$UCSORGBOTTOM
 10
0.0
 20
0.0
 30
0.0
  9
$UCSORGLEFT
 10
0.0
 20
0.0
 30
0.0
  9
$UCSORGRIGHT
 10
0.0
 20
0.0
 30
0.0
  9
$UCSORGFRONT
 10
0.0
 20
0.0
 30
0.0
  9
$UCSORGBACK
 10
0.0
 20
0.0
 30
0.0
  9
$PUCSBASE
  2

  9
$PUCSNAME
  2

  9
$PUCSORG
 10
0.0
 20
0.0
 30
0.0
  9
$PUCSXDIR
 10
1.0
 20
0.0
 30
0.0
  9
$PUCSYDIR
 10
0.0
 20
1.0
 30
0.0
  9
$PUCSORTHOREF
  2

  9
$PUCSORTHOVIEW
 70
     0
  9
$PUCSORGTOP
 10
0.0
 20
0.0
 30
0.0
  9
$PUCSORGBOTTOM
 10
0.0
 20
0.0
 30
0.0
  9
$PUCSORGLEFT
 10
0.0
 20
0.0
 30
0.0
  9
$PUCSORGRIGHT
 10
0.0
 20
0.0
 30
0.0
  9
$PUCSORGFRONT
 10
0.0
 20
0.0
 30
0.0
  9
$PUCSORGBACK
 10
0.0
 20
0.0
 30
0.0
  9
$USERI1
 70
     0
  9
$USERI2
 70
     0
  9
$USERI3
 70
     0
  9
$USERI4
 70
     0
  9
$USERI5
 70
     0
  9
$USERR1
 40
0.0
  9
$USERR2
 40
0.0
  9
$USERR3
 40
0.0
  9
$USERR4
 40
0.0
  9
$USERR5
 40
0.0
  9
$WORLDVIEW
 70
     1
  9
$SHADEDGE
 70
     3
  9
$SHADEDIF
 70
    70
  9
$TILEMODE
 70
     1
  9
$MAXACTVP
 70
    64
  9
$PINSBASE
 10
0.0
 20
0.0
 30
0.0
  9
$PLIMCHECK
 70
     0
  9
$PEXTMIN
 10
0.0
 20
0.0
 30
0.0
  9
$PEXTMAX
 10
0.0
 20
0.0
 30
0.0
  9
$PLIMMIN
 10
0.0
 20
0.0
  9
$PLIMMAX
 10
12.0
 20
9.0
  9
$UNITMODE
 70
     0
  9
$VISRETAIN
 70
     1
  9
$PLINEGEN
 70
     0
  9
$PSLTSCALE
 70
     1
  9
$TREEDEPTH
 70
  3020
  9
$CMLSTYLE
  2
Standard
  9
$CMLJUST
 70
     0
  9
$CMLSCALE
 40
1.0
  9
$PROXYGRAPHICS
 70
     1
  9
$MEASUREMENT
 70
     0
  9
$CELWEIGHT
370
    -1
  9
$ENDCAPS
280
     0
  9
$JOINSTYLE
280
     0
  9
$LWDISPLAY
290
     0
  9
$INSUNITS
 70
     1
  9
$HYPERLINKBASE
  1

  9
$STYLESHEET
  1

  9
$XEDIT
290
     1
  9
$CEPSNTYPE
380
     0
  9
$PSTYLEMODE
290
     1
  9
$FINGERPRINTGUID
  2
{3C53080A-0FCB-41D5-B9AE-DC7FE96C5F70}
  9
$VERSIONGUID
  2
{B664133A-3B41-4BED-8524-D46C054F1138}
  9
$EXTNAMES
290
     1
  9
$PSVPSCALE
 40
0.0
  9
$OLESTARTUP
290
     0
  9
$SORTENTS
280
   127
  9
$INDEXCTL
280
     0
  9
$HIDETEXT
280
     1
  9
$XCLIPFRAME
290
     0
  9
$HALOGAP
280
     0
  9
$OBSCOLOR
 70
   257
  9
$OBSLTYPE
280
     0
  9
$INTERSECTIONDISPLAY
280
     0
  9
$INTERSECTIONCOLOR
 70
   257
  9
$DIMASSOC
280
     2
  9
$PROJECTNAME
  1

  9
$CAMERADISPLAY
290
     0
  9
$LENSLENGTH
 40
50.0
  9
$CAMERAHEIGHT
 40
0.0
  9
$STEPSPERSEC
 40
2.0
  9
$STEPSIZE
 40
6.0
  9
$3DDWFPREC
 40
2.0
  9
$PSOLWIDTH
 40
0.25
  9
$PSOLHEIGHT
 40
4.0
  9
$LOFTANG1
 40
1.570796326794896
  9
$LOFTANG2
 40
1.570796326794896
  9
$LOFTMAG1
 40
0.0
  9
$LOFTMAG2
 40
0.0
  9
$LOFTPARAM
 70
     7
  9
$LOFTNORMALS
280
     1
  9
$LATITUDE
 40
37.795
  9
$LONGITUDE
 40
-122.394
  9
$NORTHDIRECTION
 40
0.0
  9
$TIMEZONE
 70
 -8000
  9
$LIGHTGLYPHDISPLAY
280
     1
  9
$TILEMODELIGHTSYNCH
280
     1
  9
$CMATERIAL
347
96
  9
$SOLIDHIST
280
     1
  9
$SHOWHIST
280
     1
  9
$DWFFRAME
280
     2
  9
$DGNFRAME
280
     0
  9
$REALWORLDSCALE
290
     1
  9
$INTERFERECOLOR
 62
     1
  9
$INTERFEREOBJVS
345
A3
  9
$INTERFEREVPVS
346
A0
  9
$CSHADOW
280
     0
  9
$SHADOWPLANELOCATION
 40
0.0
  0
ENDSEC
  0
SECTION
  2
CLASSES
  0
CLASS
  1
ACDBDICTIONARYWDFLT
  2
AcDbDictionaryWithDefault
  3
ObjectDBX Classes
 90
        0
 91
        1
280
     0
281
     0
  0
CLASS
  1
DICTIONARYVAR
  2
AcDbDictionaryVar
  3
ObjectDBX Classes
 90
        0
 91
        5
280
     0
281
     0
  0
CLASS
  1
TABLESTYLE
  2
AcDbTableStyle
  3
ObjectDBX Classes
 90
     4095
 91
        1
280
     0
281
     0
  0
CLASS
  1
MATERIAL
  2
AcDbMaterial
  3
ObjectDBX Classes
 90
     1153
 91
        4
280
     0
281
     0
  0
CLASS
  1
VISUALSTYLE
  2
AcDbVisualStyle
  3
ObjectDBX Classes
 90
     4095
 91
       16
280
     0
281
     0
  0
CLASS
  1
SCALE
  2
AcDbScale
  3
ObjectDBX Classes
 90
     1153
 91
       33
280
     0
281
     0
  0
CLASS
  1
MLEADERSTYLE
  2
AcDbMLeaderStyle
  3
ACDB_MLEADERSTYLE_CLASS
 90
     4095
 91
        2
280
     0
281
     0
  0
CLASS
  1
CELLSTYLEMAP
  2
AcDbCellStyleMap
  3
ObjectDBX Classes
 90
     1152
 91
        2
280
     0
281
     0
  0
CLASS
  1
SORTENTSTABLE
  2
AcDbSortentsTable
  3
ObjectDBX Classes
 90
        0
 91
        1
280
     0
281
     0
  0
CLASS
  1
ACSH_EXTRUSION_CLASS
  2
AcDbShExtrusion
  3
ObjectDBX Classes
 90
     1153
 91
        8
280
     0
281
     0
  0
CLASS
  1
ACAD_EVALUATION_GRAPH
  2
AcDbEvalGraph
  3
ObjectDBX Classes
 90
     1153
 91
        1
280
     0
281
     0
  0
CLASS
  1
ACSH_HISTORY_CLASS
  2
AcDbShHistory
  3
ObjectDBX Classes
 90
     1153
 91
        1
280
     0
281
     0
  0
CLASS
  1
ACDBPERSSUBENTMANAGER
  2
AcDbPersSubentManager
  3
AcDbPersSubentManager
 90
     1024
 91
        1
280
     0
281
     0
  0
CLASS
  1
ACSH_BOOLEAN_CLASS
  2
AcDbShBoolean
  3
ObjectDBX Classes
 90
     1153
 91
        7
280
     0
281
     0
  0
CLASS
  1
SOLID_BACKGROUND
  2
AcDbSolidBackground
  3
SCENEOE
 90
     4095
 91
        0
280
     0
281
     0
  0
CLASS
  1
NPOCOLLECTION
  2
AcDbImpNonPersistentObjectsCollection
  3
ObjectDBX Classes
 90
     1153
 91
        0
280
     0
281
     0
  0
CLASS
  1
EXTRUDEDSURFACE
  2
AcDbExtrudedSurface
  3
ObjectDBX Classes
 90
     4093
 91
        0
280
     0
281
     1
  0
CLASS
  1
SURFACE
  2
AcDbSurface
  3
ObjectDBX Classes
 90
     4095
 91
        0
280
     0
281
     1
  0
ENDSEC
  0
SECTION
  2
TABLES
  0
TABLE
  2
VPORT
  5
8
330
0
100
AcDbSymbolTable
 70
     1
  0
VPORT
  5
94
330
8
100
AcDbSymbolTableRecord
100
AcDbViewportTableRecord
  2
*Active
 70
     0
 10
0.0
 20
0.0
 11
1.0
 21
1.0
 12
-5.851251020216921
 22
-2.055927247329883
 13
0.0
 23
0.0
 14
0.5
 24
0.5
 15
0.5
 25
0.5
 16
-1.0
 26
1.0
 36
1.0
 17
7.811100134273776
 27
36.28426718652419
 37
-18.15076814349357
 40
33.04867113278903
 41
1.992047713717693
 42
50.0
 43
0.0
 44
0.0
 50
0.0
 51
0.0
 71
     0
 72
  1000
 73
     1
 74
     3
 75
     0
 76
     0
 77
     0
 78
     0
281
     0
 65
     1
110
0.0
120
0.0
130
0.0
111
-1.0
121
0.0
131
0.0
112
0.0
122
0.0
132
1.0
 79
     0
146
0.0
348
9F
 60
     2
 61
     5
292
     1
282
     1
141
0.0
142
0.0
 63
   250
421
  3355443
  0
ENDTAB
  0
TABLE
  2
LTYPE
  5
5
330
0
100
AcDbSymbolTable
 70
     1
  0
LTYPE
  5
14
330
5
100
AcDbSymbolTableRecord
100
AcDbLinetypeTableRecord
  2
ByBlock
 70
     0
  3

 72
    65
 73
     0
 40
0.0
  0
LTYPE
  5
15
330
5
100
AcDbSymbolTableRecord
100
AcDbLinetypeTableRecord
  2
ByLayer
 70
     0
  3

 72
    65
 73
     0
 40
0.0
  0
LTYPE
  5
16
330
5
100
AcDbSymbolTableRecord
100
AcDbLinetypeTableRecord
  2
Continuous
 70
     0
  3
Solid line
 72
    65
 73
     0
 40
0.0
  0
ENDTAB
  0
TABLE
  2
LAYER
  5
2
330
0
100
AcDbSymbolTable
 70
     2
  0
LAYER
  5
10
102
{ACAD_XDICTIONARY
360
E6
102
}
330
2
100
AcDbSymbolTableRecord
100
AcDbLayerTableRecord
  2
0
 70
     0
 62
     7
  6
Continuous
370
    -3
390
F
347
98
  0
LAYER
  5
55D
330
2
100
AcDbSymbolTableRecord
100
AcDbLayerTableRecord
  2
ASHADE
 70
     4
 62
     7
  6
Continuous
370
    -3
390
F
347
98
  0
ENDTAB
  0
TABLE
  2
STYLE
  5
3
330
0
100
AcDbSymbolTable
 70
     3
  0
STYLE
  5
11
330
3
100
AcDbSymbolTableRecord
100
AcDbTextStyleTableRecord
  2
Standard
 70
     0
 40
0.0
 41
1.0
 50
0.0
 71
     0
 42
0.2
  3
txt
  4

  0
STYLE
  5
DC
330
3
100
AcDbSymbolTableRecord
100
AcDbTextStyleTableRecord
  2
Annotative
 70
     0
 40
0.0
 41
1.0
 50
0.0
 71
     0
 42
0.2
  3
txt.shx
  4

1001
AcadAnnotative
1000
AnnotativeData
1002
{
1070
     1
1070
     1
1002
}
  0
STYLE
  5
55A
330
3
100
AcDbSymbolTableRecord
100
AcDbTextStyleTableRecord
  2
ASHADE
 70
     0
 40
0.2
 41
1.0
 50
0.0
 71
     0
 42
0.2
  3
simplex
  4

  0
ENDTAB
  0
TABLE
  2
VIEW
  5
6
330
0
100
AcDbSymbolTable
 70
     1
  0
ENDTAB
  0
TABLE
  2
UCS
  5
7
330
0
100
AcDbSymbolTable
 70
     1
  0
ENDTAB
  0
TABLE
  2
APPID
  5
9
330
0
100
AcDbSymbolTable
 70
    12
  0
APPID
  5
12
330
9
100
AcDbSymbolTableRecord
100
AcDbRegAppTableRecord
  2
ACAD
 70
     0
  0
APPID
  5
DD
330
9
100
AcDbSymbolTableRecord
100
AcDbRegAppTableRecord
  2
AcadAnnoPO
 70
     0
  0
APPID
  5
DE
330
9
100
AcDbSymbolTableRecord
100
AcDbRegAppTableRecord
  2
AcadAnnotative
 70
     0
  0
APPID
  5
DF
330
9
100
AcDbSymbolTableRecord
100
AcDbRegAppTableRecord
  2
ACAD_DSTYLE_DIMJAG
 70
     0
  0
APPID
  5
E0
330
9
100
AcDbSymbolTableRecord
100
AcDbRegAppTableRecord
  2
ACAD_DSTYLE_DIMTALN
 70
     0
  0
APPID
  5
107
330
9
100
AcDbSymbolTableRecord
100
AcDbRegAppTableRecord
  2
ACAD_MLEADERVER
 70
     0
  0
APPID
  5
17A
330
9
100
AcDbSymbolTableRecord
100
AcDbRegAppTableRecord
  2
ACAD_EXEMPT_FROM_CAD_STANDARDS
 70
     0
  0
APPID
  5
55B
330
9
100
AcDbSymbolTableRecord
100
AcDbRegAppTableRecord
  2
AVE_RENDER
 70
     0
  0
APPID
  5
55C
330
9
100
AcDbSymbolTableRecord
100
AcDbRegAppTableRecord
  2
AVE_ENTITY_MATERIAL
 70
     0
  0
APPID
  5
569
330
9
100
AcDbSymbolTableRecord
100
AcDbRegAppTableRecord
  2
AVE_FINISH
 70
     0
  0
APPID
  5
56A
330
9
100
AcDbSymbolTableRecord
100
AcDbRegAppTableRecord
  2
AVE_MATERIAL
 70
     0
  0
APPID
  5
56B
330
9
100
AcDbSymbolTableRecord
100
AcDbRegAppTableRecord
  2
AVE_GLOBAL
 70
     0
  0
ENDTAB
  0
TABLE
  2
DIMSTYLE
  5
A
330
0
100
AcDbSymbolTable
 70
     2
100
AcDbDimStyleTable
 71
     2
340
27
340
E1
  0
DIMSTYLE
105
27
330
A
100
AcDbSymbolTableRecord
100
AcDbDimStyleTableRecord
  2
Standard
 70
     0
340
11
  0
DIMSTYLE
105
E1
330
A
100
AcDbSymbolTableRecord
100
AcDbDimStyleTableRecord
  2
Annotative
 70
     0
 40
0.0
340
11
1001
AcadAnnotative
1000
AnnotativeData
1002
{
1070
     1
1070
     1
1002
}
1001
ACAD_DSTYLE_DIMJAG
1070
   388
1040
1.5
1001
ACAD_DSTYLE_DIMTALN
1070
   392
1070
     0
  0
ENDTAB
  0
TABLE
  2
BLOCK_RECORD
  5
1
330
0
100
AcDbSymbolTable
 70
     4
  0
BLOCK_RECORD
  5
1F
102
{ACAD_XDICTIONARY
360
150
102
}
330
1
100
AcDbSymbolTableRecord
100
AcDbBlockTableRecord
  2
*Model_Space
340
22
 70
     0
280
     1
281
     0
  0
BLOCK_RECORD
  5
58
330
1
100
AcDbSymbolTableRecord
100
AcDbBlockTableRecord
  2
*Paper_Space
340
59
 70
     0
280
     1
281
     0
  0
BLOCK_RECORD
  5
5D
330
1
100
AcDbSymbolTableRecord
100
AcDbBlockTableRecord
  2
*Paper_Space0
340
5E
 70
     0
280
     1
281
     0
  0
BLOCK_RECORD
  5
55E
330
1
100
AcDbSymbolTableRecord
100
AcDbBlockTableRecord
  2
AVE_RENDER
340
0
102
{BLKREFS
331
561
331
562
331
563
331
564
331
565
331
566
331
567
331
568
102
}
 70
     0
280
     1
281
     0
  0
BLOCK_RECORD
  5
56C
330
1
100
AcDbSymbolTableRecord
100
AcDbBlockTableRecord
  2
AVE_GLOBAL
340
0
102
{BLKREFS
331
56F
102
}
 70
     0
280
     1
281
     0
  0
BLOCK_RECORD
  5
73B
330
1
100
AcDbSymbolTableRecord
100
AcDbBlockTableRecord
  2
RM_SDB
340
0
102
{BLKREFS
331
755
102
}
 70
     0
280
     1
281
     0
  0
ENDTAB
  0
ENDSEC
  0
SECTION
  2
BLOCKS
  0
BLOCK
  5
20
330
1F
100
AcDbEntity
  8
0
100
AcDbBlockBegin
  2
*Model_Space
 70
     0
 10
0.0
 20
0.0
 30
0.0
  3
*Model_Space
  1

  0
ENDBLK
  5
21
330
1F
100
AcDbEntity
  8
0
100
AcDbBlockEnd
  0
BLOCK
  5
5A
330
58
100
AcDbEntity
 67
     1
  8
0
100
AcDbBlockBegin
  2
*Paper_Space
 70
     0
 10
0.0
 20
0.0
 30
0.0
  3
*Paper_Space
  1

  0
ENDBLK
  5
5B
330
58
100
AcDbEntity
 67
     1
  8
0
100
AcDbBlockEnd
  0
BLOCK
  5
5F
330
5D
100
AcDbEntity
 67
     1
  8
0
100
AcDbBlockBegin
  2
*Paper_Space0
 70
     0
 10
0.0
 20
0.0
 30
0.0
  3
*Paper_Space0
  1

  0
ENDBLK
  5
60
330
5D
100
AcDbEntity
 67
     1
  8
0
100
AcDbBlockEnd
  0
BLOCK
  5
55F
330
55E
100
AcDbEntity
  8
ASHADE
100
AcDbBlockBegin
  2
AVE_RENDER
 70
     0
 10
0.0
 20
0.0
 30
0.0
  3
AVE_RENDER
  1
AVE_RENDER
  0
ENDBLK
  5
560
330
55E
100
AcDbEntity
  8
0
100
AcDbBlockEnd
  0
BLOCK
  5
56D
330
56C
100
AcDbEntity
  8
ASHADE
100
AcDbBlockBegin
  2
AVE_GLOBAL
 70
     0
 10
0.0
 20
0.0
 30
0.0
  3
AVE_GLOBAL
  1
AVE_GLOBAL
  0
ENDBLK
  5
56E
330
56C
100
AcDbEntity
  8
0
100
AcDbBlockEnd
  0
BLOCK
  5
73C
330
73B
100
AcDbEntity
  8
ASHADE
100
AcDbBlockBegin
  2
RM_SDB
 70
     2
 10
0.0
 20
0.0
 30
0.0
  3
RM_SDB
  1
RM_SDB
  0
ATTDEF
  5
73D
330
73B
100
AcDbEntity
  8
0
100
AcDbText
 10
0.0
 20
0.0
 30
0.0
 40
0.2
  1

100
AcDbAttributeDefinition
  3

  2
NAME
 70
     1
280
     0
  0
ATTDEF
  5
73E
330
73B
100
AcDbEntity
  8
0
100
AcDbText
 10
0.0
 20
0.0
 30
0.0
 40
0.2
  1

100
AcDbAttributeDefinition
  3

  2
ACADCOLOR
 70
     1
280
     0
  0
ATTDEF
  5
73F
330
73B
100
AcDbEntity
  8
0
100
AcDbText
 10
0.0
 20
0.0
 30
0.0
 40
0.2
  1

100
AcDbAttributeDefinition
  3

  2
COLOR
 70
     1
280
     0
  0
ATTDEF
  5
740
330
73B
100
AcDbEntity
  8
0
100
AcDbText
 10
0.0
 20
0.0
 30
0.0
 40
0.2
  1

100
AcDbAttributeDefinition
  3

  2
OPACITY
 70
     1
280
     0
  0
ATTDEF
  5
741
330
73B
100
AcDbEntity
  8
0
100
AcDbText
 10
0.0
 20
0.0
 30
0.0
 40
0.2
  1

100
AcDbAttributeDefinition
  3

  2
SURFACE
 70
     1
280
     0
  0
ATTDEF
  5
742
330
73B
100
AcDbEntity
  8
0
100
AcDbText
 10
0.0
 20
0.0
 30
0.0
 40
0.2
  1

100
AcDbAttributeDefinition
  3

  2
SURF1
 70
     1
280
     0
  0
ATTDEF
  5
743
330
73B
100
AcDbEntity
  8
0
100
AcDbText
 10
0.0
 20
0.0
 30
0.0
 40
0.2
  1

100
AcDbAttributeDefinition
  3

  2
SURF2
 70
     1
280
     0
  0
ATTDEF
  5
744
330
73B
100
AcDbEntity
  8
0
100
AcDbText
 10
0.0
 20
0.0
 30
0.0
 40
0.2
  1

100
AcDbAttributeDefinition
  3

  2
SURF3
 70
     1
280
     0
  0
ATTDEF
  5
745
330
73B
100
AcDbEntity
  8
0
100
AcDbText
 10
0.0
 20
0.0
 30
0.0
 40
0.2
  1

100
AcDbAttributeDefinition
  3

  2
SURF4
 70
     1
280
     0
  0
ATTDEF
  5
746
330
73B
100
AcDbEntity
  8
0
100
AcDbText
 10
0.0
 20
0.0
 30
0.0
 40
0.2
  1

100
AcDbAttributeDefinition
  3

  2
SHADINGRATE
 70
     1
280
     0
  0
ATTDEF
  5
747
330
73B
100
AcDbEntity
  8
0
100
AcDbText
 10
0.0
 20
0.0
 30
0.0
 40
0.2
  1

100
AcDbAttributeDefinition
  3

  2
DISPLACEMENT
 70
     1
280
     0
  0
ATTDEF
  5
748
330
73B
100
AcDbEntity
  8
0
100
AcDbText
 10
0.0
 20
0.0
 30
0.0
 40
0.2
  1

100
AcDbAttributeDefinition
  3

  2
DISP1
 70
     1
280
     0
  0
ATTDEF
  5
749
330
73B
100
AcDbEntity
  8
0
100
AcDbText
 10
0.0
 20
0.0
 30
0.0
 40
0.2
  1

100
AcDbAttributeDefinition
  3

  2
DISP2
 70
     1
280
     0
  0
ATTDEF
  5
74A
330
73B
100
AcDbEntity
  8
0
100
AcDbText
 10
0.0
 20
0.0
 30
0.0
 40
0.2
  1

100
AcDbAttributeDefinition
  3

  2
DISP3
 70
     1
280
     0
  0
ATTDEF
  5
74B
330
73B
100
AcDbEntity
  8
0
100
AcDbText
 10
0.0
 20
0.0
 30
0.0
 40
0.2
  1

100
AcDbAttributeDefinition
  3

  2
DISP4
 70
     1
280
     0
  0
ATTDEF
  5
74C
330
73B
100
AcDbEntity
  8
0
100
AcDbText
 10
0.0
 20
0.0
 30
0.0
 40
0.2
  1

100
AcDbAttributeDefinition
  3

  2
DBOUND
 70
     1
280
     0
  0
ATTDEF
  5
74D
330
73B
100
AcDbEntity
  8
0
100
AcDbText
 10
0.0
 20
0.0
 30
0.0
 40
0.2
  1

100
AcDbAttributeDefinition
  3

  2
SMOOTH
 70
     1
280
     0
  0
ATTDEF
  5
74E
330
73B
100
AcDbEntity
  8
0
100
AcDbText
 10
0.0
 20
0.0
 30
0.0
 40
0.2
  1

100
AcDbAttributeDefinition
  3

  2
ATMOSHPERE
 70
     1
280
     0
  0
ATTDEF
  5
74F
330
73B
100
AcDbEntity
  8
0
100
AcDbText
 10
0.0
 20
0.0
 30
0.0
 40
0.2
  1

100
AcDbAttributeDefinition
  3

  2
ATMO1
 70
     1
280
     0
  0
ATTDEF
  5
750
330
73B
100
AcDbEntity
  8
0
100
AcDbText
 10
0.0
 20
0.0
 30
0.0
 40
0.2
  1

100
AcDbAttributeDefinition
  3

  2
ATMO2
 70
     1
280
     0
  0
ATTDEF
  5
751
330
73B
100
AcDbEntity
  8
0
100
AcDbText
 10
0.0
 20
0.0
 30
0.0
 40
0.2
  1

100
AcDbAttributeDefinition
  3

  2
ATMO3
 70
     1
280
     0
  0
ATTDEF
  5
752
330
73B
100
AcDbEntity
  8
0
100
AcDbText
 10
0.0
 20
0.0
 30
0.0
 40
0.2
  1

100
AcDbAttributeDefinition
  3

  2
ATMO4
 70
     1
280
     0
  0
ATTDEF
  5
753
330
73B
100
AcDbEntity
  8
0
100
AcDbText
 10
0.0
 20
0.0
 30
0.0
 40
0.2
  1

100
AcDbAttributeDefinition
  3

  2
TCCORD
 70
     1
280
     0
  0
ENDBLK
  5
754
330
73B
100
AcDbEntity
  8
0
100
AcDbBlockEnd
  0
ENDSEC
  0
SECTION
  2
ENTITIES
  0
INSERT
  5
561
330
1F
100
AcDbEntity
  8
ASHADE
 62
     1
100
AcDbBlockReference
  2
AVE_RENDER
 10
0.0
 20
0.0
 30
0.0
1001
AVE_RENDER
1002
{
1070
     7
1000
Pref
1070
    50
1070
    20
1070
     1
1070
     0
1000

1070
    10
1070
     1
1070
    10
1040
1.0
1070
     1
1040
0.6999999880790711
1040
1.0
1040
0.2000000029802322
1040
2.0
1010
-1.0
1020
-1.0
1030
-1.0
1040
0.3000000119209289
1070
    49
1070
     0
1070
     0
1010
1.0
1020
1.0
1030
1.0
1040
45.0
1070
     1
1070
     0
1000
WCS
1040
0.0
1070
     0
1040
10.0
1002
}
  0
INSERT
  5
562
330
1F
100
AcDbEntity
  8
ASHADE
 62
     3
100
AcDbBlockReference
  2
AVE_RENDER
 10
0.0
 20
0.0
 30
0.0
1001
AVE_RENDER
1002
{
1070
     0
1000
Full Opt
1070
     0
1070
     1
1070
     1
1070
     1
1070
     0
1070
     0
1070
     0
1070
     1
1070
     1
1040
0.0001
1040
0.0001
1002
}
  0
INSERT
  5
563
330
1F
100
AcDbEntity
  8
ASHADE
 62
     4
100
AcDbBlockReference
  2
AVE_RENDER
 10
0.0
 20
0.0
 30
0.0
1001
AVE_RENDER
1002
{
1070
     0
1000
Quick Opt
1070
     0
1070
     1
1070
     1
1070
     1
1070
     0
1070
     0
1070
     1
1002
}
  0
INSERT
  5
564
330
1F
100
AcDbEntity
  8
ASHADE
 62
     5
100
AcDbBlockReference
  2
AVE_RENDER
 10
0.0
 20
0.0
 30
0.0
1001
AVE_RENDER
1002
{
1070
     1
1000
Scanl Opt
1070
     2
1070
     0
1070
     2
1040
2.0
1040
4.0
1070
     0
1070
     1
1070
     0
1040
0.03
1002
}
  0
INSERT
  5
565
330
1F
100
AcDbEntity
  8
ASHADE
 62
     6
100
AcDbBlockReference
  2
AVE_RENDER
 10
0.0
 20
0.0
 30
0.0
1001
AVE_RENDER
1002
{
1070
     2
1000
Raytr Opt
1070
     2
1070
     0
1070
     2
1040
2.0
1040
4.0
1070
     0
1070
     1
1070
     1
1040
0.03
1070
     3
1040
0.03
1002
}
  0
INSERT
  5
566
330
1F
100
AcDbEntity
  8
ASHADE
 62
     7
100
AcDbBlockReference
  2
AVE_RENDER
 10
0.0
 20
0.0
 30
0.0
1001
AVE_RENDER
1002
{
1070
     0
1000
RFile Opt
1070
     1
1070
   640
1070
   480
1070
 10000
1070
     1
1070
     8
1070
     8
1070
     0
1070
     0
1070
     0
1070
     0
1070
     0
1070
     0
1070
     0
1002
}
  0
INSERT
  5
567
330
1F
100
AcDbEntity
  8
ASHADE
 62
     8
100
AcDbBlockReference
  2
AVE_RENDER
 10
0.0
 20
0.0
 30
0.0
1001
AVE_RENDER
1002
{
1070
     0
1000
Fog Opt
1070
     0
1070
     0
1040
0.0
1040
1.0
1040
0.0
1040
1.0
1010
0.5
1020
0.5
1030
0.5
1002
}
  0
INSERT
  5
568
330
1F
100
AcDbEntity
  8
ASHADE
 62
     9
100
AcDbBlockReference
  2
AVE_RENDER
 10
0.0
 20
0.0
 30
0.0
1001
AVE_RENDER
1002
{
1070
     0
1000
BG Opt
1070
     0
1070
     0
1010
0.0
1020
0.0
1030
0.0
1010
1.0
1020
0.0
1030
0.0
1010
0.0
1020
1.0
1030
0.0
1010
0.0
1020
0.0
1030
1.0
1040
0.5
1040
0.5
1040
0.0
1000

1070
     1
1000

1070
     1
1070
     1
1040
1.0
1040
1.0
1040
0.0
1040
0.0
1070
     0
1002
}
  0
INSERT
  5
56F
330
1F
100
AcDbEntity
  8
ASHADE
 62
     1
100
AcDbBlockReference
  2
AVE_GLOBAL
 10
0.0
 20
0.0
 30
0.0
1001
AVE_MATERIAL
1002
{
1000
*GLOBAL*
1000
2
1000
Global finish.
1002
{
1002
}
1002
{
1070
    63
1002
{
1002
{
1010
-1.0
1020
-1.0
1030
-1.0
1002
}
1040
0.6999999880790711
1000

1040
0.0
1002
{
1002
}
1040
0.0
1002
{
1002
}
1040
0.0
1002
}
1002
{
1002
{
1010
-1.0
1020
-1.0
1030
-1.0
1002
}
1040
1.0
1000

1040
0.0
1002
{
1002
}
1040
0.0
1002
{
1002
}
1040
0.0
1002
}
1002
{
1002
{
1010
-1.0
1020
-1.0
1030
-1.0
1002
}
1040
0.2000000029802322
1000

1040
0.0
1002
{
1002
}
1040
0.0
1002
{
1002
}
1040
0.0
1002
}
1002
{
1070
     0
1002
{
1070
     1
1002
{
1040
1.0
1040
1.0
1000

1040
0.0
1002
{
1002
}
1040
0.0
1002
{
1002
}
1040
0.0
1002
}
1002
}
1040
1.0
1040
0.0
1040
0.0
1002
}
1002
{
1040
1.0
1040
1.0
1000

1040
0.0
1002
{
1002
}
1040
0.0
1002
{
1002
}
1040
0.0
1002
}
1002
{
1040
0.5
1040
1.0
1000

1040
0.0
1002
{
1002
}
1040
0.0
1002
{
1002
}
1040
0.0
1002
}
1002
{
1070
     0
1040
0.0
1002
{
1002
}
1040
1.0
1002
{
1002
}
1040
0.0
1002
}
1002
{
1040
0.0
1002
{
1002
{
1010
0.0
1020
0.0
1030
0.0
1002
}
1040
1.0
1000

1040
0.0
1002
{
1002
}
1040
0.0
1002
{
1002
}
1040
0.0
1002
}
1002
}
1002
{
1002
{
1070
     1
1002
{
1040
0.0
1040
1.0
1000

1040
0.0
1002
{
1002
}
1040
0.0
1002
{
1002
}
1040
0.0
1002
}
1002
}
1040
0.0
1002
{
1002
}
1010
1.0
1020
0.0
1030
0.0
1010
0.0
1020
1.0
1030
0.0
1010
0.0
1020
0.0
1030
1.0
1070
     0
1002
}
1002
{
1002
{
1040
1.0
1040
1.0
1002
{
1070
     1
1002
{
1040
1.0
1040
1.0
1000

1040
0.0
1002
{
1002
}
1040
0.0
1002
{
1002
}
1040
0.0
1002
}
1002
}
1002
}
1070
     0
1040
0.0
1002
{
1002
}
1002
}
1002
{
1002
}
1002
}
1002
{
1071
        3
1070
     3
1070
     0
1002
{
1070
     2
1070
     0
1070
     0
1040
0.0
1002
}
1070
     0
1070
     2
1002
{
1002
}
1002
}
1002
{
1040
8030.0
1040
190.3000030517578
1040
0.3050000071525574
1040
228.0
1040
545.0
1040
14.0
1040
17.39999961853027
1040
0.4560000002384186
1002
}
1000

1002
}
  0
POLYLINE
  5
575
330
1F
100
AcDbEntity
  8
0
347
76E
 62
     7
100
AcDbPolyFaceMesh
 66
     1
 10
0.0
 20
0.0
 30
0.0
 70
    64
 71
   152
 72
   300
1001
AVE_ENTITY_MATERIAL
1002
{
1000

1002
{
1071
        0
1070
     0
1070
     0
1002
{
1070
     0
1070
     0
1070
     0
1040
0.0
1002
}
1070
     0
1070
     0
1002
{
1002
}
1002
}
1002
{
1002
}
1002
{
1002
}
1011
0.0
1021
0.0
1031
0.0
1011
1.0
1021
0.0
1031
0.0
1011
0.0
1021
1.0
1031
0.0
1011
0.0
1021
0.0
1031
1.0
1002
}
  0
VERTEX
  5
576
330
575
100
AcDbEntity
  8
0
347
76E
 62
     7
100
AcDbVertex
100
AcDbPolyFaceMeshVertex
 10
10.99073696136474
 20
43.83760833740234
 30
-30.80315971374512
 70
   192
  0
VERTEX
  5
577
330
575
100
AcDbEntity
  8
0
347
76E
 62
     7
100
AcDbVertex
100
AcDbPolyFaceMeshVertex
 10
10.75180435180664
 20
43.83760833740234
 30
-30.79616737365723
 70
   192
  0
VERTEX
  5
578
330
575
100
AcDbEntity
  8
0
347
76E
 62
     7
100
AcDbVertex
100
AcDbPolyFaceMeshVertex
 10
10.75180435180664
 20
41.7658576965332
 30
-30.79616737365723
 70
   192
  0
VERTEX
  5
579
330
575
100
AcDbEntity
  8
0
347
76E
 62
     7
100
AcDbVertex
100
AcDbPolyFaceMeshVertex
 10
10.99073696136474
 20
41.7658576965332
 30
-30.80315971374512
 70
   192
  0
VERTEX
  5
57A
330
575
100
AcDbEntity
  8
0
347
76E
 62
     7
100
AcDbVertex
100
AcDbPolyFaceMeshVertex
 10
11.32995986938476
 20
41.18770217895508
 30
-11.04099559783935
 70
   192
  0
VERTEX
  5
57B
330
575
100
AcDbEntity
  8
0
347
76E
 62
     7
100
AcDbVertex
100
AcDbPolyFaceMeshVertex
 10
11.56889247894287
 20
41.18770217895508
 30
-11.04798793792724
 70
   192
  0
VERTEX
  5
57C
330
575
100
AcDbEntity
  8
0
347
76E
 62
     7
100
AcDbVertex
100
AcDbPolyFaceMeshVertex
 10
11.32995986938476
 20
44.41576385498047
 30
-11.04099559783935
 70
   192
  0
VERTEX
  5
57D
330
575
100
AcDbEntity
  8
0
347
76E
 62
     7
100
AcDbVertex
100
AcDbPolyFaceMeshVertex
 10
11.56889247894287
 20
44.41576385498047
 30
-11.04798793792724
 70
   192
  0
VERTEX
  5
57E
330
575
100
AcDbEntity
  8
0
347
76E
 62
     7
100
AcDbVertex
100
AcDbPolyFaceMeshVertex
 10
8.16896915435791
 20
41.7658576965332
 30
-30.80315971374512
 70
   192
  0
VERTEX
  5
57F
330
575
100
AcDbEntity
  8
0
347
76E
 62
     7
100
AcDbVertex
100
AcDbPolyFaceMeshVertex
 10
8.407901763916015
 20
41.7658576965332
 30
-30.79616737365723
 70
   192
  0
VERTEX
  5
580
330
575
100
AcDbEntity
  8
0
347
76E
 62
     7
100
AcDbVertex
100
AcDbPolyFaceMeshVertex
 10
8.407901763916015
 20
43.83760833740234
 30
-30.79616737365723
 70
   192
  0
VERTEX
  5
581
330
575
100
AcDbEntity
  8
0
347
76E
 62
     7
100
AcDbVertex
100
AcDbPolyFaceMeshVertex
 10
8.16896915435791
 20
43.83760833740234
 30
-30.80315971374512
 70
   192
  0
VERTEX
  5
582
330
575
100
AcDbEntity
  8
0
347
76E
 62
     7
100
AcDbVertex
100
AcDbPolyFaceMeshVertex
 10
7.829745769500732
 20
44.41576385498047
 30
-11.04099559783935
 70
   192
  0
VERTEX
  5
583
330
575
100
AcDbEntity
  8
0
347
76E
 62
     7
100
AcDbVertex
100
AcDbPolyFaceMeshVertex
 10
7.590813159942626
 20
44.41576385498047
 30
-11.04798793792724
 70
   192
  0
VERTEX
  5
584
330
575
100
AcDbEntity
  8
0
347
76E
 62
     7
100
AcDbVertex
100
AcDbPolyFaceMeshVertex
 10
7.829745769500732
 20
41.18770217895508
 30
-11.04099559783935
 70
   192
  0
VERTEX
  5
585
330
575
100
AcDbEntity
  8
0
347
76E
 62
     7
100
AcDbVertex
100
AcDbPolyFaceMeshVertex
 10
7.590813159942626
 20
41.18770217895508
 30
-11.04798793792724
 70
   192
  0
VERTEX
  5
586
330
575
100
AcDbEntity
  8
0
347
76E
 62
     7
100
AcDbVertex
100
AcDbPolyFaceMeshVertex
 10
11.20485305786133
 20
41.05129623413086
 30
-11.04100513458252
 70
   192
  0
VERTEX
  5
587
330
575
100
AcDbEntity
  8
0
347
76E
 62
     7
100
AcDbVertex
100
AcDbPolyFaceMeshVertex
 10
11.20485305786133
 20
40.80140304565429
 30
-11.04831886291504
 70
   192
  0
VERTEX
  5
588
330
575
100
AcDbEntity
  8
0
347
76E
 62
     7
100
AcDbVertex
100
AcDbPolyFaceMeshVertex
 10
7.97679328918457
 20
40.80140304565429
 30
-11.04831886291504
 70
   192
  0
VERTEX
  5
589
330
575
100
AcDbEntity
  8
0
347
76E
 62
     7
100
AcDbVertex
100
AcDbPolyFaceMeshVertex
 10
7.97679328918457
 20
41.05129623413086
 30
-11.04100513458252
 70
   192
  0
VERTEX
  5
58A
330
575
100
AcDbEntity
  8
0
347
76E
 62
     7
100
AcDbVertex
100
AcDbPolyFaceMeshVertex
 10
10.62669658660889
 20
41.37955856323242
 30
-30.80348968505859
 70
   192
  0
VERTEX
  5
58B
330
575
100
AcDbEntity
  8
0
347
76E
 62
     7
100
AcDbVertex
100
AcDbPolyFaceMeshVertex
 10
10.62669658660889
 20
41.62945175170898
 30
-30.79617691040039
 70
   192
  0
VERTEX
  5
58C
330
575
100
AcDbEntity
  8
0
347
76E
 62
     7
100
AcDbVertex
100
AcDbPolyFaceMeshVertex
 10
8.554948806762695
 20
41.62945175170898
 30
-30.79617691040039
 70
   192
  0
VERTEX
  5
58D
330
575
100
AcDbEntity
  8
0
347
76E
 62
     7
100
AcDbVertex
100
AcDbPolyFaceMeshVertex
 10
8.554948806762695
 20
41.37955856323242
 30
-30.80348968505859
 70
   192
  0
VERTEX
  5
58E
330
575
100
AcDbEntity
  8
0
347
76E
 62
     7
100
AcDbVertex
100
AcDbPolyFaceMeshVertex
 10
7.97679328918457
 20
44.52957153320312
 30
-11.04100513458252
 70
   192
  0
VERTEX
  5
58F
330
575
100
AcDbEntity
  8
0
347
76E
 62
     7
100
AcDbVertex
100
AcDbPolyFaceMeshVertex
 10
7.97679328918457
 20
44.77946472167968
 30
-11.04831886291504
 70
   192
  0
VERTEX
  5
590
330
575
100
AcDbEntity
  8
0
347
76E
 62
     7
100
AcDbVertex
100
AcDbPolyFaceMeshVertex
 10
11.20485305786133
 20
44.77946472167968
 30
-11.04831886291504
 70
   192
  0
VERTEX
  5
591
330
575
100
AcDbEntity
  8
0
347
76E
 62
     7
100
AcDbVertex
100
AcDbPolyFaceMeshVertex
 10
11.20485305786133
 20
44.52957153320312
 30
-11.04100513458252
 70
   192
  0
VERTEX
  5
592
330
575
100
AcDbEntity
  8
0
347
76E
 62
     7
100
AcDbVertex
100
AcDbPolyFaceMeshVertex
 10
10.62669658660889
 20
44.20130538940429
 30
-30.80348968505859
 70
   192
  0
VERTEX
  5
593
330
575
100
AcDbEntity
  8
0
347
76E
 62
     7
100
AcDbVertex
100
AcDbPolyFaceMeshVertex
 10
10.62669658660889
 20
43.95141220092773
 30
-30.79617691040039
 70
   192
  0
VERTEX
  5
594
330
575
100
AcDbEntity
  8
0
347
76E
 62
     7
100
AcDbVertex
100
AcDbPolyFaceMeshVertex
 10
8.554948806762695
 20
44.20130538940429
 30
-30.80348968505859
 70
   192
  0
VERTEX
  5
595
330
575
100
AcDbEntity
  8
0
347
76E
 62
     7
100
AcDbVertex
100
AcDbPolyFaceMeshVertex
 10
8.554948806762695
 20
43.95141220092773
 30
-30.79617691040039
 70
   192
  0
VERTEX
  5
596
330
575
100
AcDbEntity
  8
0
347
76E
 62
     7
100
AcDbVertex
100
AcDbPolyFaceMeshVertex
 10
7.954853057861328
 20
41.04043197631836
 30
-0.6750479936599732
 70
   192
  0
VERTEX
  5
597
330
575
100
AcDbEntity
  8
0
347
76E
 62
     7
100
AcDbVertex
100
AcDbPolyFaceMeshVertex
 10
11.20485305786133
 20
41.04043197631836
 30
-0.6750479936599732
 70
   192
  0
VERTEX
  5
598
330
575
100
AcDbEntity
  8
0
347
76E
 62
     7
100
AcDbVertex
100
AcDbPolyFaceMeshVertex
 10
11.20485305786133
 20
40.79043197631835
 30
-0.6750479936599732
 70
   192
  0
VERTEX
  5
599
330
575
100
AcDbEntity
  8
0
347
76E
 62
     7
100
AcDbVertex
100
AcDbPolyFaceMeshVertex
 10
7.954853057861328
 20
40.79043197631835
 30
-0.6750479936599732
 70
   192
  0
VERTEX
  5
59A
330
575
100
AcDbEntity
  8
0
347
76E
 62
     7
100
AcDbVertex
100
AcDbPolyFaceMeshVertex
 10
11.20485305786133
 20
41.04043197631836
 30
-9.175047874450683
 70
   192
  0
VERTEX
  5
59B
330
575
100
AcDbEntity
  8
0
347
76E
 62
     7
100
AcDbVertex
100
AcDbPolyFaceMeshVertex
 10
11.20485305786133
 20
40.79043197631835
 30
-9.175047874450683
 70
   192
  0
VERTEX
  5
59C
330
575
100
AcDbEntity
  8
0
347
76E
 62
     7
100
AcDbVertex
100
AcDbPolyFaceMeshVertex
 10
7.954853057861328
 20
41.04043197631836
 30
-9.175047874450683
 70
   192
  0
VERTEX
  5
59D
330
575
100
AcDbEntity
  8
0
347
76E
 62
     7
100
AcDbVertex
100
AcDbPolyFaceMeshVertex
 10
7.954853057861328
 20
40.79043197631835
 30
-9.175047874450683
 70
   192
  0
VERTEX
  5
59E
330
575
100
AcDbEntity
  8
0
347
76E
 62
     7
100
AcDbVertex
100
AcDbPolyFaceMeshVertex
 10
11.57985305786133
 20
44.41543197631836
 30
-0.6750479936599732
 70
   192
  0
VERTEX
  5
59F
330
575
100
AcDbEntity
  8
0
347
76E
 62
     7
100
AcDbVertex
100
AcDbPolyFaceMeshVertex
 10
11.57985305786133
 20
41.16543197631836
 30
-0.6750479936599732
 70
   192
  0
VERTEX
  5
5A0
330
575
100
AcDbEntity
  8
0
347
76E
 62
     7
100
AcDbVertex
100
AcDbPolyFaceMeshVertex
 10
11.32985305786132
 20
41.16543197631836
 30
-0.6750479936599732
 70
   192
  0
VERTEX
  5
5A1
330
575
100
AcDbEntity
  8
0
347
76E
 62
     7
100
AcDbVertex
100
AcDbPolyFaceMeshVertex
 10
11.32985305786132
 20
44.41543197631836
 30
-0.6750479936599732
 70
   192
  0
VERTEX
  5
5A2
330
575
100
AcDbEntity
  8
0
347
76E
 62
     7
100
AcDbVertex
100
AcDbPolyFaceMeshVertex
 10
11.57985305786133
 20
41.16543197631836
 30
-9.175047874450683
 70
   192
  0
VERTEX
  5
5A3
330
575
100
AcDbEntity
  8
0
347
76E
 62
     7
100
AcDbVertex
100
AcDbPolyFaceMeshVertex
 10
11.32985305786132
 20
41.16543197631836
 30
-9.175047874450683
 70
   192
  0
VERTEX
  5
5A4
330
575
100
AcDbEntity
  8
0
347
76E
 62
     7
100
AcDbVertex
100
AcDbPolyFaceMeshVertex
 10
11.57985305786133
 20
44.41543197631836
 30
-9.175047874450683
 70
   192
  0
VERTEX
  5
5A5
330
575
100
AcDbEntity
  8
0
347
76E
 62
     7
100
AcDbVertex
100
AcDbPolyFaceMeshVertex
 10
11.32985305786132
 20
44.41543197631836
 30
-9.175047874450683
 70
   192
  0
VERTEX
  5
5A6
330
575
100
AcDbEntity
  8
0
347
76E
 62
     7
100
AcDbVertex
100
AcDbPolyFaceMeshVertex
 10
10.63627052307129
 20
43.84685134887695
 30
-32.04677963256836
 70
   192
  0
VERTEX
  5
5A7
330
575
100
AcDbEntity
  8
0
347
76E
 62
     7
100
AcDbVertex
100
AcDbPolyFaceMeshVertex
 10
10.63627052307129
 20
41.73401641845702
 30
-32.04677963256836
 70
   192
  0
VERTEX
  5
5A8
330
575
100
AcDbEntity
  8
0
347
76E
 62
     7
100
AcDbVertex
100
AcDbPolyFaceMeshVertex
 10
10.82187557220459
 20
41.54840850830078
 30
-32.27051162719727
 70
   192
  0
VERTEX
  5
5A9
330
575
100
AcDbEntity
  8
0
347
76E
 62
     7
100
AcDbVertex
100
AcDbPolyFaceMeshVertex
 10
10.82187557220459
 20
44.03245544433594
 30
-32.27051162719727
 70
   192
  0
VERTEX
  5
5AA
330
575
100
AcDbEntity
  8
0
347
76E
 62
     7
100
AcDbVertex
100
AcDbPolyFaceMeshVertex
 10
10.63627052307129
 20
43.84685134887695
 30
-31.98428153991699
 70
   192
  0
VERTEX
  5
5AB
330
575
100
AcDbEntity
  8
0
347
76E
 62
     7
100
AcDbVertex
100
AcDbPolyFaceMeshVertex
 10
10.63627052307129
 20
41.73401641845702
 30
-31.98428153991699
 70
   192
  0
VERTEX
  5
5AC
330
575
100
AcDbEntity
  8
0
347
76E
 62
     7
100
AcDbVertex
100
AcDbPolyFaceMeshVertex
 10
10.56069755554199
 20
41.80958938598632
 30
-31.86456298828125
 70
   192
  0
VERTEX
  5
5AD
330
575
100
AcDbEntity
  8
0
347
76E
 62
     7
100
AcDbVertex
100
AcDbPolyFaceMeshVertex
 10
10.56069755554199
 20
43.77127838134765
 30
-31.86456298828125
 70
   192
  0
VERTEX
  5
5AE
330
575
100
AcDbEntity
  8
0
347
76E
 62
     7
100
AcDbVertex
100
AcDbPolyFaceMeshVertex
 10
10.54325294494629
 20
41.82703399658203
 30
-31.79555130004883
 70
   192
  0
VERTEX
  5
5AF
330
575
100
AcDbEntity
  8
0
347
76E
 62
     7
100
AcDbVertex
100
AcDbPolyFaceMeshVertex
 10
10.54059982299804
 20
43.75117874145508
 30
-31.72442054748535
 70
   192
  0
VERTEX
  5
5B0
330
575
100
AcDbEntity
  8
0
347
76E
 62
     7
100
AcDbVertex
100
AcDbPolyFaceMeshVertex
 10
10.54059982299804
 20
41.82968521118164
 30
-31.72442054748535
 70
   192
  0
VERTEX
  5
5B1
330
575
100
AcDbEntity
  8
0
347
76E
 62
     7
100
AcDbVertex
100
AcDbPolyFaceMeshVertex
 10
10.54325294494629
 20
43.75383377075195
 30
-31.79555130004883
 70
   192
  0
VERTEX
  5
5B2
330
575
100
AcDbEntity
  8
0
347
76E
 62
     7
100
AcDbVertex
100
AcDbPolyFaceMeshVertex
 10
10.54325294494629
 20
41.82703399658203
 30
-31.65328788757324
 70
   192
  0
VERTEX
  5
5B3
330
575
100
AcDbEntity
  8
0
347
76E
 62
     7
100
AcDbVertex
100
AcDbPolyFaceMeshVertex
 10
10.54325294494629
 20
43.75383377075195
 30
-31.65328788757324
 70
   192
  0
VERTEX
  5
5B4
330
575
100
AcDbEntity
  8
0
347
76E
 62
     7
100
AcDbVertex
100
AcDbPolyFaceMeshVertex
 10
10.56069755554199
 20
41.80958938598632
 30
-31.58427619934082
 70
   192
  0
VERTEX
  5
5B5
330
575
100
AcDbEntity
  8
0
347
76E
 62
     7
100
AcDbVertex
100
AcDbPolyFaceMeshVertex
 10
10.63627052307129
 20
43.84685134887695
 30
-31.46455764770508
 70
   192
  0
VERTEX
  5
5B6
330
575
100
AcDbEntity
  8
0
347
76E
 62
     7
100
AcDbVertex
100
AcDbPolyFaceMeshVertex
 10
10.63627052307129
 20
41.73401641845702
 30
-31.46455764770508
 70
   192
  0
VERTEX
  5
5B7
330
575
100
AcDbEntity
  8
0
347
76E
 62
     7
100
AcDbVertex
100
AcDbPolyFaceMeshVertex
 10
10.56069755554199
 20
43.77127838134765
 30
-31.58427619934082
 70
   192
  0
VERTEX
  5
5B8
330
575
100
AcDbEntity
  8
0
347
76E
 62
     7
100
AcDbVertex
100
AcDbPolyFaceMeshVertex
 10
10.63627052307129
 20
43.84685134887695
 30
-31.40205764770508
 70
   192
  0
VERTEX
  5
5B9
330
575
100
AcDbEntity
  8
0
347
76E
 62
     7
100
AcDbVertex
100
AcDbPolyFaceMeshVertex
 10
10.63627052307129
 20
41.73401641845702
 30
-31.40205764770508
 70
   192
  0
VERTEX
  5
5BA
330
575
100
AcDbEntity
  8
0
347
76E
 62
     7
100
AcDbVertex
100
AcDbPolyFaceMeshVertex
 10
10.82187557220459
 20
44.03245544433594
 30
-31.17832946777344
 70
   192
  0
VERTEX
  5
5BB
330
575
100
AcDbEntity
  8
0
347
76E
 62
     7
100
AcDbVertex
100
AcDbPolyFaceMeshVertex
 10
10.82187557220459
 20
41.54840850830078
 30
-31.17832946777344
 70
   192
  0
VERTEX
  5
5BC
330
575
100
AcDbEntity
  8
0
347
76E
 62
     7
100
AcDbVertex
100
AcDbPolyFaceMeshVertex
 10
10.97975730895996
 20
44.19033813476562
 30
-31.17832946777344
 70
   192
  0
VERTEX
  5
5BD
330
575
100
AcDbEntity
  8
0
347
76E
 62
     7
100
AcDbVertex
100
AcDbPolyFaceMeshVertex
 10
10.97975730895996
 20
41.39052963256836
 30
-31.17832946777344
 70
   192
  0
VERTEX
  5
5BE
330
575
100
AcDbEntity
  8
0
347
76E
 62
     7
100
AcDbVertex
100
AcDbPolyFaceMeshVertex
 10
11.57985305786133
 20
40.79043197631835
 30
-10.67347908020019
 70
   192
  0
VERTEX
  5
5BF
330
575
100
AcDbEntity
  8
0
347
76E
 62
     7
100
AcDbVertex
100
AcDbPolyFaceMeshVertex
 10
11.57985305786133
 20
44.79043197631836
 30
-10.67347908020019
 70
   192
  0
VERTEX
  5
5C0
330
575
100
AcDbEntity
  8
0
347
76E
 62
     7
100
AcDbVertex
100
AcDbPolyFaceMeshVertex
 10
11.23708343505859
 20
44.44766235351562
 30
-10.44974994659424
 70
   192
  0
VERTEX
  5
5C1
330
575
100
AcDbEntity
  8
0
347
76E
 62
     7
100
AcDbVertex
100
AcDbPolyFaceMeshVertex
 10
11.23708343505859
 20
41.13320159912109
 30
-10.44974994659424
 70
   192
  0
VERTEX
  5
5C2
330
575
100
AcDbEntity
  8
0
347
76E
 62
     7
100
AcDbVertex
100
AcDbPolyFaceMeshVertex
 10
11.42268848419189
 20
40.9475975036621
 30
-10.67347908020019
 70
   192
  0
VERTEX
  5
5C3
330
575
100
AcDbEntity
  8
0
347
76E
 62
     7
100
AcDbVertex
100
AcDbPolyFaceMeshVertex
 10
11.42268848419189
 20
44.63326644897461
 30
-10.67347908020019
 70
   192
  0
VERTEX
  5
5C4
330
575
100
AcDbEntity
  8
0
347
76E
 62
     7
100
AcDbVertex
100
AcDbPolyFaceMeshVertex
 10
11.23708343505859
 20
44.44766235351562
 30
-10.37269687652588
 70
   192
  0
VERTEX
  5
5C5
330
575
100
AcDbEntity
  8
0
347
76E
 62
     7
100
AcDbVertex
100
AcDbPolyFaceMeshVertex
 10
11.23708343505859
 20
41.13320159912109
 30
-10.37269687652588
 70
   192
  0
VERTEX
  5
5C6
330
575
100
AcDbEntity
  8
0
347
76E
 62
     7
100
AcDbVertex
100
AcDbPolyFaceMeshVertex
 10
11.16609001159668
 20
41.20419692993164
 30
-9.974377632141113
 70
   192
  0
VERTEX
  5
5C7
330
575
100
AcDbEntity
  8
0
347
76E
 62
     7
100
AcDbVertex
100
AcDbPolyFaceMeshVertex
 10
11.16609001159668
 20
44.37667083740234
 30
-9.974377632141113
 70
   192
  0
VERTEX
  5
5C8
330
575
100
AcDbEntity
  8
0
347
76E
 62
     7
100
AcDbVertex
100
AcDbPolyFaceMeshVertex
 10
11.23708343505859
 20
44.44766235351562
 30
-9.852972984313964
 70
   192
  0
VERTEX
  5
5C9
330
575
100
AcDbEntity
  8
0
347
76E
 62
     7
100
AcDbVertex
100
AcDbPolyFaceMeshVertex
 10
11.16609001159668
 20
41.20419692993164
 30
-10.25129127502441
 70
   192
  0
VERTEX
  5
5CA
330
575
100
AcDbEntity
  8
0
347
76E
 62
     7
100
AcDbVertex
100
AcDbPolyFaceMeshVertex
 10
11.16609001159668
 20
44.37667083740234
 30
-10.25129127502441
 70
   192
  0
VERTEX
  5
5CB
330
575
100
AcDbEntity
  8
0
347
76E
 62
     7
100
AcDbVertex
100
AcDbPolyFaceMeshVertex
 10
11.14141178131103
 20
41.22887420654296
 30
-10.11283493041992
 70
   192
  0
VERTEX
  5
5CC
330
575
100
AcDbEntity
  8
0
347
76E
 62
     7
100
AcDbVertex
100
AcDbPolyFaceMeshVertex
 10
11.23708343505859
 20
41.13320159912109
 30
-9.852972984313964
 70
   192
  0
VERTEX
  5
5CD
330
575
100
AcDbEntity
  8
0
347
76E
 62
     7
100
AcDbVertex
100
AcDbPolyFaceMeshVertex
 10
11.14141178131103
 20
44.35199356079102
 30
-10.11283493041992
 70
   192
  0
VERTEX
  5
5CE
330
575
100
AcDbEntity
  8
0
347
76E
 62
     7
100
AcDbVertex
100
AcDbPolyFaceMeshVertex
 10
11.23708343505859
 20
44.44766235351562
 30
-9.77377700805664
 70
   192
  0
VERTEX
  5
5CF
330
575
100
AcDbEntity
  8
0
347
76E
 62
     7
100
AcDbVertex
100
AcDbPolyFaceMeshVertex
 10
11.23708343505859
 20
41.13320159912109
 30
-9.77377700805664
 70
   192
  0
VERTEX
  5
5D0
330
575
100
AcDbEntity
  8
0
347
76E
 62
     7
100
AcDbVertex
100
AcDbPolyFaceMeshVertex
 10
11.42268848419189
 20
44.63326644897461
 30
-9.550047874450683
 70
   192
  0
VERTEX
  5
5D1
330
575
100
AcDbEntity
  8
0
347
76E
 62
     7
100
AcDbVertex
100
AcDbPolyFaceMeshVertex
 10
11.42268848419189
 20
40.9475975036621
 30
-9.550047874450683
 70
   192
  0
VERTEX
  5
5D2
330
575
100
AcDbEntity
  8
0
347
76E
 62
     7
100
AcDbVertex
100
AcDbPolyFaceMeshVertex
 10
10.94779109954834
 20
41.4224967956543
 30
-32.27051162719727
 70
   192
  0
VERTEX
  5
5D3
330
575
100
AcDbEntity
  8
0
347
76E
 62
     7
100
AcDbVertex
100
AcDbPolyFaceMeshVertex
 10
10.82985305786133
 20
41.54043197631835
 30
-36.300048828125
 70
   192
  0
VERTEX
  5
5D4
330
575
100
AcDbEntity
  8
0
347
76E
 62
     7
100
AcDbVertex
100
AcDbPolyFaceMeshVertex
 10
10.82985305786133
 20
44.04043197631835
 30
-36.300048828125
 70
   192
  0
VERTEX
  5
5D5
330
575
100
AcDbEntity
  8
0
347
76E
 62
     7
100
AcDbVertex
100
AcDbPolyFaceMeshVertex
 10
10.94779109954834
 20
44.15837097167968
 30
-32.27051162719727
 70
   192
  0
VERTEX
  5
5D6
330
575
100
AcDbEntity
  8
0
347
76E
 62
     7
100
AcDbVertex
100
AcDbPolyFaceMeshVertex
 10
8.329853057861328
 20
44.04043197631835
 30
-36.300048828125
 70
   192
  0
VERTEX
  5
5D7
330
575
100
AcDbEntity
  8
0
347
76E
 62
     7
100
AcDbVertex
100
AcDbPolyFaceMeshVertex
 10
8.329853057861328
 20
41.54043197631835
 30
-36.300048828125
 70
   192
  0
VERTEX
  5
5D8
330
575
100
AcDbEntity
  8
0
347
76E
 62
     7
100
AcDbVertex
100
AcDbPolyFaceMeshVertex
 10
8.211915016174316
 20
41.4224967956543
 30
-32.27051162719727
 70
   192
  0
VERTEX
  5
5D9
330
575
100
AcDbEntity
  8
0
347
76E
 62
     7
100
AcDbVertex
100
AcDbPolyFaceMeshVertex
 10
8.211915016174316
 20
44.15837097167968
 30
-32.27051162719727
 70
   192
  0
VERTEX
  5
5DA
330
575
100
AcDbEntity
  8
0
347
76E
 62
     7
100
AcDbVertex
100
AcDbPolyFaceMeshVertex
 10
8.33782958984375
 20
44.03245544433594
 30
-32.27051162719727
 70
   192
  0
VERTEX
  5
5DB
330
575
100
AcDbEntity
  8
0
347
76E
 62
     7
100
AcDbVertex
100
AcDbPolyFaceMeshVertex
 10
8.33782958984375
 20
41.54840850830078
 30
-32.27051162719727
 70
   192
  0
VERTEX
  5
5DC
330
575
100
AcDbEntity
  8
0
347
76E
 62
     7
100
AcDbVertex
100
AcDbPolyFaceMeshVertex
 10
8.523435592651367
 20
41.73401641845702
 30
-32.04677963256836
 70
   192
  0
VERTEX
  5
5DD
330
575
100
AcDbEntity
  8
0
347
76E
 62
     7
100
AcDbVertex
100
AcDbPolyFaceMeshVertex
 10
8.523435592651367
 20
43.84685134887695
 30
-32.04677963256836
 70
   192
  0
VERTEX
  5
5DE
330
575
100
AcDbEntity
  8
0
347
76E
 62
     7
100
AcDbVertex
100
AcDbPolyFaceMeshVertex
 10
8.523435592651367
 20
41.73401641845702
 30
-31.98428153991699
 70
   192
  0
VERTEX
  5
5DF
330
575
100
AcDbEntity
  8
0
347
76E
 62
     7
100
AcDbVertex
100
AcDbPolyFaceMeshVertex
 10
8.523435592651367
 20
43.84685134887695
 30
-31.98428153991699
 70
   192
  0
VERTEX
  5
5E0
330
575
100
AcDbEntity
  8
0
347
76E
 62
     7
100
AcDbVertex
100
AcDbPolyFaceMeshVertex
 10
8.616453170776367
 20
41.82703399658203
 30
-31.79555130004883
 70
   192
  0
VERTEX
  5
5E1
330
575
100
AcDbEntity
  8
0
347
76E
 62
     7
100
AcDbVertex
100
AcDbPolyFaceMeshVertex
 10
8.619106292724609
 20
41.82968521118164
 30
-31.72442054748535
 70
   192
  0
VERTEX
  5
5E2
330
575
100
AcDbEntity
  8
0
347
76E
 62
     7
100
AcDbVertex
100
AcDbPolyFaceMeshVertex
 10
8.616453170776367
 20
43.75383377075195
 30
-31.79555130004883
 70
   192
  0
VERTEX
  5
5E3
330
575
100
AcDbEntity
  8
0
347
76E
 62
     7
100
AcDbVertex
100
AcDbPolyFaceMeshVertex
 10
8.599008560180664
 20
41.80958938598632
 30
-31.86456298828125
 70
   192
  0
VERTEX
  5
5E4
330
575
100
AcDbEntity
  8
0
347
76E
 62
     7
100
AcDbVertex
100
AcDbPolyFaceMeshVertex
 10
8.599008560180664
 20
43.77127838134765
 30
-31.86456298828125
 70
   192
  0
VERTEX
  5
5E5
330
575
100
AcDbEntity
  8
0
347
76E
 62
     7
100
AcDbVertex
100
AcDbPolyFaceMeshVertex
 10
8.619106292724609
 20
43.75117874145508
 30
-31.72442054748535
 70
   192
  0
VERTEX
  5
5E6
330
575
100
AcDbEntity
  8
0
347
76E
 62
     7
100
AcDbVertex
100
AcDbPolyFaceMeshVertex
 10
8.599008560180664
 20
41.80958938598632
 30
-31.58427619934082
 70
   192
  0
VERTEX
  5
5E7
330
575
100
AcDbEntity
  8
0
347
76E
 62
     7
100
AcDbVertex
100
AcDbPolyFaceMeshVertex
 10
8.523435592651367
 20
41.73401641845702
 30
-31.46455764770508
 70
   192
  0
VERTEX
  5
5E8
330
575
100
AcDbEntity
  8
0
347
76E
 62
     7
100
AcDbVertex
100
AcDbPolyFaceMeshVertex
 10
8.599008560180664
 20
43.77127838134765
 30
-31.58427619934082
 70
   192
  0
VERTEX
  5
5E9
330
575
100
AcDbEntity
  8
0
347
76E
 62
     7
100
AcDbVertex
100
AcDbPolyFaceMeshVertex
 10
8.616453170776367
 20
41.82703399658203
 30
-31.65328788757324
 70
   192
  0
VERTEX
  5
5EA
330
575
100
AcDbEntity
  8
0
347
76E
 62
     7
100
AcDbVertex
100
AcDbPolyFaceMeshVertex
 10
8.616453170776367
 20
43.75383377075195
 30
-31.65328788757324
 70
   192
  0
VERTEX
  5
5EB
330
575
100
AcDbEntity
  8
0
347
76E
 62
     7
100
AcDbVertex
100
AcDbPolyFaceMeshVertex
 10
8.523435592651367
 20
43.84685134887695
 30
-31.46455764770508
 70
   192
  0
VERTEX
  5
5EC
330
575
100
AcDbEntity
  8
0
347
76E
 62
     7
100
AcDbVertex
100
AcDbPolyFaceMeshVertex
 10
8.523435592651367
 20
41.73401641845702
 30
-31.40205764770508
 70
   192
  0
VERTEX
  5
5ED
330
575
100
AcDbEntity
  8
0
347
76E
 62
     7
100
AcDbVertex
100
AcDbPolyFaceMeshVertex
 10
8.523435592651367
 20
43.84685134887695
 30
-31.40205764770508
 70
   192
  0
VERTEX
  5
5EE
330
575
100
AcDbEntity
  8
0
347
76E
 62
     7
100
AcDbVertex
100
AcDbPolyFaceMeshVertex
 10
8.33782958984375
 20
41.54840850830078
 30
-31.17832946777344
 70
   192
  0
VERTEX
  5
5EF
330
575
100
AcDbEntity
  8
0
347
76E
 62
     7
100
AcDbVertex
100
AcDbPolyFaceMeshVertex
 10
8.33782958984375
 20
44.03245544433594
 30
-31.17832946777344
 70
   192
  0
VERTEX
  5
5F0
330
575
100
AcDbEntity
  8
0
347
76E
 62
     7
100
AcDbVertex
100
AcDbPolyFaceMeshVertex
 10
8.179948806762695
 20
44.19033813476562
 30
-31.17832946777344
 70
   192
  0
VERTEX
  5
5F1
330
575
100
AcDbEntity
  8
0
347
76E
 62
     7
100
AcDbVertex
100
AcDbPolyFaceMeshVertex
 10
7.579853057861328
 20
40.79043197631835
 30
-10.67347908020019
 70
   192
  0
VERTEX
  5
5F2
330
575
100
AcDbEntity
  8
0
347
76E
 62
     7
100
AcDbVertex
100
AcDbPolyFaceMeshVertex
 10
7.579853057861328
 20
44.79043197631836
 30
-10.67347908020019
 70
   192
  0
VERTEX
  5
5F3
330
575
100
AcDbEntity
  8
0
347
76E
 62
     7
100
AcDbVertex
100
AcDbPolyFaceMeshVertex
 10
8.179948806762695
 20
41.39052963256836
 30
-31.17832946777344
 70
   192
  0
VERTEX
  5
5F4
330
575
100
AcDbEntity
  8
0
347
76E
 62
     7
100
AcDbVertex
100
AcDbPolyFaceMeshVertex
 10
7.737017631530761
 20
44.63326644897461
 30
-10.67347908020019
 70
   192
  0
VERTEX
  5
5F5
330
575
100
AcDbEntity
  8
0
347
76E
 62
     7
100
AcDbVertex
100
AcDbPolyFaceMeshVertex
 10
7.737017631530761
 20
40.9475975036621
 30
-10.67347908020019
 70
   192
  0
VERTEX
  5
5F6
330
575
100
AcDbEntity
  8
0
347
76E
 62
     7
100
AcDbVertex
100
AcDbPolyFaceMeshVertex
 10
7.922622680664062
 20
41.13320159912109
 30
-10.44974994659424
 70
   192
  0
VERTEX
  5
5F7
330
575
100
AcDbEntity
  8
0
347
76E
 62
     7
100
AcDbVertex
100
AcDbPolyFaceMeshVertex
 10
7.922622680664062
 20
44.44766235351562
 30
-10.44974994659424
 70
   192
  0
VERTEX
  5
5F8
330
575
100
AcDbEntity
  8
0
347
76E
 62
     7
100
AcDbVertex
100
AcDbPolyFaceMeshVertex
 10
7.922622680664062
 20
41.13320159912109
 30
-10.37269687652588
 70
   192
  0
VERTEX
  5
5F9
330
575
100
AcDbEntity
  8
0
347
76E
 62
     7
100
AcDbVertex
100
AcDbPolyFaceMeshVertex
 10
7.922622680664062
 20
44.44766235351562
 30
-10.37269687652588
 70
   192
  0
VERTEX
  5
5FA
330
575
100
AcDbEntity
  8
0
347
76E
 62
     7
100
AcDbVertex
100
AcDbPolyFaceMeshVertex
 10
7.993616104125976
 20
41.20419692993164
 30
-10.25129127502441
 70
   192
  0
VERTEX
  5
5FB
330
575
100
AcDbEntity
  8
0
347
76E
 62
     7
100
AcDbVertex
100
AcDbPolyFaceMeshVertex
 10
7.993616104125976
 20
44.37667083740234
 30
-10.25129127502441
 70
   192
  0
VERTEX
  5
5FC
330
575
100
AcDbEntity
  8
0
347
76E
 62
     7
100
AcDbVertex
100
AcDbPolyFaceMeshVertex
 10
7.993616104125976
 20
41.20419692993164
 30
-9.974377632141113
 70
   192
  0
VERTEX
  5
5FD
330
575
100
AcDbEntity
  8
0
347
76E
 62
     7
100
AcDbVertex
100
AcDbPolyFaceMeshVertex
 10
7.922622680664062
 20
41.13320159912109
 30
-9.852972984313964
 70
   192
  0
VERTEX
  5
5FE
330
575
100
AcDbEntity
  8
0
347
76E
 62
     7
100
AcDbVertex
100
AcDbPolyFaceMeshVertex
 10
7.993616104125976
 20
44.37667083740234
 30
-9.974377632141113
 70
   192
  0
VERTEX
  5
5FF
330
575
100
AcDbEntity
  8
0
347
76E
 62
     7
100
AcDbVertex
100
AcDbPolyFaceMeshVertex
 10
8.018293380737304
 20
41.22887420654296
 30
-10.11283493041992
 70
   192
  0
VERTEX
  5
600
330
575
100
AcDbEntity
  8
0
347
76E
 62
     7
100
AcDbVertex
100
AcDbPolyFaceMeshVertex
 10
8.018293380737304
 20
44.35199356079102
 30
-10.11283493041992
 70
   192
  0
VERTEX
  5
601
330
575
100
AcDbEntity
  8
0
347
76E
 62
     7
100
AcDbVertex
100
AcDbPolyFaceMeshVertex
 10
7.922622680664062
 20
44.44766235351562
 30
-9.852972984313964
 70
   192
  0
VERTEX
  5
602
330
575
100
AcDbEntity
  8
0
347
76E
 62
     7
100
AcDbVertex
100
AcDbPolyFaceMeshVertex
 10
7.922622680664062
 20
41.13320159912109
 30
-9.77377700805664
 70
   192
  0
VERTEX
  5
603
330
575
100
AcDbEntity
  8
0
347
76E
 62
     7
100
AcDbVertex
100
AcDbPolyFaceMeshVertex
 10
7.922622680664062
 20
44.44766235351562
 30
-9.77377700805664
 70
   192
  0
VERTEX
  5
604
330
575
100
AcDbEntity
  8
0
347
76E
 62
     7
100
AcDbVertex
100
AcDbPolyFaceMeshVertex
 10
7.737017631530761
 20
40.9475975036621
 30
-9.550047874450683
 70
   192
  0
VERTEX
  5
605
330
575
100
AcDbEntity
  8
0
347
76E
 62
     7
100
AcDbVertex
100
AcDbPolyFaceMeshVertex
 10
7.737017631530761
 20
44.63326644897461
 30
-9.550047874450683
 70
   192
  0
VERTEX
  5
606
330
575
100
AcDbEntity
  8
0
347
76E
 62
     7
100
AcDbVertex
100
AcDbPolyFaceMeshVertex
 10
11.57985305786133
 20
40.79043197631835
 30
-0.3000480234622955
 70
   192
  0
VERTEX
  5
607
330
575
100
AcDbEntity
  8
0
347
76E
 62
     7
100
AcDbVertex
100
AcDbPolyFaceMeshVertex
 10
11.57985305786133
 20
40.79043197631835
 30
-9.550047874450683
 70
   192
  0
VERTEX
  5
608
330
575
100
AcDbEntity
  8
0
347
76E
 62
     7
100
AcDbVertex
100
AcDbPolyFaceMeshVertex
 10
11.57985305786133
 20
44.79043197631836
 30
-0.3000480234622955
 70
   192
  0
VERTEX
  5
609
330
575
100
AcDbEntity
  8
0
347
76E
 62
     7
100
AcDbVertex
100
AcDbPolyFaceMeshVertex
 10
11.57985305786133
 20
44.79043197631836
 30
-9.550047874450683
 70
   192
  0
VERTEX
  5
60A
330
575
100
AcDbEntity
  8
0
347
76E
 62
     7
100
AcDbVertex
100
AcDbPolyFaceMeshVertex
 10
7.579853057861328
 20
40.79043197631835
 30
-0.3000480234622955
 70
   192
  0
VERTEX
  5
60B
330
575
100
AcDbEntity
  8
0
347
76E
 62
     7
100
AcDbVertex
100
AcDbPolyFaceMeshVertex
 10
7.579853057861328
 20
44.79043197631836
 30
-0.3000480234622955
 70
   192
  0
VERTEX
  5
60C
330
575
100
AcDbEntity
  8
0
347
76E
 62
     7
100
AcDbVertex
100
AcDbPolyFaceMeshVertex
 10
7.579853057861328
 20
44.79043197631836
 30
-9.550047874450683
 70
   192
  0
VERTEX
  5
60D
330
575
100
AcDbEntity
  8
0
347
76E
 62
     7
100
AcDbVertex
100
AcDbPolyFaceMeshVertex
 10
7.579853057861328
 20
40.79043197631835
 30
-9.550047874450683
 70
   192
  0
VERTEX
  5
60E
330
575
100
AcDbEntity
  8
0
347
76E
 62
     7
100
AcDbFaceRecord
 10
0.0
 20
0.0
 30
0.0
 70
   128
 71
     1
 72
     2
 73
     3
  0
VERTEX
  5
60F
330
575
100
AcDbEntity
  8
0
347
76E
 62
     7
100
AcDbFaceRecord
 10
0.0
 20
0.0
 30
0.0
 70
   128
 71
     4
 72
     1
 73
     3
  0
VERTEX
  5
610
330
575
100
AcDbEntity
  8
0
347
76E
 62
     7
100
AcDbFaceRecord
 10
0.0
 20
0.0
 30
0.0
 70
   128
 71
     4
 72
     3
 73
     5
  0
VERTEX
  5
611
330
575
100
AcDbEntity
  8
0
347
76E
 62
     7
100
AcDbFaceRecord
 10
0.0
 20
0.0
 30
0.0
 70
   128
 71
     6
 72
     4
 73
     5
  0
VERTEX
  5
612
330
575
100
AcDbEntity
  8
0
347
76E
 62
     7
100
AcDbFaceRecord
 10
0.0
 20
0.0
 30
0.0
 70
   128
 71
     6
 72
     5
 73
     7
  0
VERTEX
  5
613
330
575
100
AcDbEntity
  8
0
347
76E
 62
     7
100
AcDbFaceRecord
 10
0.0
 20
0.0
 30
0.0
 70
   128
 71
     8
 72
     6
 73
     7
  0
VERTEX
  5
614
330
575
100
AcDbEntity
  8
0
347
76E
 62
     7
100
AcDbFaceRecord
 10
0.0
 20
0.0
 30
0.0
 70
   128
 71
     7
 72
     2
 73
     1
  0
VERTEX
  5
615
330
575
100
AcDbEntity
  8
0
347
76E
 62
     7
100
AcDbFaceRecord
 10
0.0
 20
0.0
 30
0.0
 70
   128
 71
     8
 72
     7
 73
     1
  0
VERTEX
  5
616
330
575
100
AcDbEntity
  8
0
347
76E
 62
     7
100
AcDbFaceRecord
 10
0.0
 20
0.0
 30
0.0
 70
   128
 71
     5
 72
     3
 73
     2
  0
VERTEX
  5
617
330
575
100
AcDbEntity
  8
0
347
76E
 62
     7
100
AcDbFaceRecord
 10
0.0
 20
0.0
 30
0.0
 70
   128
 71
     7
 72
     5
 73
     2
  0
VERTEX
  5
618
330
575
100
AcDbEntity
  8
0
347
76E
 62
     7
100
AcDbFaceRecord
 10
0.0
 20
0.0
 30
0.0
 70
   128
 71
     9
 72
    10
 73
    11
  0
VERTEX
  5
619
330
575
100
AcDbEntity
  8
0
347
76E
 62
     7
100
AcDbFaceRecord
 10
0.0
 20
0.0
 30
0.0
 70
   128
 71
    12
 72
     9
 73
    11
  0
VERTEX
  5
61A
330
575
100
AcDbEntity
  8
0
347
76E
 62
     7
100
AcDbFaceRecord
 10
0.0
 20
0.0
 30
0.0
 70
   128
 71
    12
 72
    11
 73
    13
  0
VERTEX
  5
61B
330
575
100
AcDbEntity
  8
0
347
76E
 62
     7
100
AcDbFaceRecord
 10
0.0
 20
0.0
 30
0.0
 70
   128
 71
    14
 72
    12
 73
    13
  0
VERTEX
  5
61C
330
575
100
AcDbEntity
  8
0
347
76E
 62
     7
100
AcDbFaceRecord
 10
0.0
 20
0.0
 30
0.0
 70
   128
 71
    14
 72
    13
 73
    15
  0
VERTEX
  5
61D
330
575
100
AcDbEntity
  8
0
347
76E
 62
     7
100
AcDbFaceRecord
 10
0.0
 20
0.0
 30
0.0
 70
   128
 71
    16
 72
    14
 73
    15
  0
VERTEX
  5
61E
330
575
100
AcDbEntity
  8
0
347
76E
 62
     7
100
AcDbFaceRecord
 10
0.0
 20
0.0
 30
0.0
 70
   128
 71
    15
 72
    10
 73
     9
  0
VERTEX
  5
61F
330
575
100
AcDbEntity
  8
0
347
76E
 62
     7
100
AcDbFaceRecord
 10
0.0
 20
0.0
 30
0.0
 70
   128
 71
    16
 72
    15
 73
     9
  0
VERTEX
  5
620
330
575
100
AcDbEntity
  8
0
347
76E
 62
     7
100
AcDbFaceRecord
 10
0.0
 20
0.0
 30
0.0
 70
   128
 71
    11
 72
    10
 73
    15
  0
VERTEX
  5
621
330
575
100
AcDbEntity
  8
0
347
76E
 62
     7
100
AcDbFaceRecord
 10
0.0
 20
0.0
 30
0.0
 70
   128
 71
    13
 72
    11
 73
    15
  0
VERTEX
  5
622
330
575
100
AcDbEntity
  8
0
347
76E
 62
     7
100
AcDbFaceRecord
 10
0.0
 20
0.0
 30
0.0
 70
   128
 71
    17
 72
    18
 73
    19
  0
VERTEX
  5
623
330
575
100
AcDbEntity
  8
0
347
76E
 62
     7
100
AcDbFaceRecord
 10
0.0
 20
0.0
 30
0.0
 70
   128
 71
    20
 72
    17
 73
    19
  0
VERTEX
  5
624
330
575
100
AcDbEntity
  8
0
347
76E
 62
     7
100
AcDbFaceRecord
 10
0.0
 20
0.0
 30
0.0
 70
   128
 71
    21
 72
    18
 73
    17
  0
VERTEX
  5
625
330
575
100
AcDbEntity
  8
0
347
76E
 62
     7
100
AcDbFaceRecord
 10
0.0
 20
0.0
 30
0.0
 70
   128
 71
    22
 72
    21
 73
    17
  0
VERTEX
  5
626
330
575
100
AcDbEntity
  8
0
347
76E
 62
     7
100
AcDbFaceRecord
 10
0.0
 20
0.0
 30
0.0
 70
   128
 71
    23
 72
    24
 73
    21
  0
VERTEX
  5
627
330
575
100
AcDbEntity
  8
0
347
76E
 62
     7
100
AcDbFaceRecord
 10
0.0
 20
0.0
 30
0.0
 70
   128
 71
    22
 72
    23
 73
    21
  0
VERTEX
  5
628
330
575
100
AcDbEntity
  8
0
347
76E
 62
     7
100
AcDbFaceRecord
 10
0.0
 20
0.0
 30
0.0
 70
   128
 71
    20
 72
    19
 73
    24
  0
VERTEX
  5
629
330
575
100
AcDbEntity
  8
0
347
76E
 62
     7
100
AcDbFaceRecord
 10
0.0
 20
0.0
 30
0.0
 70
   128
 71
    23
 72
    20
 73
    24
  0
VERTEX
  5
62A
330
575
100
AcDbEntity
  8
0
347
76E
 62
     7
100
AcDbFaceRecord
 10
0.0
 20
0.0
 30
0.0
 70
   128
 71
    20
 72
    23
 73
    22
  0
VERTEX
  5
62B
330
575
100
AcDbEntity
  8
0
347
76E
 62
     7
100
AcDbFaceRecord
 10
0.0
 20
0.0
 30
0.0
 70
   128
 71
    17
 72
    20
 73
    22
  0
VERTEX
  5
62C
330
575
100
AcDbEntity
  8
0
347
76E
 62
     7
100
AcDbFaceRecord
 10
0.0
 20
0.0
 30
0.0
 70
   128
 71
    25
 72
    26
 73
    27
  0
VERTEX
  5
62D
330
575
100
AcDbEntity
  8
0
347
76E
 62
     7
100
AcDbFaceRecord
 10
0.0
 20
0.0
 30
0.0
 70
   128
 71
    28
 72
    25
 73
    27
  0
VERTEX
  5
62E
330
575
100
AcDbEntity
  8
0
347
76E
 62
     7
100
AcDbFaceRecord
 10
0.0
 20
0.0
 30
0.0
 70
   128
 71
    28
 72
    27
 73
    29
  0
VERTEX
  5
62F
330
575
100
AcDbEntity
  8
0
347
76E
 62
     7
100
AcDbFaceRecord
 10
0.0
 20
0.0
 30
0.0
 70
   128
 71
    30
 72
    28
 73
    29
  0
VERTEX
  5
630
330
575
100
AcDbEntity
  8
0
347
76E
 62
     7
100
AcDbFaceRecord
 10
0.0
 20
0.0
 30
0.0
 70
   128
 71
    30
 72
    29
 73
    31
  0
VERTEX
  5
631
330
575
100
AcDbEntity
  8
0
347
76E
 62
     7
100
AcDbFaceRecord
 10
0.0
 20
0.0
 30
0.0
 70
   128
 71
    32
 72
    30
 73
    31
  0
VERTEX
  5
632
330
575
100
AcDbEntity
  8
0
347
76E
 62
     7
100
AcDbFaceRecord
 10
0.0
 20
0.0
 30
0.0
 70
   128
 71
    31
 72
    26
 73
    25
  0
VERTEX
  5
633
330
575
100
AcDbEntity
  8
0
347
76E
 62
     7
100
AcDbFaceRecord
 10
0.0
 20
0.0
 30
0.0
 70
   128
 71
    32
 72
    31
 73
    25
  0
VERTEX
  5
634
330
575
100
AcDbEntity
  8
0
347
76E
 62
     7
100
AcDbFaceRecord
 10
0.0
 20
0.0
 30
0.0
 70
   128
 71
    30
 72
    32
 73
    25
  0
VERTEX
  5
635
330
575
100
AcDbEntity
  8
0
347
76E
 62
     7
100
AcDbFaceRecord
 10
0.0
 20
0.0
 30
0.0
 70
   128
 71
    28
 72
    30
 73
    25
  0
VERTEX
  5
636
330
575
100
AcDbEntity
  8
0
347
76E
 62
     7
100
AcDbFaceRecord
 10
0.0
 20
0.0
 30
0.0
 70
   128
 71
    33
 72
    34
 73
    35
  0
VERTEX
  5
637
330
575
100
AcDbEntity
  8
0
347
76E
 62
     7
100
AcDbFaceRecord
 10
0.0
 20
0.0
 30
0.0
 70
   128
 71
    36
 72
    33
 73
    35
  0
VERTEX
  5
638
330
575
100
AcDbEntity
  8
0
347
76E
 62
     7
100
AcDbFaceRecord
 10
0.0
 20
0.0
 30
0.0
 70
   128
 71
    35
 72
    34
 73
    37
  0
VERTEX
  5
639
330
575
100
AcDbEntity
  8
0
347
76E
 62
     7
100
AcDbFaceRecord
 10
0.0
 20
0.0
 30
0.0
 70
   128
 71
    38
 72
    35
 73
    37
  0
VERTEX
  5
63A
330
575
100
AcDbEntity
  8
0
347
76E
 62
     7
100
AcDbFaceRecord
 10
0.0
 20
0.0
 30
0.0
 70
   128
 71
    37
 72
    39
 73
    40
  0
VERTEX
  5
63B
330
575
100
AcDbEntity
  8
0
347
76E
 62
     7
100
AcDbFaceRecord
 10
0.0
 20
0.0
 30
0.0
 70
   128
 71
    38
 72
    37
 73
    40
  0
VERTEX
  5
63C
330
575
100
AcDbEntity
  8
0
347
76E
 62
     7
100
AcDbFaceRecord
 10
0.0
 20
0.0
 30
0.0
 70
   128
 71
    40
 72
    39
 73
    33
  0
VERTEX
  5
63D
330
575
100
AcDbEntity
  8
0
347
76E
 62
     7
100
AcDbFaceRecord
 10
0.0
 20
0.0
 30
0.0
 70
   128
 71
    36
 72
    40
 73
    33
  0
VERTEX
  5
63E
330
575
100
AcDbEntity
  8
0
347
76E
 62
     7
100
AcDbFaceRecord
 10
0.0
 20
0.0
 30
0.0
 70
   128
 71
    39
 72
    37
 73
    34
  0
VERTEX
  5
63F
330
575
100
AcDbEntity
  8
0
347
76E
 62
     7
100
AcDbFaceRecord
 10
0.0
 20
0.0
 30
0.0
 70
   128
 71
    33
 72
    39
 73
    34
  0
VERTEX
  5
640
330
575
100
AcDbEntity
  8
0
347
76E
 62
     7
100
AcDbFaceRecord
 10
0.0
 20
0.0
 30
0.0
 70
   128
 71
    41
 72
    42
 73
    43
  0
VERTEX
  5
641
330
575
100
AcDbEntity
  8
0
347
76E
 62
     7
100
AcDbFaceRecord
 10
0.0
 20
0.0
 30
0.0
 70
   128
 71
    44
 72
    41
 73
    43
  0
VERTEX
  5
642
330
575
100
AcDbEntity
  8
0
347
76E
 62
     7
100
AcDbFaceRecord
 10
0.0
 20
0.0
 30
0.0
 70
   128
 71
    43
 72
    42
 73
    45
  0
VERTEX
  5
643
330
575
100
AcDbEntity
  8
0
347
76E
 62
     7
100
AcDbFaceRecord
 10
0.0
 20
0.0
 30
0.0
 70
   128
 71
    46
 72
    43
 73
    45
  0
VERTEX
  5
644
330
575
100
AcDbEntity
  8
0
347
76E
 62
     7
100
AcDbFaceRecord
 10
0.0
 20
0.0
 30
0.0
 70
   128
 71
    45
 72
    47
 73
    48
  0
VERTEX
  5
645
330
575
100
AcDbEntity
  8
0
347
76E
 62
     7
100
AcDbFaceRecord
 10
0.0
 20
0.0
 30
0.0
 70
   128
 71
    46
 72
    45
 73
    48
  0
VERTEX
  5
646
330
575
100
AcDbEntity
  8
0
347
76E
 62
     7
100
AcDbFaceRecord
 10
0.0
 20
0.0
 30
0.0
 70
   128
 71
    48
 72
    47
 73
    41
  0
VERTEX
  5
647
330
575
100
AcDbEntity
  8
0
347
76E
 62
     7
100
AcDbFaceRecord
 10
0.0
 20
0.0
 30
0.0
 70
   128
 71
    44
 72
    48
 73
    41
  0
VERTEX
  5
648
330
575
100
AcDbEntity
  8
0
347
76E
 62
     7
100
AcDbFaceRecord
 10
0.0
 20
0.0
 30
0.0
 70
   128
 71
    46
 72
    48
 73
    44
  0
VERTEX
  5
649
330
575
100
AcDbEntity
  8
0
347
76E
 62
     7
100
AcDbFaceRecord
 10
0.0
 20
0.0
 30
0.0
 70
   128
 71
    43
 72
    46
 73
    44
  0
VERTEX
  5
64A
330
575
100
AcDbEntity
  8
0
347
76E
 62
     7
100
AcDbFaceRecord
 10
0.0
 20
0.0
 30
0.0
 70
   128
 71
    49
 72
    50
 73
    51
  0
VERTEX
  5
64B
330
575
100
AcDbEntity
  8
0
347
76E
 62
     7
100
AcDbFaceRecord
 10
0.0
 20
0.0
 30
0.0
 70
   128
 71
    52
 72
    49
 73
    51
  0
VERTEX
  5
64C
330
575
100
AcDbEntity
  8
0
347
76E
 62
     7
100
AcDbFaceRecord
 10
0.0
 20
0.0
 30
0.0
 70
   128
 71
    53
 72
    54
 73
    50
  0
VERTEX
  5
64D
330
575
100
AcDbEntity
  8
0
347
76E
 62
     7
100
AcDbFaceRecord
 10
0.0
 20
0.0
 30
0.0
 70
   128
 71
    49
 72
    53
 73
    50
  0
VERTEX
  5
64E
330
575
100
AcDbEntity
  8
0
347
76E
 62
     7
100
AcDbFaceRecord
 10
0.0
 20
0.0
 30
0.0
 70
   128
 71
    55
 72
    54
 73
    56
  0
VERTEX
  5
64F
330
575
100
AcDbEntity
  8
0
347
76E
 62
     7
100
AcDbFaceRecord
 10
0.0
 20
0.0
 30
0.0
 70
   128
 71
    57
 72
    55
 73
    56
  0
VERTEX
  5
650
330
575
100
AcDbEntity
  8
0
347
76E
 62
     7
100
AcDbFaceRecord
 10
0.0
 20
0.0
 30
0.0
 70
   128
 71
    58
 72
    59
 73
    57
  0
VERTEX
  5
651
330
575
100
AcDbEntity
  8
0
347
76E
 62
     7
100
AcDbFaceRecord
 10
0.0
 20
0.0
 30
0.0
 70
   128
 71
    60
 72
    58
 73
    57
  0
VERTEX
  5
652
330
575
100
AcDbEntity
  8
0
347
76E
 62
     7
100
AcDbFaceRecord
 10
0.0
 20
0.0
 30
0.0
 70
   128
 71
    60
 72
    57
 73
    56
  0
VERTEX
  5
653
330
575
100
AcDbEntity
  8
0
347
76E
 62
     7
100
AcDbFaceRecord
 10
0.0
 20
0.0
 30
0.0
 70
   128
 71
    53
 72
    56
 73
    54
  0
VERTEX
  5
654
330
575
100
AcDbEntity
  8
0
347
76E
 62
     7
100
AcDbFaceRecord
 10
0.0
 20
0.0
 30
0.0
 70
   128
 71
    61
 72
    59
 73
    62
  0
VERTEX
  5
655
330
575
100
AcDbEntity
  8
0
347
76E
 62
     7
100
AcDbFaceRecord
 10
0.0
 20
0.0
 30
0.0
 70
   128
 71
    63
 72
    61
 73
    62
  0
VERTEX
  5
656
330
575
100
AcDbEntity
  8
0
347
76E
 62
     7
100
AcDbFaceRecord
 10
0.0
 20
0.0
 30
0.0
 70
   128
 71
    64
 72
    65
 73
    63
  0
VERTEX
  5
657
330
575
100
AcDbEntity
  8
0
347
76E
 62
     7
100
AcDbFaceRecord
 10
0.0
 20
0.0
 30
0.0
 70
   128
 71
    66
 72
    64
 73
    63
  0
VERTEX
  5
658
330
575
100
AcDbEntity
  8
0
347
76E
 62
     7
100
AcDbFaceRecord
 10
0.0
 20
0.0
 30
0.0
 70
   128
 71
    66
 72
    63
 73
    62
  0
VERTEX
  5
659
330
575
100
AcDbEntity
  8
0
347
76E
 62
     7
100
AcDbFaceRecord
 10
0.0
 20
0.0
 30
0.0
 70
   128
 71
    58
 72
    62
 73
    59
  0
VERTEX
  5
65A
330
575
100
AcDbEntity
  8
0
347
76E
 62
     7
100
AcDbFaceRecord
 10
0.0
 20
0.0
 30
0.0
 70
   128
 71
    67
 72
    68
 73
    65
  0
VERTEX
  5
65B
330
575
100
AcDbEntity
  8
0
347
76E
 62
     7
100
AcDbFaceRecord
 10
0.0
 20
0.0
 30
0.0
 70
   128
 71
    64
 72
    67
 73
    65
  0
VERTEX
  5
65C
330
575
100
AcDbEntity
  8
0
347
76E
 62
     7
100
AcDbFaceRecord
 10
0.0
 20
0.0
 30
0.0
 70
   128
 71
    69
 72
    70
 73
    68
  0
VERTEX
  5
65D
330
575
100
AcDbEntity
  8
0
347
76E
 62
     7
100
AcDbFaceRecord
 10
0.0
 20
0.0
 30
0.0
 70
   128
 71
    67
 72
    69
 73
    68
  0
VERTEX
  5
65E
330
575
100
AcDbEntity
  8
0
347
76E
 62
     7
100
AcDbFaceRecord
 10
0.0
 20
0.0
 30
0.0
 70
   128
 71
     4
 72
    71
 73
     1
  0
VERTEX
  5
65F
330
575
100
AcDbEntity
  8
0
347
76E
 62
     7
100
AcDbFaceRecord
 10
0.0
 20
0.0
 30
0.0
 70
   128
 71
    72
 72
    71
 73
     4
  0
VERTEX
  5
660
330
575
100
AcDbEntity
  8
0
347
76E
 62
     7
100
AcDbFaceRecord
 10
0.0
 20
0.0
 30
0.0
 70
   128
 71
    73
 72
    72
 73
     6
  0
VERTEX
  5
661
330
575
100
AcDbEntity
  8
0
347
76E
 62
     7
100
AcDbFaceRecord
 10
0.0
 20
0.0
 30
0.0
 70
   128
 71
    74
 72
    73
 73
     6
  0
VERTEX
  5
662
330
575
100
AcDbEntity
  8
0
347
76E
 62
     7
100
AcDbFaceRecord
 10
0.0
 20
0.0
 30
0.0
 70
   128
 71
     6
 72
    72
 73
     4
  0
VERTEX
  5
663
330
575
100
AcDbEntity
  8
0
347
76E
 62
     7
100
AcDbFaceRecord
 10
0.0
 20
0.0
 30
0.0
 70
   128
 71
     8
 72
     1
 73
    71
  0
VERTEX
  5
664
330
575
100
AcDbEntity
  8
0
347
76E
 62
     7
100
AcDbFaceRecord
 10
0.0
 20
0.0
 30
0.0
 70
   128
 71
    74
 72
     8
 73
    71
  0
VERTEX
  5
665
330
575
100
AcDbEntity
  8
0
347
76E
 62
     7
100
AcDbFaceRecord
 10
0.0
 20
0.0
 30
0.0
 70
   128
 71
     8
 72
    74
 73
     6
  0
VERTEX
  5
666
330
575
100
AcDbEntity
  8
0
347
76E
 62
     7
100
AcDbFaceRecord
 10
0.0
 20
0.0
 30
0.0
 70
   128
 71
    75
 72
    76
 73
    77
  0
VERTEX
  5
667
330
575
100
AcDbEntity
  8
0
347
76E
 62
     7
100
AcDbFaceRecord
 10
0.0
 20
0.0
 30
0.0
 70
   128
 71
    78
 72
    75
 73
    77
  0
VERTEX
  5
668
330
575
100
AcDbEntity
  8
0
347
76E
 62
     7
100
AcDbFaceRecord
 10
0.0
 20
0.0
 30
0.0
 70
   128
 71
    79
 72
    80
 73
    76
  0
VERTEX
  5
669
330
575
100
AcDbEntity
  8
0
347
76E
 62
     7
100
AcDbFaceRecord
 10
0.0
 20
0.0
 30
0.0
 70
   128
 71
    75
 72
    79
 73
    76
  0
VERTEX
  5
66A
330
575
100
AcDbEntity
  8
0
347
76E
 62
     7
100
AcDbFaceRecord
 10
0.0
 20
0.0
 30
0.0
 70
   128
 71
    81
 72
    82
 73
    83
  0
VERTEX
  5
66B
330
575
100
AcDbEntity
  8
0
347
76E
 62
     7
100
AcDbFaceRecord
 10
0.0
 20
0.0
 30
0.0
 70
   128
 71
    84
 72
    80
 73
    85
  0
VERTEX
  5
66C
330
575
100
AcDbEntity
  8
0
347
76E
 62
     7
100
AcDbFaceRecord
 10
0.0
 20
0.0
 30
0.0
 70
   128
 71
    86
 72
    84
 73
    85
  0
VERTEX
  5
66D
330
575
100
AcDbEntity
  8
0
347
76E
 62
     7
100
AcDbFaceRecord
 10
0.0
 20
0.0
 30
0.0
 70
   128
 71
    87
 72
    81
 73
    83
  0
VERTEX
  5
66E
330
575
100
AcDbEntity
  8
0
347
76E
 62
     7
100
AcDbFaceRecord
 10
0.0
 20
0.0
 30
0.0
 70
   128
 71
    88
 72
    82
 73
    81
  0
VERTEX
  5
66F
330
575
100
AcDbEntity
  8
0
347
76E
 62
     7
100
AcDbFaceRecord
 10
0.0
 20
0.0
 30
0.0
 70
   128
 71
    86
 72
    88
 73
    81
  0
VERTEX
  5
670
330
575
100
AcDbEntity
  8
0
347
76E
 62
     7
100
AcDbFaceRecord
 10
0.0
 20
0.0
 30
0.0
 70
   128
 71
    88
 72
    86
 73
    85
  0
VERTEX
  5
671
330
575
100
AcDbEntity
  8
0
347
76E
 62
     7
100
AcDbFaceRecord
 10
0.0
 20
0.0
 30
0.0
 70
   128
 71
    79
 72
    85
 73
    80
  0
VERTEX
  5
672
330
575
100
AcDbEntity
  8
0
347
76E
 62
     7
100
AcDbFaceRecord
 10
0.0
 20
0.0
 30
0.0
 70
   128
 71
    89
 72
    90
 73
    87
  0
VERTEX
  5
673
330
575
100
AcDbEntity
  8
0
347
76E
 62
     7
100
AcDbFaceRecord
 10
0.0
 20
0.0
 30
0.0
 70
   128
 71
    83
 72
    89
 73
    87
  0
VERTEX
  5
674
330
575
100
AcDbEntity
  8
0
347
76E
 62
     7
100
AcDbFaceRecord
 10
0.0
 20
0.0
 30
0.0
 70
   128
 71
    91
 72
    92
 73
    90
  0
VERTEX
  5
675
330
575
100
AcDbEntity
  8
0
347
76E
 62
     7
100
AcDbFaceRecord
 10
0.0
 20
0.0
 30
0.0
 70
   128
 71
    89
 72
    91
 73
    90
  0
VERTEX
  5
676
330
575
100
AcDbEntity
  8
0
347
76E
 62
     7
100
AcDbFaceRecord
 10
0.0
 20
0.0
 30
0.0
 70
   128
 71
    93
 72
    94
 73
    95
  0
VERTEX
  5
677
330
575
100
AcDbEntity
  8
0
347
76E
 62
     7
100
AcDbFaceRecord
 10
0.0
 20
0.0
 30
0.0
 70
   128
 71
    96
 72
    93
 73
    95
  0
VERTEX
  5
678
330
575
100
AcDbEntity
  8
0
347
76E
 62
     7
100
AcDbFaceRecord
 10
0.0
 20
0.0
 30
0.0
 70
   128
 71
    97
 72
    98
 73
    99
  0
VERTEX
  5
679
330
575
100
AcDbEntity
  8
0
347
76E
 62
     7
100
AcDbFaceRecord
 10
0.0
 20
0.0
 30
0.0
 70
   128
 71
   100
 72
    97
 73
    99
  0
VERTEX
  5
67A
330
575
100
AcDbEntity
  8
0
347
76E
 62
     7
100
AcDbFaceRecord
 10
0.0
 20
0.0
 30
0.0
 70
   128
 71
   101
 72
   102
 73
   103
  0
VERTEX
  5
67B
330
575
100
AcDbEntity
  8
0
347
76E
 62
     7
100
AcDbFaceRecord
 10
0.0
 20
0.0
 30
0.0
 70
   128
 71
   104
 72
   101
 73
   103
  0
VERTEX
  5
67C
330
575
100
AcDbEntity
  8
0
347
76E
 62
     7
100
AcDbFaceRecord
 10
0.0
 20
0.0
 30
0.0
 70
   128
 71
   104
 72
   103
 73
   105
  0
VERTEX
  5
67D
330
575
100
AcDbEntity
  8
0
347
76E
 62
     7
100
AcDbFaceRecord
 10
0.0
 20
0.0
 30
0.0
 70
   128
 71
   106
 72
   104
 73
   105
  0
VERTEX
  5
67E
330
575
100
AcDbEntity
  8
0
347
76E
 62
     7
100
AcDbFaceRecord
 10
0.0
 20
0.0
 30
0.0
 70
   128
 71
   107
 72
   108
 73
   109
  0
VERTEX
  5
67F
330
575
100
AcDbEntity
  8
0
347
76E
 62
     7
100
AcDbFaceRecord
 10
0.0
 20
0.0
 30
0.0
 70
   128
 71
   110
 72
   107
 73
   109
  0
VERTEX
  5
680
330
575
100
AcDbEntity
  8
0
347
76E
 62
     7
100
AcDbFaceRecord
 10
0.0
 20
0.0
 30
0.0
 70
   128
 71
   106
 72
   105
 73
   110
  0
VERTEX
  5
681
330
575
100
AcDbEntity
  8
0
347
76E
 62
     7
100
AcDbFaceRecord
 10
0.0
 20
0.0
 30
0.0
 70
   128
 71
   111
 72
   106
 73
   110
  0
VERTEX
  5
682
330
575
100
AcDbEntity
  8
0
347
76E
 62
     7
100
AcDbFaceRecord
 10
0.0
 20
0.0
 30
0.0
 70
   128
 71
   111
 72
   110
 73
   109
  0
VERTEX
  5
683
330
575
100
AcDbEntity
  8
0
347
76E
 62
     7
100
AcDbFaceRecord
 10
0.0
 20
0.0
 30
0.0
 70
   128
 71
   112
 72
   109
 73
   108
  0
VERTEX
  5
684
330
575
100
AcDbEntity
  8
0
347
76E
 62
     7
100
AcDbFaceRecord
 10
0.0
 20
0.0
 30
0.0
 70
   128
 71
   113
 72
   114
 73
   115
  0
VERTEX
  5
685
330
575
100
AcDbEntity
  8
0
347
76E
 62
     7
100
AcDbFaceRecord
 10
0.0
 20
0.0
 30
0.0
 70
   128
 71
   116
 72
   113
 73
   115
  0
VERTEX
  5
686
330
575
100
AcDbEntity
  8
0
347
76E
 62
     7
100
AcDbFaceRecord
 10
0.0
 20
0.0
 30
0.0
 70
   128
 71
   112
 72
   108
 73
   116
  0
VERTEX
  5
687
330
575
100
AcDbEntity
  8
0
347
76E
 62
     7
100
AcDbFaceRecord
 10
0.0
 20
0.0
 30
0.0
 70
   128
 71
   117
 72
   112
 73
   116
  0
VERTEX
  5
688
330
575
100
AcDbEntity
  8
0
347
76E
 62
     7
100
AcDbFaceRecord
 10
0.0
 20
0.0
 30
0.0
 70
   128
 71
   117
 72
   116
 73
   115
  0
VERTEX
  5
689
330
575
100
AcDbEntity
  8
0
347
76E
 62
     7
100
AcDbFaceRecord
 10
0.0
 20
0.0
 30
0.0
 70
   128
 71
   118
 72
   115
 73
   114
  0
VERTEX
  5
68A
330
575
100
AcDbEntity
  8
0
347
76E
 62
     7
100
AcDbFaceRecord
 10
0.0
 20
0.0
 30
0.0
 70
   128
 71
   118
 72
   114
 73
   119
  0
VERTEX
  5
68B
330
575
100
AcDbEntity
  8
0
347
76E
 62
     7
100
AcDbFaceRecord
 10
0.0
 20
0.0
 30
0.0
 70
   128
 71
   120
 72
   118
 73
   119
  0
VERTEX
  5
68C
330
575
100
AcDbEntity
  8
0
347
76E
 62
     7
100
AcDbFaceRecord
 10
0.0
 20
0.0
 30
0.0
 70
   128
 71
   120
 72
   119
 73
   121
  0
VERTEX
  5
68D
330
575
100
AcDbEntity
  8
0
347
76E
 62
     7
100
AcDbFaceRecord
 10
0.0
 20
0.0
 30
0.0
 70
   128
 71
   122
 72
   120
 73
   121
  0
VERTEX
  5
68E
330
575
100
AcDbEntity
  8
0
347
76E
 62
     7
100
AcDbFaceRecord
 10
0.0
 20
0.0
 30
0.0
 70
   128
 71
   123
 72
    12
 73
    14
  0
VERTEX
  5
68F
330
575
100
AcDbEntity
  8
0
347
76E
 62
     7
100
AcDbFaceRecord
 10
0.0
 20
0.0
 30
0.0
 70
   128
 71
   124
 72
   125
 73
    16
  0
VERTEX
  5
690
330
575
100
AcDbEntity
  8
0
347
76E
 62
     7
100
AcDbFaceRecord
 10
0.0
 20
0.0
 30
0.0
 70
   128
 71
   126
 72
   124
 73
    16
  0
VERTEX
  5
691
330
575
100
AcDbEntity
  8
0
347
76E
 62
     7
100
AcDbFaceRecord
 10
0.0
 20
0.0
 30
0.0
 70
   128
 71
   125
 72
   123
 73
    14
  0
VERTEX
  5
692
330
575
100
AcDbEntity
  8
0
347
76E
 62
     7
100
AcDbFaceRecord
 10
0.0
 20
0.0
 30
0.0
 70
   128
 71
     9
 72
    12
 73
   123
  0
VERTEX
  5
693
330
575
100
AcDbEntity
  8
0
347
76E
 62
     7
100
AcDbFaceRecord
 10
0.0
 20
0.0
 30
0.0
 70
   128
 71
   126
 72
     9
 73
   123
  0
VERTEX
  5
694
330
575
100
AcDbEntity
  8
0
347
76E
 62
     7
100
AcDbFaceRecord
 10
0.0
 20
0.0
 30
0.0
 70
   128
 71
     9
 72
   126
 73
    16
  0
VERTEX
  5
695
330
575
100
AcDbEntity
  8
0
347
76E
 62
     7
100
AcDbFaceRecord
 10
0.0
 20
0.0
 30
0.0
 70
   128
 71
    16
 72
   125
 73
    14
  0
VERTEX
  5
696
330
575
100
AcDbEntity
  8
0
347
76E
 62
     7
100
AcDbFaceRecord
 10
0.0
 20
0.0
 30
0.0
 70
   128
 71
   127
 72
   128
 73
   129
  0
VERTEX
  5
697
330
575
100
AcDbEntity
  8
0
347
76E
 62
     7
100
AcDbFaceRecord
 10
0.0
 20
0.0
 30
0.0
 70
   128
 71
   130
 72
   127
 73
   129
  0
VERTEX
  5
698
330
575
100
AcDbEntity
  8
0
347
76E
 62
     7
100
AcDbFaceRecord
 10
0.0
 20
0.0
 30
0.0
 70
   128
 71
   130
 72
   129
 73
   131
  0
VERTEX
  5
699
330
575
100
AcDbEntity
  8
0
347
76E
 62
     7
100
AcDbFaceRecord
 10
0.0
 20
0.0
 30
0.0
 70
   128
 71
   132
 72
   130
 73
   131
  0
VERTEX
  5
69A
330
575
100
AcDbEntity
  8
0
347
76E
 62
     7
100
AcDbFaceRecord
 10
0.0
 20
0.0
 30
0.0
 70
   128
 71
   133
 72
   134
 73
   132
  0
VERTEX
  5
69B
330
575
100
AcDbEntity
  8
0
347
76E
 62
     7
100
AcDbFaceRecord
 10
0.0
 20
0.0
 30
0.0
 70
   128
 71
   135
 72
   136
 73
   137
  0
VERTEX
  5
69C
330
575
100
AcDbEntity
  8
0
347
76E
 62
     7
100
AcDbFaceRecord
 10
0.0
 20
0.0
 30
0.0
 70
   128
 71
   138
 72
   135
 73
   137
  0
VERTEX
  5
69D
330
575
100
AcDbEntity
  8
0
347
76E
 62
     7
100
AcDbFaceRecord
 10
0.0
 20
0.0
 30
0.0
 70
   128
 71
   131
 72
   133
 73
   132
  0
VERTEX
  5
69E
330
575
100
AcDbEntity
  8
0
347
76E
 62
     7
100
AcDbFaceRecord
 10
0.0
 20
0.0
 30
0.0
 70
   128
 71
   139
 72
   134
 73
   133
  0
VERTEX
  5
69F
330
575
100
AcDbEntity
  8
0
347
76E
 62
     7
100
AcDbFaceRecord
 10
0.0
 20
0.0
 30
0.0
 70
   128
 71
   138
 72
   139
 73
   133
  0
VERTEX
  5
6A0
330
575
100
AcDbEntity
  8
0
347
76E
 62
     7
100
AcDbFaceRecord
 10
0.0
 20
0.0
 30
0.0
 70
   128
 71
   139
 72
   138
 73
   137
  0
VERTEX
  5
6A1
330
575
100
AcDbEntity
  8
0
347
76E
 62
     7
100
AcDbFaceRecord
 10
0.0
 20
0.0
 30
0.0
 70
   128
 71
   140
 72
   137
 73
   136
  0
VERTEX
  5
6A2
330
575
100
AcDbEntity
  8
0
347
76E
 62
     7
100
AcDbFaceRecord
 10
0.0
 20
0.0
 30
0.0
 70
   128
 71
   140
 72
   136
 73
   141
  0
VERTEX
  5
6A3
330
575
100
AcDbEntity
  8
0
347
76E
 62
     7
100
AcDbFaceRecord
 10
0.0
 20
0.0
 30
0.0
 70
   128
 71
   142
 72
   140
 73
   141
  0
VERTEX
  5
6A4
330
575
100
AcDbEntity
  8
0
347
76E
 62
     7
100
AcDbFaceRecord
 10
0.0
 20
0.0
 30
0.0
 70
   128
 71
   142
 72
   141
 73
   143
  0
VERTEX
  5
6A5
330
575
100
AcDbEntity
  8
0
347
76E
 62
     7
100
AcDbFaceRecord
 10
0.0
 20
0.0
 30
0.0
 70
   128
 71
   144
 72
   142
 73
   143
  0
VERTEX
  5
6A6
330
575
100
AcDbEntity
  8
0
347
76E
 62
     7
100
AcDbFaceRecord
 10
0.0
 20
0.0
 30
0.0
 70
   128
 71
    98
 72
    97
 73
    95
  0
VERTEX
  5
6A7
330
575
100
AcDbEntity
  8
0
347
76E
 62
     7
100
AcDbFaceRecord
 10
0.0
 20
0.0
 30
0.0
 70
   128
 71
    94
 72
    98
 73
    95
  0
VERTEX
  5
6A8
330
575
100
AcDbEntity
  8
0
347
76E
 62
     7
100
AcDbFaceRecord
 10
0.0
 20
0.0
 30
0.0
 70
   128
 71
    95
 72
    97
 73
   100
  0
VERTEX
  5
6A9
330
575
100
AcDbEntity
  8
0
347
76E
 62
     7
100
AcDbFaceRecord
 10
0.0
 20
0.0
 30
0.0
 70
   128
 71
    96
 72
    95
 73
   100
  0
VERTEX
  5
6AA
330
575
100
AcDbEntity
  8
0
347
76E
 62
     7
100
AcDbFaceRecord
 10
0.0
 20
0.0
 30
0.0
 70
   128
 71
    99
 72
    98
 73
    94
  0
VERTEX
  5
6AB
330
575
100
AcDbEntity
  8
0
347
76E
 62
     7
100
AcDbFaceRecord
 10
0.0
 20
0.0
 30
0.0
 70
   128
 71
    93
 72
    99
 73
    94
  0
VERTEX
  5
6AC
330
575
100
AcDbEntity
  8
0
347
76E
 62
     7
100
AcDbFaceRecord
 10
0.0
 20
0.0
 30
0.0
 70
   128
 71
    50
 72
   103
 73
   102
  0
VERTEX
  5
6AD
330
575
100
AcDbEntity
  8
0
347
76E
 62
     7
100
AcDbFaceRecord
 10
0.0
 20
0.0
 30
0.0
 70
   128
 71
    51
 72
    50
 73
   102
  0
VERTEX
  5
6AE
330
575
100
AcDbEntity
  8
0
347
76E
 62
     7
100
AcDbFaceRecord
 10
0.0
 20
0.0
 30
0.0
 70
   128
 71
    54
 72
   105
 73
   103
  0
VERTEX
  5
6AF
330
575
100
AcDbEntity
  8
0
347
76E
 62
     7
100
AcDbFaceRecord
 10
0.0
 20
0.0
 30
0.0
 70
   128
 71
    50
 72
    54
 73
   103
  0
VERTEX
  5
6B0
330
575
100
AcDbEntity
  8
0
347
76E
 62
     7
100
AcDbFaceRecord
 10
0.0
 20
0.0
 30
0.0
 70
   128
 71
   110
 72
   105
 73
    55
  0
VERTEX
  5
6B1
330
575
100
AcDbEntity
  8
0
347
76E
 62
     7
100
AcDbFaceRecord
 10
0.0
 20
0.0
 30
0.0
 70
   128
 71
   107
 72
   110
 73
    55
  0
VERTEX
  5
6B2
330
575
100
AcDbEntity
  8
0
347
76E
 62
     7
100
AcDbFaceRecord
 10
0.0
 20
0.0
 30
0.0
 70
   128
 71
    59
 72
   108
 73
   107
  0
VERTEX
  5
6B3
330
575
100
AcDbEntity
  8
0
347
76E
 62
     7
100
AcDbFaceRecord
 10
0.0
 20
0.0
 30
0.0
 70
   128
 71
    57
 72
    59
 73
   107
  0
VERTEX
  5
6B4
330
575
100
AcDbEntity
  8
0
347
76E
 62
     7
100
AcDbFaceRecord
 10
0.0
 20
0.0
 30
0.0
 70
   128
 71
    57
 72
   107
 73
    55
  0
VERTEX
  5
6B5
330
575
100
AcDbEntity
  8
0
347
76E
 62
     7
100
AcDbFaceRecord
 10
0.0
 20
0.0
 30
0.0
 70
   128
 71
    54
 72
    55
 73
   105
  0
VERTEX
  5
6B6
330
575
100
AcDbEntity
  8
0
347
76E
 62
     7
100
AcDbFaceRecord
 10
0.0
 20
0.0
 30
0.0
 70
   128
 71
   116
 72
   108
 73
    61
  0
VERTEX
  5
6B7
330
575
100
AcDbEntity
  8
0
347
76E
 62
     7
100
AcDbFaceRecord
 10
0.0
 20
0.0
 30
0.0
 70
   128
 71
   113
 72
   116
 73
    61
  0
VERTEX
  5
6B8
330
575
100
AcDbEntity
  8
0
347
76E
 62
     7
100
AcDbFaceRecord
 10
0.0
 20
0.0
 30
0.0
 70
   128
 71
    65
 72
   114
 73
   113
  0
VERTEX
  5
6B9
330
575
100
AcDbEntity
  8
0
347
76E
 62
     7
100
AcDbFaceRecord
 10
0.0
 20
0.0
 30
0.0
 70
   128
 71
    63
 72
    65
 73
   113
  0
VERTEX
  5
6BA
330
575
100
AcDbEntity
  8
0
347
76E
 62
     7
100
AcDbFaceRecord
 10
0.0
 20
0.0
 30
0.0
 70
   128
 71
    63
 72
   113
 73
    61
  0
VERTEX
  5
6BB
330
575
100
AcDbEntity
  8
0
347
76E
 62
     7
100
AcDbFaceRecord
 10
0.0
 20
0.0
 30
0.0
 70
   128
 71
    59
 72
    61
 73
   108
  0
VERTEX
  5
6BC
330
575
100
AcDbEntity
  8
0
347
76E
 62
     7
100
AcDbFaceRecord
 10
0.0
 20
0.0
 30
0.0
 70
   128
 71
    68
 72
   119
 73
   114
  0
VERTEX
  5
6BD
330
575
100
AcDbEntity
  8
0
347
76E
 62
     7
100
AcDbFaceRecord
 10
0.0
 20
0.0
 30
0.0
 70
   128
 71
    65
 72
    68
 73
   114
  0
VERTEX
  5
6BE
330
575
100
AcDbEntity
  8
0
347
76E
 62
     7
100
AcDbFaceRecord
 10
0.0
 20
0.0
 30
0.0
 70
   128
 71
    70
 72
   121
 73
   119
  0
VERTEX
  5
6BF
330
575
100
AcDbEntity
  8
0
347
76E
 62
     7
100
AcDbFaceRecord
 10
0.0
 20
0.0
 30
0.0
 70
   128
 71
    68
 72
    70
 73
   119
  0
VERTEX
  5
6C0
330
575
100
AcDbEntity
  8
0
347
76E
 62
     7
100
AcDbFaceRecord
 10
0.0
 20
0.0
 30
0.0
 70
   128
 71
   123
 72
    71
 73
   122
  0
VERTEX
  5
6C1
330
575
100
AcDbEntity
  8
0
347
76E
 62
     7
100
AcDbFaceRecord
 10
0.0
 20
0.0
 30
0.0
 70
   128
 71
   126
 72
   123
 73
   122
  0
VERTEX
  5
6C2
330
575
100
AcDbEntity
  8
0
347
76E
 62
     7
100
AcDbFaceRecord
 10
0.0
 20
0.0
 30
0.0
 70
   128
 71
    69
 72
    72
 73
    70
  0
VERTEX
  5
6C3
330
575
100
AcDbEntity
  8
0
347
76E
 62
     7
100
AcDbFaceRecord
 10
0.0
 20
0.0
 30
0.0
 70
   128
 71
    71
 72
    72
 73
    69
  0
VERTEX
  5
6C4
330
575
100
AcDbEntity
  8
0
347
76E
 62
     7
100
AcDbFaceRecord
 10
0.0
 20
0.0
 30
0.0
 70
   128
 71
   126
 72
    70
 73
    72
  0
VERTEX
  5
6C5
330
575
100
AcDbEntity
  8
0
347
76E
 62
     7
100
AcDbFaceRecord
 10
0.0
 20
0.0
 30
0.0
 70
   128
 71
   121
 72
    70
 73
   126
  0
VERTEX
  5
6C6
330
575
100
AcDbEntity
  8
0
347
76E
 62
     7
100
AcDbFaceRecord
 10
0.0
 20
0.0
 30
0.0
 70
   128
 71
   121
 72
   126
 73
   122
  0
VERTEX
  5
6C7
330
575
100
AcDbEntity
  8
0
347
76E
 62
     7
100
AcDbFaceRecord
 10
0.0
 20
0.0
 30
0.0
 70
   128
 71
   122
 72
    71
 73
    69
  0
VERTEX
  5
6C8
330
575
100
AcDbEntity
  8
0
347
76E
 62
     7
100
AcDbFaceRecord
 10
0.0
 20
0.0
 30
0.0
 70
   128
 71
    24
 72
    72
 73
    21
  0
VERTEX
  5
6C9
330
575
100
AcDbEntity
  8
0
347
76E
 62
     7
100
AcDbFaceRecord
 10
0.0
 20
0.0
 30
0.0
 70
   128
 71
   126
 72
    72
 73
    24
  0
VERTEX
  5
6CA
330
575
100
AcDbEntity
  8
0
347
76E
 62
     7
100
AcDbFaceRecord
 10
0.0
 20
0.0
 30
0.0
 70
   128
 71
   124
 72
   126
 73
    19
  0
VERTEX
  5
6CB
330
575
100
AcDbEntity
  8
0
347
76E
 62
     7
100
AcDbFaceRecord
 10
0.0
 20
0.0
 30
0.0
 70
   128
 71
    73
 72
   124
 73
    19
  0
VERTEX
  5
6CC
330
575
100
AcDbEntity
  8
0
347
76E
 62
     7
100
AcDbFaceRecord
 10
0.0
 20
0.0
 30
0.0
 70
   128
 71
    19
 72
   126
 73
    24
  0
VERTEX
  5
6CD
330
575
100
AcDbEntity
  8
0
347
76E
 62
     7
100
AcDbFaceRecord
 10
0.0
 20
0.0
 30
0.0
 70
   128
 71
    18
 72
    21
 73
    72
  0
VERTEX
  5
6CE
330
575
100
AcDbEntity
  8
0
347
76E
 62
     7
100
AcDbFaceRecord
 10
0.0
 20
0.0
 30
0.0
 70
   128
 71
    73
 72
    18
 73
    72
  0
VERTEX
  5
6CF
330
575
100
AcDbEntity
  8
0
347
76E
 62
     7
100
AcDbFaceRecord
 10
0.0
 20
0.0
 30
0.0
 70
   128
 71
    18
 72
    73
 73
    19
  0
VERTEX
  5
6D0
330
575
100
AcDbEntity
  8
0
347
76E
 62
     7
100
AcDbFaceRecord
 10
0.0
 20
0.0
 30
0.0
 70
   128
 71
    76
 72
   129
 73
   128
  0
VERTEX
  5
6D1
330
575
100
AcDbEntity
  8
0
347
76E
 62
     7
100
AcDbFaceRecord
 10
0.0
 20
0.0
 30
0.0
 70
   128
 71
    77
 72
    76
 73
   128
  0
VERTEX
  5
6D2
330
575
100
AcDbEntity
  8
0
347
76E
 62
     7
100
AcDbFaceRecord
 10
0.0
 20
0.0
 30
0.0
 70
   128
 71
   145
 72
   146
 73
    42
  0
VERTEX
  5
6D3
330
575
100
AcDbEntity
  8
0
347
76E
 62
     7
100
AcDbFaceRecord
 10
0.0
 20
0.0
 30
0.0
 70
   128
 71
    47
 72
   147
 73
    41
  0
VERTEX
  5
6D4
330
575
100
AcDbEntity
  8
0
347
76E
 62
     7
100
AcDbFaceRecord
 10
0.0
 20
0.0
 30
0.0
 70
   128
 71
   148
 72
   147
 73
    47
  0
VERTEX
  5
6D5
330
575
100
AcDbEntity
  8
0
347
76E
 62
     7
100
AcDbFaceRecord
 10
0.0
 20
0.0
 30
0.0
 70
   128
 71
   146
 72
   148
 73
    47
  0
VERTEX
  5
6D6
330
575
100
AcDbEntity
  8
0
347
76E
 62
     7
100
AcDbFaceRecord
 10
0.0
 20
0.0
 30
0.0
 70
   128
 71
    45
 72
    42
 73
   146
  0
VERTEX
  5
6D7
330
575
100
AcDbEntity
  8
0
347
76E
 62
     7
100
AcDbFaceRecord
 10
0.0
 20
0.0
 30
0.0
 70
   128
 71
    45
 72
   146
 73
    47
  0
VERTEX
  5
6D8
330
575
100
AcDbEntity
  8
0
347
76E
 62
     7
100
AcDbFaceRecord
 10
0.0
 20
0.0
 30
0.0
 70
   128
 71
   145
 72
    41
 73
   147
  0
VERTEX
  5
6D9
330
575
100
AcDbEntity
  8
0
347
76E
 62
     7
100
AcDbFaceRecord
 10
0.0
 20
0.0
 30
0.0
 70
   128
 71
    41
 72
   145
 73
    42
  0
VERTEX
  5
6DA
330
575
100
AcDbEntity
  8
0
347
76E
 62
     7
100
AcDbFaceRecord
 10
0.0
 20
0.0
 30
0.0
 70
   128
 71
    80
 72
   131
 73
   129
  0
VERTEX
  5
6DB
330
575
100
AcDbEntity
  8
0
347
76E
 62
     7
100
AcDbFaceRecord
 10
0.0
 20
0.0
 30
0.0
 70
   128
 71
    76
 72
    80
 73
   129
  0
VERTEX
  5
6DC
330
575
100
AcDbEntity
  8
0
347
76E
 62
     7
100
AcDbFaceRecord
 10
0.0
 20
0.0
 30
0.0
 70
   128
 71
   135
 72
    81
 73
    87
  0
VERTEX
  5
6DD
330
575
100
AcDbEntity
  8
0
347
76E
 62
     7
100
AcDbFaceRecord
 10
0.0
 20
0.0
 30
0.0
 70
   128
 71
   133
 72
   131
 73
    84
  0
VERTEX
  5
6DE
330
575
100
AcDbEntity
  8
0
347
76E
 62
     7
100
AcDbFaceRecord
 10
0.0
 20
0.0
 30
0.0
 70
   128
 71
   138
 72
   133
 73
    84
  0
VERTEX
  5
6DF
330
575
100
AcDbEntity
  8
0
347
76E
 62
     7
100
AcDbFaceRecord
 10
0.0
 20
0.0
 30
0.0
 70
   128
 71
   136
 72
   135
 73
    87
  0
VERTEX
  5
6E0
330
575
100
AcDbEntity
  8
0
347
76E
 62
     7
100
AcDbFaceRecord
 10
0.0
 20
0.0
 30
0.0
 70
   128
 71
    86
 72
    81
 73
   135
  0
VERTEX
  5
6E1
330
575
100
AcDbEntity
  8
0
347
76E
 62
     7
100
AcDbFaceRecord
 10
0.0
 20
0.0
 30
0.0
 70
   128
 71
   138
 72
    86
 73
   135
  0
VERTEX
  5
6E2
330
575
100
AcDbEntity
  8
0
347
76E
 62
     7
100
AcDbFaceRecord
 10
0.0
 20
0.0
 30
0.0
 70
   128
 71
    86
 72
   138
 73
    84
  0
VERTEX
  5
6E3
330
575
100
AcDbEntity
  8
0
347
76E
 62
     7
100
AcDbFaceRecord
 10
0.0
 20
0.0
 30
0.0
 70
   128
 71
    80
 72
    84
 73
   131
  0
VERTEX
  5
6E4
330
575
100
AcDbEntity
  8
0
347
76E
 62
     7
100
AcDbFaceRecord
 10
0.0
 20
0.0
 30
0.0
 70
   128
 71
   149
 72
   150
 73
   151
  0
VERTEX
  5
6E5
330
575
100
AcDbEntity
  8
0
347
76E
 62
     7
100
AcDbFaceRecord
 10
0.0
 20
0.0
 30
0.0
 70
   128
 71
   152
 72
   149
 73
   151
  0
VERTEX
  5
6E6
330
575
100
AcDbEntity
  8
0
347
76E
 62
     7
100
AcDbFaceRecord
 10
0.0
 20
0.0
 30
0.0
 70
   128
 71
    90
 72
   141
 73
   136
  0
VERTEX
  5
6E7
330
575
100
AcDbEntity
  8
0
347
76E
 62
     7
100
AcDbFaceRecord
 10
0.0
 20
0.0
 30
0.0
 70
   128
 71
    87
 72
    90
 73
   136
  0
VERTEX
  5
6E8
330
575
100
AcDbEntity
  8
0
347
76E
 62
     7
100
AcDbFaceRecord
 10
0.0
 20
0.0
 30
0.0
 70
   128
 71
    92
 72
   143
 73
   141
  0
VERTEX
  5
6E9
330
575
100
AcDbEntity
  8
0
347
76E
 62
     7
100
AcDbFaceRecord
 10
0.0
 20
0.0
 30
0.0
 70
   128
 71
    90
 72
    92
 73
   141
  0
VERTEX
  5
6EA
330
575
100
AcDbEntity
  8
0
347
76E
 62
     7
100
AcDbFaceRecord
 10
0.0
 20
0.0
 30
0.0
 70
   128
 71
   145
 72
   147
 73
   150
  0
VERTEX
  5
6EB
330
575
100
AcDbEntity
  8
0
347
76E
 62
     7
100
AcDbFaceRecord
 10
0.0
 20
0.0
 30
0.0
 70
   128
 71
   149
 72
   145
 73
   150
  0
VERTEX
  5
6EC
330
575
100
AcDbEntity
  8
0
347
76E
 62
     7
100
AcDbFaceRecord
 10
0.0
 20
0.0
 30
0.0
 70
   128
 71
    38
 72
   145
 73
    35
  0
VERTEX
  5
6ED
330
575
100
AcDbEntity
  8
0
347
76E
 62
     7
100
AcDbFaceRecord
 10
0.0
 20
0.0
 30
0.0
 70
   128
 71
   146
 72
   145
 73
    38
  0
VERTEX
  5
6EE
330
575
100
AcDbEntity
  8
0
347
76E
 62
     7
100
AcDbFaceRecord
 10
0.0
 20
0.0
 30
0.0
 70
   128
 71
   152
 72
   146
 73
    38
  0
VERTEX
  5
6EF
330
575
100
AcDbEntity
  8
0
347
76E
 62
     7
100
AcDbFaceRecord
 10
0.0
 20
0.0
 30
0.0
 70
   128
 71
   149
 72
   152
 73
    36
  0
VERTEX
  5
6F0
330
575
100
AcDbEntity
  8
0
347
76E
 62
     7
100
AcDbFaceRecord
 10
0.0
 20
0.0
 30
0.0
 70
   128
 71
    40
 72
    36
 73
   152
  0
VERTEX
  5
6F1
330
575
100
AcDbEntity
  8
0
347
76E
 62
     7
100
AcDbFaceRecord
 10
0.0
 20
0.0
 30
0.0
 70
   128
 71
    40
 72
   152
 73
    38
  0
VERTEX
  5
6F2
330
575
100
AcDbEntity
  8
0
347
76E
 62
     7
100
AcDbFaceRecord
 10
0.0
 20
0.0
 30
0.0
 70
   128
 71
   149
 72
    35
 73
   145
  0
VERTEX
  5
6F3
330
575
100
AcDbEntity
  8
0
347
76E
 62
     7
100
AcDbFaceRecord
 10
0.0
 20
0.0
 30
0.0
 70
   128
 71
    35
 72
   149
 73
    36
  0
VERTEX
  5
6F4
330
575
100
AcDbEntity
  8
0
347
76E
 62
     7
100
AcDbFaceRecord
 10
0.0
 20
0.0
 30
0.0
 70
   128
 71
    99
 72
   101
 73
   100
  0
VERTEX
  5
6F5
330
575
100
AcDbEntity
  8
0
347
76E
 62
     7
100
AcDbFaceRecord
 10
0.0
 20
0.0
 30
0.0
 70
   128
 71
   102
 72
   101
 73
    99
  0
VERTEX
  5
6F6
330
575
100
AcDbEntity
  8
0
347
76E
 62
     7
100
AcDbFaceRecord
 10
0.0
 20
0.0
 30
0.0
 70
   128
 71
    51
 72
   102
 73
    93
  0
VERTEX
  5
6F7
330
575
100
AcDbEntity
  8
0
347
76E
 62
     7
100
AcDbFaceRecord
 10
0.0
 20
0.0
 30
0.0
 70
   128
 71
    52
 72
    51
 73
    93
  0
VERTEX
  5
6F8
330
575
100
AcDbEntity
  8
0
347
76E
 62
     7
100
AcDbFaceRecord
 10
0.0
 20
0.0
 30
0.0
 70
   128
 71
    93
 72
   102
 73
    99
  0
VERTEX
  5
6F9
330
575
100
AcDbEntity
  8
0
347
76E
 62
     7
100
AcDbFaceRecord
 10
0.0
 20
0.0
 30
0.0
 70
   128
 71
    52
 72
   100
 73
   101
  0
VERTEX
  5
6FA
330
575
100
AcDbEntity
  8
0
347
76E
 62
     7
100
AcDbFaceRecord
 10
0.0
 20
0.0
 30
0.0
 70
   128
 71
    96
 72
   100
 73
    52
  0
VERTEX
  5
6FB
330
575
100
AcDbEntity
  8
0
347
76E
 62
     7
100
AcDbFaceRecord
 10
0.0
 20
0.0
 30
0.0
 70
   128
 71
    96
 72
    52
 73
    93
  0
VERTEX
  5
6FC
330
575
100
AcDbEntity
  8
0
347
76E
 62
     7
100
AcDbFaceRecord
 10
0.0
 20
0.0
 30
0.0
 70
   128
 71
    52
 72
   101
 73
   104
  0
VERTEX
  5
6FD
330
575
100
AcDbEntity
  8
0
347
76E
 62
     7
100
AcDbFaceRecord
 10
0.0
 20
0.0
 30
0.0
 70
   128
 71
    49
 72
    52
 73
   104
  0
VERTEX
  5
6FE
330
575
100
AcDbEntity
  8
0
347
76E
 62
     7
100
AcDbFaceRecord
 10
0.0
 20
0.0
 30
0.0
 70
   128
 71
    49
 72
   104
 73
   106
  0
VERTEX
  5
6FF
330
575
100
AcDbEntity
  8
0
347
76E
 62
     7
100
AcDbFaceRecord
 10
0.0
 20
0.0
 30
0.0
 70
   128
 71
    53
 72
    49
 73
   106
  0
VERTEX
  5
700
330
575
100
AcDbEntity
  8
0
347
76E
 62
     7
100
AcDbFaceRecord
 10
0.0
 20
0.0
 30
0.0
 70
   128
 71
   109
 72
   112
 73
    60
  0
VERTEX
  5
701
330
575
100
AcDbEntity
  8
0
347
76E
 62
     7
100
AcDbFaceRecord
 10
0.0
 20
0.0
 30
0.0
 70
   128
 71
   111
 72
   109
 73
    60
  0
VERTEX
  5
702
330
575
100
AcDbEntity
  8
0
347
76E
 62
     7
100
AcDbFaceRecord
 10
0.0
 20
0.0
 30
0.0
 70
   128
 71
    53
 72
   106
 73
   111
  0
VERTEX
  5
703
330
575
100
AcDbEntity
  8
0
347
76E
 62
     7
100
AcDbFaceRecord
 10
0.0
 20
0.0
 30
0.0
 70
   128
 71
    56
 72
    53
 73
   111
  0
VERTEX
  5
704
330
575
100
AcDbEntity
  8
0
347
76E
 62
     7
100
AcDbFaceRecord
 10
0.0
 20
0.0
 30
0.0
 70
   128
 71
    56
 72
   111
 73
    60
  0
VERTEX
  5
705
330
575
100
AcDbEntity
  8
0
347
76E
 62
     7
100
AcDbFaceRecord
 10
0.0
 20
0.0
 30
0.0
 70
   128
 71
    58
 72
    60
 73
   112
  0
VERTEX
  5
706
330
575
100
AcDbEntity
  8
0
347
76E
 62
     7
100
AcDbFaceRecord
 10
0.0
 20
0.0
 30
0.0
 70
   128
 71
   115
 72
   118
 73
    66
  0
VERTEX
  5
707
330
575
100
AcDbEntity
  8
0
347
76E
 62
     7
100
AcDbFaceRecord
 10
0.0
 20
0.0
 30
0.0
 70
   128
 71
   117
 72
   115
 73
    66
  0
VERTEX
  5
708
330
575
100
AcDbEntity
  8
0
347
76E
 62
     7
100
AcDbFaceRecord
 10
0.0
 20
0.0
 30
0.0
 70
   128
 71
    58
 72
   112
 73
   117
  0
VERTEX
  5
709
330
575
100
AcDbEntity
  8
0
347
76E
 62
     7
100
AcDbFaceRecord
 10
0.0
 20
0.0
 30
0.0
 70
   128
 71
    62
 72
    58
 73
   117
  0
VERTEX
  5
70A
330
575
100
AcDbEntity
  8
0
347
76E
 62
     7
100
AcDbFaceRecord
 10
0.0
 20
0.0
 30
0.0
 70
   128
 71
    62
 72
   117
 73
    66
  0
VERTEX
  5
70B
330
575
100
AcDbEntity
  8
0
347
76E
 62
     7
100
AcDbFaceRecord
 10
0.0
 20
0.0
 30
0.0
 70
   128
 71
    64
 72
    66
 73
   118
  0
VERTEX
  5
70C
330
575
100
AcDbEntity
  8
0
347
76E
 62
     7
100
AcDbFaceRecord
 10
0.0
 20
0.0
 30
0.0
 70
   128
 71
    64
 72
   118
 73
   120
  0
VERTEX
  5
70D
330
575
100
AcDbEntity
  8
0
347
76E
 62
     7
100
AcDbFaceRecord
 10
0.0
 20
0.0
 30
0.0
 70
   128
 71
    67
 72
    64
 73
   120
  0
VERTEX
  5
70E
330
575
100
AcDbEntity
  8
0
347
76E
 62
     7
100
AcDbFaceRecord
 10
0.0
 20
0.0
 30
0.0
 70
   128
 71
    67
 72
   120
 73
   122
  0
VERTEX
  5
70F
330
575
100
AcDbEntity
  8
0
347
76E
 62
     7
100
AcDbFaceRecord
 10
0.0
 20
0.0
 30
0.0
 70
   128
 71
    69
 72
    67
 73
   122
  0
VERTEX
  5
710
330
575
100
AcDbEntity
  8
0
347
76E
 62
     7
100
AcDbFaceRecord
 10
0.0
 20
0.0
 30
0.0
 70
   128
 71
    71
 72
    29
 73
    27
  0
VERTEX
  5
711
330
575
100
AcDbEntity
  8
0
347
76E
 62
     7
100
AcDbFaceRecord
 10
0.0
 20
0.0
 30
0.0
 70
   128
 71
   125
 72
    74
 73
    26
  0
VERTEX
  5
712
330
575
100
AcDbEntity
  8
0
347
76E
 62
     7
100
AcDbFaceRecord
 10
0.0
 20
0.0
 30
0.0
 70
   128
 71
   123
 72
   125
 73
    26
  0
VERTEX
  5
713
330
575
100
AcDbEntity
  8
0
347
76E
 62
     7
100
AcDbFaceRecord
 10
0.0
 20
0.0
 30
0.0
 70
   128
 71
    74
 72
    71
 73
    27
  0
VERTEX
  5
714
330
575
100
AcDbEntity
  8
0
347
76E
 62
     7
100
AcDbFaceRecord
 10
0.0
 20
0.0
 30
0.0
 70
   128
 71
    31
 72
    29
 73
    71
  0
VERTEX
  5
715
330
575
100
AcDbEntity
  8
0
347
76E
 62
     7
100
AcDbFaceRecord
 10
0.0
 20
0.0
 30
0.0
 70
   128
 71
   123
 72
    31
 73
    71
  0
VERTEX
  5
716
330
575
100
AcDbEntity
  8
0
347
76E
 62
     7
100
AcDbFaceRecord
 10
0.0
 20
0.0
 30
0.0
 70
   128
 71
    31
 72
   123
 73
    26
  0
VERTEX
  5
717
330
575
100
AcDbEntity
  8
0
347
76E
 62
     7
100
AcDbFaceRecord
 10
0.0
 20
0.0
 30
0.0
 70
   128
 71
    26
 72
    74
 73
    27
  0
VERTEX
  5
718
330
575
100
AcDbEntity
  8
0
347
76E
 62
     7
100
AcDbFaceRecord
 10
0.0
 20
0.0
 30
0.0
 70
   128
 71
   124
 72
   127
 73
   125
  0
VERTEX
  5
719
330
575
100
AcDbEntity
  8
0
347
76E
 62
     7
100
AcDbFaceRecord
 10
0.0
 20
0.0
 30
0.0
 70
   128
 71
   128
 72
   127
 73
   124
  0
VERTEX
  5
71A
330
575
100
AcDbEntity
  8
0
347
76E
 62
     7
100
AcDbFaceRecord
 10
0.0
 20
0.0
 30
0.0
 70
   128
 71
    77
 72
   128
 73
    73
  0
VERTEX
  5
71B
330
575
100
AcDbEntity
  8
0
347
76E
 62
     7
100
AcDbFaceRecord
 10
0.0
 20
0.0
 30
0.0
 70
   128
 71
    78
 72
    77
 73
    73
  0
VERTEX
  5
71C
330
575
100
AcDbEntity
  8
0
347
76E
 62
     7
100
AcDbFaceRecord
 10
0.0
 20
0.0
 30
0.0
 70
   128
 71
    73
 72
   128
 73
   124
  0
VERTEX
  5
71D
330
575
100
AcDbEntity
  8
0
347
76E
 62
     7
100
AcDbFaceRecord
 10
0.0
 20
0.0
 30
0.0
 70
   128
 71
    78
 72
   125
 73
   127
  0
VERTEX
  5
71E
330
575
100
AcDbEntity
  8
0
347
76E
 62
     7
100
AcDbFaceRecord
 10
0.0
 20
0.0
 30
0.0
 70
   128
 71
    74
 72
   125
 73
    78
  0
VERTEX
  5
71F
330
575
100
AcDbEntity
  8
0
347
76E
 62
     7
100
AcDbFaceRecord
 10
0.0
 20
0.0
 30
0.0
 70
   128
 71
    74
 72
    78
 73
    73
  0
VERTEX
  5
720
330
575
100
AcDbEntity
  8
0
347
76E
 62
     7
100
AcDbFaceRecord
 10
0.0
 20
0.0
 30
0.0
 70
   128
 71
    78
 72
   127
 73
   130
  0
VERTEX
  5
721
330
575
100
AcDbEntity
  8
0
347
76E
 62
     7
100
AcDbFaceRecord
 10
0.0
 20
0.0
 30
0.0
 70
   128
 71
    75
 72
    78
 73
   130
  0
VERTEX
  5
722
330
575
100
AcDbEntity
  8
0
347
76E
 62
     7
100
AcDbFaceRecord
 10
0.0
 20
0.0
 30
0.0
 70
   128
 71
    75
 72
   130
 73
   132
  0
VERTEX
  5
723
330
575
100
AcDbEntity
  8
0
347
76E
 62
     7
100
AcDbFaceRecord
 10
0.0
 20
0.0
 30
0.0
 70
   128
 71
    79
 72
    75
 73
   132
  0
VERTEX
  5
724
330
575
100
AcDbEntity
  8
0
347
76E
 62
     7
100
AcDbFaceRecord
 10
0.0
 20
0.0
 30
0.0
 70
   128
 71
   134
 72
    85
 73
    79
  0
VERTEX
  5
725
330
575
100
AcDbEntity
  8
0
347
76E
 62
     7
100
AcDbFaceRecord
 10
0.0
 20
0.0
 30
0.0
 70
   128
 71
   137
 72
   140
 73
    82
  0
VERTEX
  5
726
330
575
100
AcDbEntity
  8
0
347
76E
 62
     7
100
AcDbFaceRecord
 10
0.0
 20
0.0
 30
0.0
 70
   128
 71
   139
 72
   137
 73
    82
  0
VERTEX
  5
727
330
575
100
AcDbEntity
  8
0
347
76E
 62
     7
100
AcDbFaceRecord
 10
0.0
 20
0.0
 30
0.0
 70
   128
 71
   132
 72
   134
 73
    79
  0
VERTEX
  5
728
330
575
100
AcDbEntity
  8
0
347
76E
 62
     7
100
AcDbFaceRecord
 10
0.0
 20
0.0
 30
0.0
 70
   128
 71
    88
 72
    85
 73
   134
  0
VERTEX
  5
729
330
575
100
AcDbEntity
  8
0
347
76E
 62
     7
100
AcDbFaceRecord
 10
0.0
 20
0.0
 30
0.0
 70
   128
 71
   139
 72
    88
 73
   134
  0
VERTEX
  5
72A
330
575
100
AcDbEntity
  8
0
347
76E
 62
     7
100
AcDbFaceRecord
 10
0.0
 20
0.0
 30
0.0
 70
   128
 71
    88
 72
   139
 73
    82
  0
VERTEX
  5
72B
330
575
100
AcDbEntity
  8
0
347
76E
 62
     7
100
AcDbFaceRecord
 10
0.0
 20
0.0
 30
0.0
 70
   128
 71
    83
 72
    82
 73
   140
  0
VERTEX
  5
72C
330
575
100
AcDbEntity
  8
0
347
76E
 62
     7
100
AcDbFaceRecord
 10
0.0
 20
0.0
 30
0.0
 70
   128
 71
    83
 72
   140
 73
   142
  0
VERTEX
  5
72D
330
575
100
AcDbEntity
  8
0
347
76E
 62
     7
100
AcDbFaceRecord
 10
0.0
 20
0.0
 30
0.0
 70
   128
 71
    89
 72
    83
 73
   142
  0
VERTEX
  5
72E
330
575
100
AcDbEntity
  8
0
347
76E
 62
     7
100
AcDbFaceRecord
 10
0.0
 20
0.0
 30
0.0
 70
   128
 71
    89
 72
   142
 73
   144
  0
VERTEX
  5
72F
330
575
100
AcDbEntity
  8
0
347
76E
 62
     7
100
AcDbFaceRecord
 10
0.0
 20
0.0
 30
0.0
 70
   128
 71
    91
 72
    89
 73
   144
  0
VERTEX
  5
730
330
575
100
AcDbEntity
  8
0
347
76E
 62
     7
100
AcDbFaceRecord
 10
0.0
 20
0.0
 30
0.0
 70
   128
 71
   151
 72
   148
 73
   144
  0
VERTEX
  5
731
330
575
100
AcDbEntity
  8
0
347
76E
 62
     7
100
AcDbFaceRecord
 10
0.0
 20
0.0
 30
0.0
 70
   128
 71
   152
 72
   151
 73
   144
  0
VERTEX
  5
732
330
575
100
AcDbEntity
  8
0
347
76E
 62
     7
100
AcDbFaceRecord
 10
0.0
 20
0.0
 30
0.0
 70
   128
 71
    91
 72
   146
 73
    92
  0
VERTEX
  5
733
330
575
100
AcDbEntity
  8
0
347
76E
 62
     7
100
AcDbFaceRecord
 10
0.0
 20
0.0
 30
0.0
 70
   128
 71
   148
 72
   146
 73
    91
  0
VERTEX
  5
734
330
575
100
AcDbEntity
  8
0
347
76E
 62
     7
100
AcDbFaceRecord
 10
0.0
 20
0.0
 30
0.0
 70
   128
 71
   152
 72
    92
 73
   146
  0
VERTEX
  5
735
330
575
100
AcDbEntity
  8
0
347
76E
 62
     7
100
AcDbFaceRecord
 10
0.0
 20
0.0
 30
0.0
 70
   128
 71
   143
 72
    92
 73
   152
  0
VERTEX
  5
736
330
575
100
AcDbEntity
  8
0
347
76E
 62
     7
100
AcDbFaceRecord
 10
0.0
 20
0.0
 30
0.0
 70
   128
 71
   143
 72
   152
 73
   144
  0
VERTEX
  5
737
330
575
100
AcDbEntity
  8
0
347
76E
 62
     7
100
AcDbFaceRecord
 10
0.0
 20
0.0
 30
0.0
 70
   128
 71
   144
 72
   148
 73
    91
  0
VERTEX
  5
738
330
575
100
AcDbEntity
  8
0
347
76E
 62
     7
100
AcDbFaceRecord
 10
0.0
 20
0.0
 30
0.0
 70
   128
 71
   150
 72
   147
 73
   148
  0
VERTEX
  5
739
330
575
100
AcDbEntity
  8
0
347
76E
 62
     7
100
AcDbFaceRecord
 10
0.0
 20
0.0
 30
0.0
 70
   128
 71
   151
 72
   150
 73
   148
  0
SEQEND
  5
73A
330
575
100
AcDbEntity
  8
0
347
76E
 62
     7
  0
INSERT
  5
755
330
1F
100
AcDbEntity
  8
0
100
AcDbBlockReference
 66
     1
  2
RM_SDB
 10
0.0
 20
0.0
 30
0.0
1001
AVE_MATERIAL
1002
{
1000
*GLOBAL*01
1000
2
1000

1002
{
1002
}
1002
{
1070
    39
1002
{
1002
{
1010
1.428571462631225
1020
1.428571462631225
1030
1.428571462631225
1002
}
1040
0.6999999880790711
1000

1040
0.0
1002
{
1002
}
1040
0.0
1002
{
1002
}
1040
0.0
1002
}
1002
{
1002
{
1010
1.0
1020
1.0
1030
1.0
1002
}
1040
1.0
1000

1040
0.0
1002
{
1002
}
1040
0.0
1002
{
1002
}
1040
0.0
1002
}
1002
{
1002
{
1010
5.0
1020
5.0
1030
5.0
1002
}
1040
0.2000000029802322
1000

1040
0.0
1002
{
1002
}
1040
0.0
1002
{
1002
}
1040
0.0
1002
}
1002
{
1070
     0
1002
{
1070
     1
1002
{
1040
1.0
1040
1.0
1000

1040
0.0
1002
{
1002
}
1040
0.0
1002
{
1002
}
1040
0.0
1002
}
1002
}
1040
0.0
1040
0.0
1040
0.0
1002
}
1002
{
1040
0.0
1040
0.0
1000

1040
0.0
1002
{
1002
}
1040
0.0
1002
{
1002
}
1040
0.0
1002
}
1002
{
1040
0.5
1040
1.0
1000

1040
0.0
1002
{
1002
}
1040
0.0
1002
{
1002
}
1040
0.0
1002
}
1002
{
1070
     0
1040
0.0
1002
{
1002
}
1040
0.0
1002
{
1002
}
1040
0.0
1002
}
1002
{
1040
0.0
1002
{
1002
{
1010
0.0
1020
0.0
1030
0.0
1002
}
1040
0.0
1000

1040
0.0
1002
{
1002
}
1040
0.0
1002
{
1002
}
1040
0.0
1002
}
1002
}
1002
{
1002
{
1070
     1
1002
{
1040
0.0
1040
1.0
1000

1040
0.0
1002
{
1002
}
1040
0.0
1002
{
1002
}
1040
0.0
1002
}
1002
}
1040
0.0
1002
{
1002
}
1010
0.0
1020
0.0
1030
0.0
1010
0.0
1020
0.0
1030
0.0
1010
0.0
1020
0.0
1030
0.0
1070
     0
1002
}
1002
{
1002
{
1040
0.0
1040
0.0
1002
{
1070
     0
1002
}
1002
}
1070
     0
1040
0.0
1002
{
1002
}
1002
}
1002
{
1002
}
1002
}
1002
{
1071
        3
1070
     3
1070
     0
1002
{
1070
     2
1070
     1
1070
     0
1040
0.0
1002
}
1070
     0
1070
     2
1002
{
1002
}
1002
}
1002
{
1040
8030.0
1040
190.3000030517578
1040
0.3050000071525574
1040
228.0
1040
545.0
1040
14.0
1040
17.39999961853027
1040
0.4560000002384186
1002
}
1000
76E
1002
}
  0
ATTRIB
  5
756
330
755
100
AcDbEntity
  8
0
100
AcDbText
 10
0.0
 20
0.0
 30
0.0
 40
0.2
  1
*GLOBAL*01
100
AcDbAttribute
  2
NAME
 70
     1
280
     0
  0
ATTRIB
  5
757
330
755
100
AcDbEntity
  8
0
100
AcDbText
 10
0.0
 20
0.0
 30
0.0
 40
0.2
  1

100
AcDbAttribute
  2
ACADCOLOR
 70
     1
280
     0
  0
ATTRIB
  5
758
330
755
100
AcDbEntity
  8
0
100
AcDbText
 10
0.0
 20
0.0
 30
0.0
 40
0.2
  1
1.0000,1.0000,1.0000
100
AcDbAttribute
  2
COLOR
 70
     1
280
     0
  0
ATTRIB
  5
759
330
755
100
AcDbEntity
  8
0
100
AcDbText
 10
0.0
 20
0.0
 30
0.0
 40
0.2
  1
1.0,1.0,1.0
100
AcDbAttribute
  2
OPACITY
 70
     1
280
     0
  0
ATTRIB
  5
75A
330
755
100
AcDbEntity
  8
0
100
AcDbText
 10
0.0
 20
0.0
 30
0.0
 40
0.2
  1
("nullsurf" "")
100
AcDbAttribute
  2
SURFACE
 70
     1
280
     0
  0
ATTRIB
  5
75B
330
755
100
AcDbEntity
  8
0
100
AcDbText
 10
0.0
 20
0.0
 30
0.0
 40
0.2
  1
(11 "Ka" "0.7")(11 "Kd" "1")(11 "Ks" "0.2")(11 "roughness" "0.5")
100
AcDbAttribute
  2
SURF1
 70
     1
280
     0
  0
ATTRIB
  5
75C
330
755
100
AcDbEntity
  8
0
100
AcDbText
 10
0.0
 20
0.0
 30
0.0
 40
0.2
  1

100
AcDbAttribute
  2
SURF2
 70
     1
280
     0
  0
ATTRIB
  5
75D
330
755
100
AcDbEntity
  8
0
100
AcDbText
 10
0.0
 20
0.0
 30
0.0
 40
0.2
  1

100
AcDbAttribute
  2
SURF3
 70
     1
280
     0
  0
ATTRIB
  5
75E
330
755
100
AcDbEntity
  8
0
100
AcDbText
 10
0.0
 20
0.0
 30
0.0
 40
0.2
  1

100
AcDbAttribute
  2
SURF4
 70
     1
280
     0
  0
ATTRIB
  5
75F
330
755
100
AcDbEntity
  8
0
100
AcDbText
 10
0.0
 20
0.0
 30
0.0
 40
0.2
  1
-1.0
100
AcDbAttribute
  2
SHADINGRATE
 70
     1
280
     0
  0
ATTRIB
  5
760
330
755
100
AcDbEntity
  8
0
100
AcDbText
 10
0.0
 20
0.0
 30
0.0
 40
0.2
  1
("nulldisp" "")
100
AcDbAttribute
  2
DISPLACEMENT
 70
     1
280
     0
  0
ATTRIB
  5
761
330
755
100
AcDbEntity
  8
0
100
AcDbText
 10
0.0
 20
0.0
 30
0.0
 40
0.2
  1

100
AcDbAttribute
  2
DISP1
 70
     1
280
     0
  0
ATTRIB
  5
762
330
755
100
AcDbEntity
  8
0
100
AcDbText
 10
0.0
 20
0.0
 30
0.0
 40
0.2
  1

100
AcDbAttribute
  2
DISP2
 70
     1
280
     0
  0
ATTRIB
  5
763
330
755
100
AcDbEntity
  8
0
100
AcDbText
 10
0.0
 20
0.0
 30
0.0
 40
0.2
  1

100
AcDbAttribute
  2
DISP3
 70
     1
280
     0
  0
ATTRIB
  5
764
330
755
100
AcDbEntity
  8
0
100
AcDbText
 10
0.0
 20
0.0
 30
0.0
 40
0.2
  1

100
AcDbAttribute
  2
DISP4
 70
     1
280
     0
  0
ATTRIB
  5
765
330
755
100
AcDbEntity
  8
0
100
AcDbText
 10
0.0
 20
0.0
 30
0.0
 40
0.2
  1
0.0
100
AcDbAttribute
  2
DBOUND
 70
     1
280
     0
  0
ATTRIB
  5
766
330
755
100
AcDbEntity
  8
0
100
AcDbText
 10
0.0
 20
0.0
 30
0.0
 40
0.2
  1
0
100
AcDbAttribute
  2
SMOOTH
 70
     1
280
     0
  0
ATTRIB
  5
767
330
755
100
AcDbEntity
  8
0
100
AcDbText
 10
0.0
 20
0.0
 30
0.0
 40
0.2
  1
("" "")
100
AcDbAttribute
  2
ATMOSHPERE
 70
     1
280
     0
  0
ATTRIB
  5
768
330
755
100
AcDbEntity
  8
0
100
AcDbText
 10
0.0
 20
0.0
 30
0.0
 40
0.2
  1

100
AcDbAttribute
  2
ATMO1
 70
     1
280
     0
  0
ATTRIB
  5
769
330
755
100
AcDbEntity
  8
0
100
AcDbText
 10
0.0
 20
0.0
 30
0.0
 40
0.2
  1

100
AcDbAttribute
  2
ATMO2
 70
     1
280
     0
  0
ATTRIB
  5
76A
330
755
100
AcDbEntity
  8
0
100
AcDbText
 10
0.0
 20
0.0
 30
0.0
 40
0.2
  1

100
AcDbAttribute
  2
ATMO3
 70
     1
280
     0
  0
ATTRIB
  5
76B
330
755
100
AcDbEntity
  8
0
100
AcDbText
 10
0.0
 20
0.0
 30
0.0
 40
0.2
  1

100
AcDbAttribute
  2
ATMO4
 70
     1
280
     0
  0
ATTRIB
  5
76C
330
755
100
AcDbEntity
  8
0
100
AcDbText
 10
0.0
 20
0.0
 30
0.0
 40
0.2
  1
0.0 0.0 1.0 0.0 0.0 1.0 1.0 1.0
100
AcDbAttribute
  2
TCCORD
 70
     1
280
     0
  0
SEQEND
  5
76D
330
755
100
AcDbEntity
  8
0
  0
ENDSEC
  0
SECTION
  2
OBJECTS
  0
DICTIONARY
  5
C
330
0
100
AcDbDictionary
281
     1
  3
ACAD_BACKGROUND
350
372
  3
ACAD_COLOR
350
73
  3
ACAD_GROUP
350
D
  3
ACAD_LAYOUT
350
1A
  3
ACAD_MATERIAL
350
72
  3
ACAD_MLEADERSTYLE
350
D7
  3
ACAD_MLINESTYLE
350
17
  3
ACAD_PERSUBENTMGR
350
35F
  3
ACAD_PLOTSETTINGS
350
19
  3
ACAD_PLOTSTYLENAME
350
E
  3
ACAD_SCALELIST
350
B6
  3
ACAD_TABLESTYLE
350
86
  3
ACAD_VISUALSTYLE
350
99
  3
ACDB_RECOMPOSE_DATA
350
FF
  3
AcDbVariableDictionary
350
66
  3
AVE_ACITABLE
350
76F
  0
DICTIONARY
  5
E6
330
10
100
AcDbDictionary
280
     1
281
     1
  3
ADSK_XREC_LAYER_RECONCILED
360
1F3
  0
DICTIONARY
  5
150
330
1F
100
AcDbDictionary
280
     1
281
     1
  3
ACAD_SORTENTS
360
151
  0
DICTIONARY
  5
372
102
{ACAD_REACTORS
330
C
102
}
330
C
100
AcDbDictionary
281
     1
  0
DICTIONARY
  5
73
102
{ACAD_REACTORS
330
C
102
}
330
C
100
AcDbDictionary
281
     1
  0
DICTIONARY
  5
D
102
{ACAD_REACTORS
330
C
102
}
330
C
100
AcDbDictionary
281
     1
  0
DICTIONARY
  5
1A
102
{ACAD_REACTORS
330
C
102
}
330
C
100
AcDbDictionary
281
     1
  3
Layout1
350
59
  3
Layout2
350
5E
  3
Model
350
22
  0
DICTIONARY
  5
72
102
{ACAD_REACTORS
330
C
102
}
330
C
100
AcDbDictionary
281
     1
  3
_GLOBAL_01
350
76E
  3
ByBlock
350
97
  3
ByLayer
350
96
  3
Global
350
98
  0
DICTIONARY
  5
D7
102
{ACAD_REACTORS
330
C
102
}
330
C
100
AcDbDictionary
281
     1
  3
Annotative
350
E5
  3
Standard
350
D8
  0
DICTIONARY
  5
17
102
{ACAD_REACTORS
330
C
102
}
330
C
100
AcDbDictionary
281
     1
  3
Standard
350
18
  0
ACDBPERSSUBENTMANAGER
  5
35F
102
{ACAD_REACTORS
330
C
102
}
330
C
100
AcDbPersSubentManager
 90
        2
 90
        0
 90
        2
 90
       24
 90
        0
 90
        0
  0
DICTIONARY
  5
19
102
{ACAD_REACTORS
330
C
102
}
330
C
100
AcDbDictionary
281
     1
  0
ACDBDICTIONARYWDFLT
  5
E
102
{ACAD_REACTORS
330
C
102
}
330
C
100
AcDbDictionary
281
     1
  3
Normal
350
F
100
AcDbDictionaryWithDefault
340
F
  0
DICTIONARY
  5
B6
102
{ACAD_REACTORS
330
C
102
}
330
C
100
AcDbDictionary
281
     1
  3
A0
350
B7
  3
A1
350
124
  3
A2
350
125
  3
A3
350
126
  3
A4
350
127
  3
A5
350
128
  3
A6
350
129
  3
A7
350
12A
  3
A8
350
12B
  3
A9
350
12C
  3
B0
350
12D
  3
B1
350
12E
  3
B2
350
12F
  3
B3
350
130
  3
B4
350
131
  3
B5
350
132
  3
B6
350
133
  3
B7
350
134
  3
B8
350
135
  3
B9
350
136
  3
C0
350
137
  3
C1
350
138
  3
C2
350
139
  3
C3
350
13A
  3
C4
350
13B
  3
C5
350
13C
  3
C6
350
13D
  3
C7
350
13E
  3
C8
350
13F
  3
C9
350
140
  3
D0
350
141
  3
D1
350
142
  3
D2
350
143
  0
DICTIONARY
  5
86
102
{ACAD_REACTORS
330
C
102
}
330
C
100
AcDbDictionary
281
     1
  3
Standard
350
87
  0
DICTIONARY
  5
99
102
{ACAD_REACTORS
330
C
102
}
330
C
100
AcDbDictionary
281
     1
  3
2dWireframe
350
9F
  3
3D Hidden
350
A1
  3
3dWireframe
350
A0
  3
Basic
350
9E
  3
Brighten
350
A5
  3
ColorChange
350
A9
  3
Conceptual
350
A2
  3
Dim
350
A4
  3
Facepattern
350
A8
  3
Flat
350
9A
  3
FlatWithEdges
350
9B
  3
Gouraud
350
9C
  3
GouraudWithEdges
350
9D
  3
Linepattern
350
A7
  3
Realistic
350
A3
  3
Thicken
350
A6
  0
XRECORD
  5
FF
102
{ACAD_REACTORS
330
C
102
}
330
C
100
AcDbXrecord
280
     1
 90
        1
330
87
  0
DICTIONARY
  5
66
102
{ACAD_REACTORS
330
C
102
}
330
C
100
AcDbDictionary
281
     1
  3
CANNOSCALE
350
F0
  3
CMLEADERSTYLE
350
EF
  3
CTABLESTYLE
350
89
  3
DIMASSOC
350
67
  3
HIDETEXT
350
6B
  0
DICTIONARY
  5
76F
102
{ACAD_REACTORS
330
C
102
}
330
C
100
AcDbDictionary
281
     1
  0
XRECORD
  5
1F3
102
{ACAD_REACTORS
330
E6
102
}
330
E6
100
AcDbXrecord
280
     1
290
     1
  0
SORTENTSTABLE
  5
151
102
{ACAD_REACTORS
330
150
102
}
330
150
100
AcDbSortentsTable
330
1F
  0
LAYOUT
  5
59
102
{ACAD_REACTORS
330
1A
102
}
330
1A
100
AcDbPlotSettings
  1

  2
None
  4

  6

 40
0.0
 41
0.0
 42
0.0
 43
0.0
 44
0.0
 45
0.0
 46
0.0
 47
0.0
 48
0.0
 49
0.0
140
0.0
141
0.0
142
1.0
143
1.0
 70
   688
 72
     0
 73
     0
 74
     5
  7

 75
    16
147
1.0
 76
     0
 77
     2
 78
   300
148
0.0
149
0.0
100
AcDbLayout
  1
Layout1
 70
     1
 71
     1
 10
0.0
 20
0.0
 11
12.0
 21
9.0
 12
0.0
 22
0.0
 32
0.0
 14
0.0
 24
0.0
 34
0.0
 15
0.0
 25
0.0
 35
0.0
146
0.0
 13
0.0
 23
0.0
 33
0.0
 16
1.0
 26
0.0
 36
0.0
 17
0.0
 27
1.0
 37
0.0
 76
     0
330
58
  0
LAYOUT
  5
5E
102
{ACAD_REACTORS
330
1A
102
}
330
1A
100
AcDbPlotSettings
  1

  2
None
  4

  6

 40
0.0
 41
0.0
 42
0.0
 43
0.0
 44
0.0
 45
0.0
 46
0.0
 47
0.0
 48
0.0
 49
0.0
140
0.0
141
0.0
142
1.0
143
1.0
 70
   688
 72
     0
 73
     0
 74
     5
  7

 75
    16
147
1.0
 76
     0
 77
     2
 78
   300
148
0.0
149
0.0
100
AcDbLayout
  1
Layout2
 70
     1
 71
     2
 10
0.0
 20
0.0
 11
12.0
 21
9.0
 12
0.0
 22
0.0
 32
0.0
 14
0.0
 24
0.0
 34
0.0
 15
0.0
 25
0.0
 35
0.0
146
0.0
 13
0.0
 23
0.0
 33
0.0
 16
1.0
 26
0.0
 36
0.0
 17
0.0
 27
1.0
 37
0.0
 76
     0
330
5D
  0
LAYOUT
  5
22
102
{ACAD_REACTORS
330
1A
102
}
330
1A
100
AcDbPlotSettings
  1

  2
none_device
  4
ANSI_A_(8.50_x_11.00_Inches)
  6

 40
6.349999904632567
 41
19.04999923706055
 42
6.350006103515625
 43
19.04998779296875
 44
215.8999938964844
 45
279.3999938964844
 46
0.0
 47
0.0
 48
0.0
 49
0.0
140
0.0
141
0.0
142
1.0
143
2.584895464708373
 70
 11952
 72
     0
 73
     1
 74
     0
  7

 75
     0
147
0.3868628397755418
 76
     0
 77
     2
 78
   300
148
0.0
149
0.0
100
AcDbLayout
  1
Model
 70
     1
 71
     0
 10
0.0
 20
0.0
 11
12.0
 21
9.0
 12
0.0
 22
0.0
 32
0.0
 14
0.0
 24
0.0
 34
0.0
 15
0.0
 25
0.0
 35
0.0
146
0.0
 13
0.0
 23
0.0
 33
0.0
 16
1.0
 26
0.0
 36
0.0
 17
0.0
 27
1.0
 37
0.0
 76
     0
330
1F
331
94
  0
MATERIAL
  5
76E
102
{ACAD_XDICTIONARY
360
770
102
}
102
{ACAD_REACTORS
330
72
102
}
330
72
100
AcDbMaterial
  1
_GLOBAL_01
 70
     1
 40
0.6999999880790711
 90
-1033081748
 71
     1
 91
-1023410177
 72
     0
 76
     1
 45
0.2000000029802322
 92
-1023673349
 77
     0
171
     0
175
     0
179
     0
282
     1
  0
MATERIAL
  5
97
102
{ACAD_REACTORS
330
72
102
}
330
72
100
AcDbMaterial
  1
ByBlock
 94
       63
  0
MATERIAL
  5
96
102
{ACAD_REACTORS
330
72
102
}
330
72
100
AcDbMaterial
  1
ByLayer
 94
       63
  0
MATERIAL
  5
98
102
{ACAD_XDICTIONARY
360
110
102
}
102
{ACAD_REACTORS
330
72
102
}
330
72
100
AcDbMaterial
  1
Global
 43
0.0208000000566244
 43
0.0
 43
0.0
 43
0.0
 43
0.0
 43
0.0208000000566244
 43
0.0
 43
0.0
 43
0.0
 43
0.0
 43
1.0
 43
0.0
 43
0.0
 43
0.0
 43
0.0
 43
1.0
 49
0.0208000000566244
 49
0.0
 49
0.0
 49
0.0
 49
0.0
 49
0.0208000000566244
 49
0.0
 49
0.0
 49
0.0
 49
0.0
 49
1.0
 49
0.0
 49
0.0
 49
0.0
 49
0.0
 49
1.0
142
0.0208000000566244
142
0.0
142
0.0
142
0.0
142
0.0
142
0.0208000000566244
142
0.0
142
0.0
142
0.0
142
0.0
142
1.0
142
0.0
142
0.0
142
0.0
142
0.0
142
1.0
144
0.0208000000566244
144
0.0
144
0.0
144
0.0
144
0.0
144
0.0208000000566244
144
0.0
144
0.0
144
0.0
144
0.0
144
1.0
144
0.0
144
0.0
144
0.0
144
0.0
144
1.0
 94
       63
1001
ACAD
1070
    -1
1070
     3
1070
     0
1000

1071
        0
1070
     0
  0
MLEADERSTYLE
  5
E5
102
{ACAD_REACTORS
330
D7
102
}
330
D7
100
AcDbMLeaderStyle
170
     2
171
     1
172
     0
 90
        2
 40
0.0
 41
0.0
173
     1
 91
-1056964608
340
14
 92
       -2
290
     1
 42
0.09
291
     1
 43
0.36
  3
Standard
 44
0.18
300

342
11
174
     1
178
     1
175
     1
176
     0
 93
-1056964608
 45
0.18
292
     0
297
     0
 46
0.18
 94
-1056964608
 47
1.0
 49
1.0
140
1.0
293
     1
141
0.0
294
     1
177
     0
142
1.0
295
     0
296
     1
143
0.125
1001
ACAD_MLEADERVER
1070
     2
  0
MLEADERSTYLE
  5
D8
102
{ACAD_REACTORS
330
D7
102
}
330
D7
100
AcDbMLeaderStyle
170
     2
171
     1
172
     0
 90
        2
 40
0.0
 41
0.0
173
     1
 91
-1056964608
340
14
 92
       -2
290
     1
 42
0.09
291
     1
 43
0.36
  3
Standard
 44
0.18
300

342
11
174
     1
178
     1
175
     1
176
     0
 93
-1056964608
 45
0.18
292
     0
297
     0
 46
0.18
 94
-1056964608
 47
1.0
 49
1.0
140
1.0
293
     1
141
0.0
294
     1
177
     0
142
1.0
295
     0
296
     0
143
0.125
1001
ACAD_MLEADERVER
1070
     2
  0
MLINESTYLE
  5
18
102
{ACAD_REACTORS
330
17
102
}
330
17
100
AcDbMlineStyle
  2
STANDARD
 70
     0
  3

 62
   256
 51
90.0
 52
90.0
 71
     2
 49
0.5
 62
   256
  6
BYLAYER
 49
-0.5
 62
   256
  6
BYLAYER
  0
ACDBPLACEHOLDER
  5
F
102
{ACAD_REACTORS
330
E
102
}
330
E
  0
SCALE
  5
B7
102
{ACAD_REACTORS
330
B6
102
}
330
B6
100
AcDbScale
 70
     0
300
1:1
140
1.0
141
1.0
290
     1
  0
SCALE
  5
124
102
{ACAD_REACTORS
330
B6
102
}
330
B6
100
AcDbScale
 70
     0
300
1:2
140
1.0
141
2.0
290
     0
  0
SCALE
  5
125
102
{ACAD_REACTORS
330
B6
102
}
330
B6
100
AcDbScale
 70
     0
300
1:4
140
1.0
141
4.0
290
     0
  0
SCALE
  5
126
102
{ACAD_REACTORS
330
B6
102
}
330
B6
100
AcDbScale
 70
     0
300
1:5
140
1.0
141
5.0
290
     0
  0
SCALE
  5
127
102
{ACAD_REACTORS
330
B6
102
}
330
B6
100
AcDbScale
 70
     0
300
1:8
140
1.0
141
8.0
290
     0
  0
SCALE
  5
128
102
{ACAD_REACTORS
330
B6
102
}
330
B6
100
AcDbScale
 70
     0
300
1:10
140
1.0
141
10.0
290
     0
  0
SCALE
  5
129
102
{ACAD_REACTORS
330
B6
102
}
330
B6
100
AcDbScale
 70
     0
300
1:16
140
1.0
141
16.0
290
     0
  0
SCALE
  5
12A
102
{ACAD_REACTORS
330
B6
102
}
330
B6
100
AcDbScale
 70
     0
300
1:20
140
1.0
141
20.0
290
     0
  0
SCALE
  5
12B
102
{ACAD_REACTORS
330
B6
102
}
330
B6
100
AcDbScale
 70
     0
300
1:30
140
1.0
141
30.0
290
     0
  0
SCALE
  5
12C
102
{ACAD_REACTORS
330
B6
102
}
330
B6
100
AcDbScale
 70
     0
300
1:40
140
1.0
141
40.0
290
     0
  0
SCALE
  5
12D
102
{ACAD_REACTORS
330
B6
102
}
330
B6
100
AcDbScale
 70
     0
300
1:50
140
1.0
141
50.0
290
     0
  0
SCALE
  5
12E
102
{ACAD_REACTORS
330
B6
102
}
330
B6
100
AcDbScale
 70
     0
300
1:100
140
1.0
141
100.0
290
     0
  0
SCALE
  5
12F
102
{ACAD_REACTORS
330
B6
102
}
330
B6
100
AcDbScale
 70
     0
300
2:1
140
2.0
141
1.0
290
     0
  0
SCALE
  5
130
102
{ACAD_REACTORS
330
B6
102
}
330
B6
100
AcDbScale
 70
     0
300
4:1
140
4.0
141
1.0
290
     0
  0
SCALE
  5
131
102
{ACAD_REACTORS
330
B6
102
}
330
B6
100
AcDbScale
 70
     0
300
8:1
140
8.0
141
1.0
290
     0
  0
SCALE
  5
132
102
{ACAD_REACTORS
330
B6
102
}
330
B6
100
AcDbScale
 70
     0
300
10:1
140
10.0
141
1.0
290
     0
  0
SCALE
  5
133
102
{ACAD_REACTORS
330
B6
102
}
330
B6
100
AcDbScale
 70
     0
300
100:1
140
100.0
141
1.0
290
     0
  0
SCALE
  5
134
102
{ACAD_REACTORS
330
B6
102
}
330
B6
100
AcDbScale
 70
     0
300
1/128" = 1'-0"
140
0.0078125
141
12.0
290
     0
  0
SCALE
  5
135
102
{ACAD_REACTORS
330
B6
102
}
330
B6
100
AcDbScale
 70
     0
300
1/64" = 1'-0"
140
0.015625
141
12.0
290
     0
  0
SCALE
  5
136
102
{ACAD_REACTORS
330
B6
102
}
330
B6
100
AcDbScale
 70
     0
300
1/32" = 1'-0"
140
0.03125
141
12.0
290
     0
  0
SCALE
  5
137
102
{ACAD_REACTORS
330
B6
102
}
330
B6
100
AcDbScale
 70
     0
300
1/16" = 1'-0"
140
0.0625
141
12.0
290
     0
  0
SCALE
  5
138
102
{ACAD_REACTORS
330
B6
102
}
330
B6
100
AcDbScale
 70
     0
300
3/32" = 1'-0"
140
0.09375
141
12.0
290
     0
  0
SCALE
  5
139
102
{ACAD_REACTORS
330
B6
102
}
330
B6
100
AcDbScale
 70
     0
300
1/8" = 1'-0"
140
0.125
141
12.0
290
     0
  0
SCALE
  5
13A
102
{ACAD_REACTORS
330
B6
102
}
330
B6
100
AcDbScale
 70
     0
300
3/16" = 1'-0"
140
0.1875
141
12.0
290
     0
  0
SCALE
  5
13B
102
{ACAD_REACTORS
330
B6
102
}
330
B6
100
AcDbScale
 70
     0
300
1/4" = 1'-0"
140
0.25
141
12.0
290
     0
  0
SCALE
  5
13C
102
{ACAD_REACTORS
330
B6
102
}
330
B6
100
AcDbScale
 70
     0
300
3/8" = 1'-0"
140
0.375
141
12.0
290
     0
  0
SCALE
  5
13D
102
{ACAD_REACTORS
330
B6
102
}
330
B6
100
AcDbScale
 70
     0
300
1/2" = 1'-0"
140
0.5
141
12.0
290
     0
  0
SCALE
  5
13E
102
{ACAD_REACTORS
330
B6
102
}
330
B6
100
AcDbScale
 70
     0
300
3/4" = 1'-0"
140
0.75
141
12.0
290
     0
  0
SCALE
  5
13F
102
{ACAD_REACTORS
330
B6
102
}
330
B6
100
AcDbScale
 70
     0
300
1" = 1'-0"
140
1.0
141
12.0
290
     0
  0
SCALE
  5
140
102
{ACAD_REACTORS
330
B6
102
}
330
B6
100
AcDbScale
 70
     0
300
1-1/2" = 1'-0"
140
1.5
141
12.0
290
     0
  0
SCALE
  5
141
102
{ACAD_REACTORS
330
B6
102
}
330
B6
100
AcDbScale
 70
     0
300
3" = 1'-0"
140
3.0
141
12.0
290
     0
  0
SCALE
  5
142
102
{ACAD_REACTORS
330
B6
102
}
330
B6
100
AcDbScale
 70
     0
300
6" = 1'-0"
140
6.0
141
12.0
290
     0
  0
SCALE
  5
143
102
{ACAD_REACTORS
330
B6
102
}
330
B6
100
AcDbScale
 70
     0
300
1'-0" = 1'-0"
140
12.0
141
12.0
290
     0
  0
TABLESTYLE
  5
87
102
{ACAD_XDICTIONARY
360
104
102
}
102
{ACAD_REACTORS
330
86
102
}
330
86
100
AcDbTableStyle
  3
Standard
 70
     0
 71
     0
 40
0.06
 41
0.06
280
     0
281
     0
  7
Standard
140
0.18
170
     2
 62
     0
 63
     7
283
     0
 90
      512
 91
        0
  1

274
    -2
284
     1
 64
     0
275
    -2
285
     1
 65
     0
276
    -2
286
     1
 66
     0
277
    -2
287
     1
 67
     0
278
    -2
288
     1
 68
     0
279
    -2
289
     1
 69
     0
  7
Standard
140
0.25
170
     5
 62
     0
 63
     7
283
     0
 90
      512
 91
        0
  1

274
    -2
284
     1
 64
     0
275
    -2
285
     1
 65
     0
276
    -2
286
     1
 66
     0
277
    -2
287
     1
 67
     0
278
    -2
288
     1
 68
     0
279
    -2
289
     1
 69
     0
  7
Standard
140
0.18
170
     5
 62
     0
 63
     7
283
     0
 90
      512
 91
        0
  1

274
    -2
284
     1
 64
     0
275
    -2
285
     1
 65
     0
276
    -2
286
     1
 66
     0
277
    -2
287
     1
 67
     0
278
    -2
288
     1
 68
     0
279
    -2
289
     1
 69
     0
  0
VISUALSTYLE
  5
9F
102
{ACAD_REACTORS
330
99
102
}
330
99
100
AcDbVisualStyle
  2
2dWireframe
 70
     4
 71
     0
 72
     2
 73
     1
 90
        0
 40
-0.6
 41
-30.0
 62
     5
 63
     7
421
 16777215
 74
     1
 91
        4
 64
     7
 65
   257
 75
     1
175
     1
 42
1.0
 92
        0
 66
   257
 43
1.0
 76
     1
 77
     6
 78
     2
 67
     7
 79
     5
170
     0
171
     0
290
     0
174
     0
 93
        1
 44
0.0
173
     0
291
     0
 45
0.0
  0
VISUALSTYLE
  5
A1
102
{ACAD_REACTORS
330
99
102
}
330
99
100
AcDbVisualStyle
  2
3D Hidden
 70
     6
 71
     1
 72
     2
 73
     2
 90
        0
 40
-0.6
 41
-30.0
 62
     5
 63
     7
421
 16777215
 74
     2
 91
        2
 64
     7
 65
   257
 75
     2
175
     1
 42
40.0
 92
        0
 66
   257
 43
1.0
 76
     1
 77
     6
 78
     2
 67
     7
 79
     3
170
     0
171
     0
290
     0
174
     0
 93
        1
 44
0.0
173
     0
291
     0
 45
0.0
  0
VISUALSTYLE
  5
A0
102
{ACAD_REACTORS
330
99
102
}
330
99
100
AcDbVisualStyle
  2
3dWireframe
 70
     5
 71
     0
 72
     2
 73
     1
 90
        0
 40
-0.6
 41
-30.0
 62
     5
 63
     7
421
 16777215
 74
     1
 91
        4
 64
     7
 65
   257
 75
     1
175
     1
 42
1.0
 92
        0
 66
   257
 43
1.0
 76
     1
 77
     6
 78
     2
 67
     7
 79
     5
170
     0
171
     0
290
     0
174
     0
 93
        1
 44
0.0
173
     0
291
     0
 45
0.0
  0
VISUALSTYLE
  5
9E
102
{ACAD_REACTORS
330
99
102
}
330
99
100
AcDbVisualStyle
  2
Basic
 70
     7
 71
     1
 72
     0
 73
     1
 90
        0
 40
-0.6
 41
-30.0
 62
     5
 63
     7
421
 16777215
 74
     0
 91
        4
 64
     7
 65
   257
 75
     1
175
     1
 42
1.0
 92
        8
 66
     7
 43
1.0
 76
     1
 77
     6
 78
     2
 67
     7
 79
     5
170
     0
171
     0
290
     0
174
     0
 93
        1
 44
0.0
173
     0
291
     1
 45
0.0
  0
VISUALSTYLE
  5
A5
102
{ACAD_REACTORS
330
99
102
}
330
99
100
AcDbVisualStyle
  2
Brighten
 70
    12
 71
     2
 72
     2
 73
     1
 90
        0
 40
-0.6
 41
-30.0
 62
     5
 63
     7
421
 16777215
 74
     1
 91
        4
 64
     7
 65
   257
 75
     1
175
     1
 42
1.0
 92
        8
 66
     7
 43
1.0
 76
     1
 77
     6
 78
     2
 67
     7
 79
     5
170
     0
171
     0
290
     0
174
     0
 93
        1
 44
50.0
173
     0
291
     1
 45
0.0
  0
VISUALSTYLE
  5
A9
102
{ACAD_REACTORS
330
99
102
}
330
99
100
AcDbVisualStyle
  2
ColorChange
 70
    16
 71
     2
 72
     2
 73
     3
 90
        0
 40
-0.6
 41
-30.0
 62
     5
 63
     8
421
  8421504
 74
     1
 91
        4
 64
     7
 65
   257
 75
     1
175
     1
 42
1.0
 92
        8
 66
     8
424
  8421504
 43
1.0
 76
     1
 77
     6
 78
     2
 67
     7
 79
     5
170
     0
171
     0
290
     0
174
     0
 93
        1
 44
0.0
173
     0
291
     1
 45
0.0
  0
VISUALSTYLE
  5
A2
102
{ACAD_REACTORS
330
99
102
}
330
99
100
AcDbVisualStyle
  2
Conceptual
 70
     9
 71
     3
 72
     2
 73
     1
 90
        0
 40
-0.6
 41
-30.0
 62
     5
 63
     7
421
 16777215
 74
     2
 91
        2
 64
     7
 65
   257
 75
     1
175
     1
 42
40.0
 92
        8
 66
     7
 43
1.0
 76
     1
 77
     6
 78
     2
 67
     7
 79
     3
170
     0
171
     0
290
     0
174
     0
 93
        1
 44
0.0
173
     0
291
     0
 45
0.0
  0
VISUALSTYLE
  5
A4
102
{ACAD_REACTORS
330
99
102
}
330
99
100
AcDbVisualStyle
  2
Dim
 70
    11
 71
     2
 72
     2
 73
     1
 90
        0
 40
-0.6
 41
-30.0
 62
     5
 63
     7
421
 16777215
 74
     1
 91
        4
 64
     7
 65
   257
 75
     1
175
     1
 42
1.0
 92
        8
 66
     7
 43
1.0
 76
     1
 77
     6
 78
     2
 67
     7
 79
     5
170
     0
171
     0
290
     0
174
     0
 93
        1
 44
-50.0
173
     0
291
     1
 45
0.0
  0
VISUALSTYLE
  5
A8
102
{ACAD_REACTORS
330
99
102
}
330
99
100
AcDbVisualStyle
  2
Facepattern
 70
    15
 71
     2
 72
     2
 73
     1
 90
        0
 40
-0.6
 41
-30.0
 62
     5
 63
     7
421
 16777215
 74
     1
 91
        4
 64
     7
 65
   257
 75
     1
175
     1
 42
1.0
 92
        8
 66
     7
 43
1.0
 76
     1
 77
     6
 78
     2
 67
     7
 79
     5
170
     0
171
     0
290
     0
174
     0
 93
        1
 44
0.0
173
     0
291
     1
 45
0.0
  0
VISUALSTYLE
  5
9A
102
{ACAD_REACTORS
330
99
102
}
330
99
100
AcDbVisualStyle
  2
Flat
 70
     0
 71
     2
 72
     1
 73
     1
 90
        2
 40
-0.6
 41
30.0
 62
     5
 63
     7
421
 16777215
 74
     0
 91
        4
 64
     7
 65
   257
 75
     1
175
     1
 42
1.0
 92
        8
 66
     7
 43
1.0
 76
     1
 77
     6
 78
     2
 67
     7
 79
     5
170
     0
171
     0
290
     0
174
     0
 93
        1
 44
0.0
173
     0
291
     1
 45
0.0
  0
VISUALSTYLE
  5
9B
102
{ACAD_REACTORS
330
99
102
}
330
99
100
AcDbVisualStyle
  2
FlatWithEdges
 70
     1
 71
     2
 72
     1
 73
     1
 90
        2
 40
-0.6
 41
30.0
 62
     5
 63
     7
421
 16777215
 74
     1
 91
        4
 64
     7
 65
   257
 75
     1
175
     1
 42
1.0
 92
        0
 66
   257
 43
1.0
 76
     1
 77
     6
 78
     2
 67
     7
 79
     5
170
     0
171
     0
290
     0
174
     0
 93
        1
 44
0.0
173
     0
291
     1
 45
0.0
  0
VISUALSTYLE
  5
9C
102
{ACAD_REACTORS
330
99
102
}
330
99
100
AcDbVisualStyle
  2
Gouraud
 70
     2
 71
     2
 72
     2
 73
     1
 90
        2
 40
-0.6
 41
30.0
 62
     5
 63
     7
421
 16777215
 74
     0
 91
        4
 64
     7
 65
   257
 75
     1
175
     1
 42
1.0
 92
        0
 66
     7
 43
1.0
 76
     1
 77
     6
 78
     2
 67
     7
 79
     5
170
     0
171
     0
290
     0
174
     0
 93
        1
 44
0.0
173
     0
291
     1
 45
0.0
  0
VISUALSTYLE
  5
9D
102
{ACAD_REACTORS
330
99
102
}
330
99
100
AcDbVisualStyle
  2
GouraudWithEdges
 70
     3
 71
     2
 72
     2
 73
     1
 90
        2
 40
-0.6
 41
30.0
 62
     5
 63
     7
421
 16777215
 74
     1
 91
        4
 64
     7
 65
   257
 75
     1
175
     1
 42
1.0
 92
        0
 66
   257
 43
1.0
 76
     1
 77
     6
 78
     2
 67
     7
 79
     5
170
     0
171
     0
290
     0
174
     0
 93
        1
 44
0.0
173
     0
291
     1
 45
0.0
  0
VISUALSTYLE
  5
A7
102
{ACAD_REACTORS
330
99
102
}
330
99
100
AcDbVisualStyle
  2
Linepattern
 70
    14
 71
     2
 72
     2
 73
     1
 90
        0
 40
-0.6
 41
-30.0
 62
     5
 63
     7
421
 16777215
 74
     1
 91
        4
 64
     7
 65
   257
 75
     7
175
     7
 42
1.0
 92
        8
 66
     7
 43
1.0
 76
     1
 77
     6
 78
     2
 67
     7
 79
     5
170
     0
171
     0
290
     0
174
     0
 93
        1
 44
0.0
173
     0
291
     1
 45
0.0
  0
VISUALSTYLE
  5
A3
102
{ACAD_REACTORS
330
99
102
}
330
99
100
AcDbVisualStyle
  2
Realistic
 70
     8
 71
     2
 72
     2
 73
     1
 90
        0
 40
-0.6
 41
-30.0
 62
     5
 63
     7
421
 16777215
 74
     1
 91
        0
 64
     7
 65
   257
 75
     1
175
     1
 42
1.0
 92
        8
 66
     8
424
  7895160
 43
1.0
 76
     1
 77
     6
 78
     2
 67
     7
 79
     5
170
     0
171
     0
290
     0
174
     0
 93
       13
 44
0.0
173
     0
291
     0
 45
0.0
  0
VISUALSTYLE
  5
A6
102
{ACAD_REACTORS
330
99
102
}
330
99
100
AcDbVisualStyle
  2
Thicken
 70
    13
 71
     2
 72
     2
 73
     1
 90
        0
 40
-0.6
 41
-30.0
 62
     5
 63
     7
421
 16777215
 74
     1
 91
        4
 64
     7
 65
   257
 75
     1
175
     1
 42
1.0
 92
       12
 66
     7
 43
1.0
 76
     1
 77
     6
 78
     2
 67
     7
 79
     5
170
     0
171
     0
290
     0
174
     0
 93
        1
 44
0.0
173
     0
291
     1
 45
0.0
  0
DICTIONARYVAR
  5
F0
102
{ACAD_REACTORS
330
66
102
}
330
66
100
DictionaryVariables
280
     0
  1
1:1
  0
DICTIONARYVAR
  5
EF
102
{ACAD_REACTORS
330
66
102
}
330
66
100
DictionaryVariables
280
     0
  1
STANDARD
  0
DICTIONARYVAR
  5
89
102
{ACAD_REACTORS
330
66
102
}
330
66
100
DictionaryVariables
280
     0
  1
STANDARD
  0
DICTIONARYVAR
  5
67
102
{ACAD_REACTORS
330
66
102
}
330
66
100
DictionaryVariables
280
     0
  1
2
  0
DICTIONARYVAR
  5
6B
102
{ACAD_REACTORS
330
66
102
}
330
66
100
DictionaryVariables
280
     0
  1
1
  0
DICTIONARY
  5
770
330
76E
100
AcDbDictionary
280
     1
281
     1
  3
BUMPTILE
360
775
  3
DIFFUSETILE
360
771
  3
OPACITYTILE
360
774
  3
REFLECTIONTILE
360
773
  3
REFRACTIONTILE
360
776
  3
SPECULARTILE
360
772
  0
DICTIONARY
  5
110
330
98
100
AcDbDictionary
280
     1
281
     1
  3
BUMPTILE
360
112
  3
DIFFUSETILE
360
111
  3
OPACITYTILE
360
113
  3
REFLECTIONTILE
360
114
  0
DICTIONARY
  5
104
330
87
100
AcDbDictionary
280
     1
281
     1
  3
ACAD_ROUNDTRIP_2008_TABLESTYLE_CELLSTYLEMAP
360
777
  0
XRECORD
  5
775
102
{ACAD_REACTORS
330
770
102
}
330
770
100
AcDbXrecord
280
     1
270
     1
271
     1
  0
XRECORD
  5
771
102
{ACAD_REACTORS
330
770
102
}
330
770
100
AcDbXrecord
280
     1
270
     1
271
     1
  0
XRECORD
  5
774
102
{ACAD_REACTORS
330
770
102
}
330
770
100
AcDbXrecord
280
     1
270
     1
271
     1
  0
XRECORD
  5
773
102
{ACAD_REACTORS
330
770
102
}
330
770
100
AcDbXrecord
280
     1
270
     1
271
     1
  0
XRECORD
  5
776
102
{ACAD_REACTORS
330
770
102
}
330
770
100
AcDbXrecord
280
     1
270
     1
271
     1
  0
XRECORD
  5
772
102
{ACAD_REACTORS
330
770
102
}
330
770
100
AcDbXrecord
280
     1
270
     1
271
     1
  0
XRECORD
  5
112
102
{ACAD_REACTORS
330
110
102
}
330
110
100
AcDbXrecord
280
     1
270
     1
271
     1
  0
XRECORD
  5
111
102
{ACAD_REACTORS
330
110
102
}
330
110
100
AcDbXrecord
280
     1
270
     1
271
     1
  0
XRECORD
  5
113
102
{ACAD_REACTORS
330
110
102
}
330
110
100
AcDbXrecord
280
     1
270
     1
271
     1
  0
XRECORD
  5
114
102
{ACAD_REACTORS
330
110
102
}
330
110
100
AcDbXrecord
280
     1
270
     1
271
     1
  0
CELLSTYLEMAP
  5
777
102
{ACAD_REACTORS
330
104
102
}
330
104
100
AcDbCellStyleMap
 90
        3
300
CELLSTYLE
  1
TABLEFORMAT_BEGIN
 90
        5
170
     1
 91
        0
 92
    32768
 62
   257
 93
        1
300
CONTENTFORMAT
  1
CONTENTFORMAT_BEGIN
 90
        0
 91
        0
 92
      512
 93
        0
300

 40
0.0
140
1.0
 94
        5
 62
     0
340
11
144
0.25
309
CONTENTFORMAT_END
171
     1
301
MARGIN
  1
CELLMARGIN_BEGIN
 40
0.06
 40
0.06
 40
0.06
 40
0.06
 40
0.18
 40
0.18
309
CELLMARGIN_END
 94
        6
 95
        1
302
GRIDFORMAT
  1
GRIDFORMAT_BEGIN
 90
        0
 91
        1
 62
     0
 92
       -2
340
0
 93
        0
 40
0.045
309
GRIDFORMAT_END
 95
        2
302
GRIDFORMAT
  1
GRIDFORMAT_BEGIN
 90
        0
 91
        1
 62
     0
 92
       -2
340
0
 93
        0
 40
0.045
309
GRIDFORMAT_END
 95
        4
302
GRIDFORMAT
  1
GRIDFORMAT_BEGIN
 90
        0
 91
        1
 62
     0
 92
       -2
340
0
 93
        0
 40
0.045
309
GRIDFORMAT_END
 95
        8
302
GRIDFORMAT
  1
GRIDFORMAT_BEGIN
 90
        0
 91
        1
 62
     0
 92
       -2
340
0
 93
        0
 40
0.045
309
GRIDFORMAT_END
 95
       16
302
GRIDFORMAT
  1
GRIDFORMAT_BEGIN
 90
        0
 91
        1
 62
     0
 92
       -2
340
0
 93
        0
 40
0.045
309
GRIDFORMAT_END
 95
       32
302
GRIDFORMAT
  1
GRIDFORMAT_BEGIN
 90
        0
 91
        1
 62
     0
 92
       -2
340
0
 93
        0
 40
0.045
309
GRIDFORMAT_END
309
TABLEFORMAT_END
  1
CELLSTYLE_BEGIN
 90
        1
 91
        1
300
_TITLE
309
CELLSTYLE_END
300
CELLSTYLE
  1
TABLEFORMAT_BEGIN
 90
        5
170
     1
 91
        0
 92
        0
 62
   257
 93
        1
300
CONTENTFORMAT
  1
CONTENTFORMAT_BEGIN
 90
        0
 91
        0
 92
      512
 93
        0
300

 40
0.0
140
1.0
 94
        5
 62
     0
340
11
144
0.18
309
CONTENTFORMAT_END
171
     1
301
MARGIN
  1
CELLMARGIN_BEGIN
 40
0.06
 40
0.06
 40
0.06
 40
0.06
 40
0.18
 40
0.18
309
CELLMARGIN_END
 94
        6
 95
        1
302
GRIDFORMAT
  1
GRIDFORMAT_BEGIN
 90
        0
 91
        1
 62
     0
 92
       -2
340
0
 93
        0
 40
0.045
309
GRIDFORMAT_END
 95
        2
302
GRIDFORMAT
  1
GRIDFORMAT_BEGIN
 90
        0
 91
        1
 62
     0
 92
       -2
340
0
 93
        0
 40
0.045
309
GRIDFORMAT_END
 95
        4
302
GRIDFORMAT
  1
GRIDFORMAT_BEGIN
 90
        0
 91
        1
 62
     0
 92
       -2
340
0
 93
        0
 40
0.045
309
GRIDFORMAT_END
 95
        8
302
GRIDFORMAT
  1
GRIDFORMAT_BEGIN
 90
        0
 91
        1
 62
     0
 92
       -2
340
0
 93
        0
 40
0.045
309
GRIDFORMAT_END
 95
       16
302
GRIDFORMAT
  1
GRIDFORMAT_BEGIN
 90
        0
 91
        1
 62
     0
 92
       -2
340
0
 93
        0
 40
0.045
309
GRIDFORMAT_END
 95
       32
302
GRIDFORMAT
  1
GRIDFORMAT_BEGIN
 90
        0
 91
        1
 62
     0
 92
       -2
340
0
 93
        0
 40
0.045
309
GRIDFORMAT_END
309
TABLEFORMAT_END
  1
CELLSTYLE_BEGIN
 90
        2
 91
        1
300
_HEADER
309
CELLSTYLE_END
300
CELLSTYLE
  1
TABLEFORMAT_BEGIN
 90
        5
170
     1
 91
        0
 92
        0
 62
   257
 93
        1
300
CONTENTFORMAT
  1
CONTENTFORMAT_BEGIN
 90
        0
 91
        0
 92
      512
 93
        0
300

 40
0.0
140
1.0
 94
        2
 62
     0
340
11
144
0.18
309
CONTENTFORMAT_END
171
     1
301
MARGIN
  1
CELLMARGIN_BEGIN
 40
0.06
 40
0.06
 40
0.06
 40
0.06
 40
0.18
 40
0.18
309
CELLMARGIN_END
 94
        6
 95
        1
302
GRIDFORMAT
  1
GRIDFORMAT_BEGIN
 90
        0
 91
        1
 62
     0
 92
       -2
340
0
 93
        0
 40
0.045
309
GRIDFORMAT_END
 95
        2
302
GRIDFORMAT
  1
GRIDFORMAT_BEGIN
 90
        0
 91
        1
 62
     0
 92
       -2
340
0
 93
        0
 40
0.045
309
GRIDFORMAT_END
 95
        4
302
GRIDFORMAT
  1
GRIDFORMAT_BEGIN
 90
        0
 91
        1
 62
     0
 92
       -2
340
0
 93
        0
 40
0.045
309
GRIDFORMAT_END
 95
        8
302
GRIDFORMAT
  1
GRIDFORMAT_BEGIN
 90
        0
 91
        1
 62
     0
 92
       -2
340
0
 93
        0
 40
0.045
309
GRIDFORMAT_END
 95
       16
302
GRIDFORMAT
  1
GRIDFORMAT_BEGIN
 90
        0
 91
        1
 62
     0
 92
       -2
340
0
 93
        0
 40
0.045
309
GRIDFORMAT_END
 95
       32
302
GRIDFORMAT
  1
GRIDFORMAT_BEGIN
 90
        0
 91
        1
 62
     0
 92
       -2
340
0
 93
        0
 40
0.045
309
GRIDFORMAT_END
309
TABLEFORMAT_END
  1
CELLSTYLE_BEGIN
 90
        3
 91
        2
300
_DATA
309
CELLSTYLE_END
  0
ENDSEC
  0
EOF
