  0
SECTION
  2
HEADER
  9
$ACADVER
  1
AC1015
  9
$ACADMAINTVER
 70
    20
  9
$DWGCODEPAGE
  3
ANSI_1252
  9
$INSBASE
 10
0.0
 20
0.0
 30
0.0
  9
$EXTMIN
 10
0.0000000100918829
 20
-1.254612326622009
 30
-0.0000000008281646
  9
$EXTMAX
 10
12.72858905792236
 20
4.67690896987915
 30
4.5
  9
$LIMMIN
 10
0.0
 20
0.0
  9
$LIMMAX
 10
12.0
 20
9.0
  9
$ORTHOMODE
 70
     0
  9
$REGENMODE
 70
     1
  9
$FILLMODE
 70
     1
  9
$QTEXTMODE
 70
     0
  9
$MIRRTEXT
 70
     1
  9
$LTSCALE
 40
1.0
  9
$ATTMODE
 70
     1
  9
$TEXTSIZE
 40
0.2
  9
$TRACEWID
 40
0.05
  9
$TEXTSTYLE
  7
Standard
  9
$CLAYER
  8
0
  9
$CELTYPE
  6
ByLayer
  9
$CECOLOR
 62
   256
  9
$CELTSCALE
 40
1.0
  9
$DISPSILH
 70
     0
  9
$DIMSCALE
 40
3.0
  9
$DIMASZ
 40
0.18
  9
$DIMEXO
 40
0.0625
  9
$DIMDLI
 40
0.38
  9
$DIMRND
 40
0.0
  9
$DIMDLE
 40
0.0
  9
$DIMEXE
 40
0.18
  9
$DIMTP
 40
0.0
  9
$DIMTM
 40
0.0
  9
$DIMTXT
 40
0.18
  9
$DIMCEN
 40
0.09
  9
$DIMTSZ
 40
0.0
  9
$DIMTOL
 70
     0
  9
$DIMLIM
 70
     0
  9
$DIMTIH
 70
     1
  9
$DIMTOH
 70
     1
  9
$DIMSE1
 70
     0
  9
$DIMSE2
 70
     0
  9
$DIMTAD
 70
     0
  9
$DIMZIN
 70
     0
  9
$DIMBLK
  1
ArchTick
  9
$DIMASO
 70
     1
  9
$DIMSHO
 70
     1
  9
$DIMPOST
  1
"
  9
$DIMAPOST
  1

  9
$DIMALT
 70
     0
  9
$DIMALTD
 70
     2
  9
$DIMALTF
 40
25.4
  9
$DIMLFAC
 40
1.0
  9
$DIMTOFL
 70
     0
  9
$DIMTVP
 40
0.0
  9
$DIMTIX
 70
     0
  9
$DIMSOXD
 70
     0
  9
$DIMSAH
 70
     0
  9
$DIMBLK1
  1

  9
$DIMBLK2
  1

  9
$DIMSTYLE
  2
Standard
  9
$DIMCLRD
 70
     0
  9
$DIMCLRE
 70
     0
  9
$DIMCLRT
 70
     0
  9
$DIMTFAC
 40
1.0
  9
$DIMGAP
 40
0.09
  9
$DIMJUST
 70
     0
  9
$DIMSD1
 70
     0
  9
$DIMSD2
 70
     0
  9
$DIMTOLJ
 70
     1
  9
$DIMTZIN
 70
     0
  9
$DIMALTZ
 70
     0
  9
$DIMALTTZ
 70
     0
  9
$DIMUPT
 70
     0
  9
$DIMDEC
 70
     4
  9
$DIMTDEC
 70
     4
  9
$DIMALTU
 70
     2
  9
$DIMALTTD
 70
     2
  9
$DIMTXSTY
  7
Standard
  9
$DIMAUNIT
 70
     0
  9
$DIMADEC
 70
     0
  9
$DIMALTRND
 40
0.0
  9
$DIMAZIN
 70
     0
  9
$DIMDSEP
 70
    46
  9
$DIMATFIT
 70
     3
  9
$DIMFRAC
 70
     0
  9
$DIMLDRBLK
  1

  9
$DIMLUNIT
 70
     5
  9
$DIMLWD
 70
    -2
  9
$DIMLWE
 70
    -2
  9
$DIMTMOVE
 70
     0
  9
$LUNITS
 70
     2
  9
$LUPREC
 70
     4
  9
$SKETCHINC
 40
0.1
  9
$FILLETRAD
 40
0.5
  9
$AUNITS
 70
     0
  9
$AUPREC
 70
     0
  9
$MENU
  1
.
  9
$ELEVATION
 40
0.0
  9
$PELEVATION
 40
0.0
  9
$THICKNESS
 40
0.0
  9
$LIMCHECK
 70
     0
  9
$CHAMFERA
 40
0.5
  9
$CHAMFERB
 40
0.5
  9
$CHAMFERC
 40
1.0
  9
$CHAMFERD
 40
0.0
  9
$SKPOLY
 70
     0
  9
$TDCREATE
 40
2452804.636453623
  9
$TDUCREATE
 40
2452804.844786956
  9
$TDUPDATE
 40
2454459.437385648
  9
$TDUUPDATE
 40
2454459.645718982
  9
$TDINDWG
 40
0.0069472685
  9
$TDUSRTIMER
 40
0.0069469097
  9
$USRTIMER
 70
     1
  9
$ANGBASE
 50
0.0
  9
$ANGDIR
 70
     0
  9
$PDMODE
 70
     0
  9
$PDSIZE
 40
0.0
  9
$PLINEWID
 40
0.0
  9
$SPLFRAME
 70
     0
  9
$SPLINETYPE
 70
     6
  9
$SPLINESEGS
 70
     8
  9
$HANDSEED
  5
FCC
  9
$SURFTAB1
 70
     6
  9
$SURFTAB2
 70
     6
  9
$SURFTYPE
 70
     6
  9
$SURFU
 70
     6
  9
$SURFV
 70
     6
  9
$UCSBASE
  2

  9
$UCSNAME
  2

  9
$UCSORG
 10
0.0
 20
0.0
 30
0.0
  9
$UCSXDIR
 10
1.0
 20
0.0
 30
0.0
  9
$UCSYDIR
 10
0.0
 20
0.0
 30
1.0
  9
$UCSORTHOREF
  2

  9
$UCSORTHOVIEW
 70
     0
  9
$UCSORGTOP
 10
0.0
 20
0.0
 30
0.0
  9
$UCSORGBOTTOM
 10
0.0
 20
0.0
 30
0.0
  9
$UCSORGLEFT
 10
0.0
 20
0.0
 30
0.0
  9
$UCSORGRIGHT
 10
0.0
 20
0.0
 30
0.0
  9
$UCSORGFRONT
 10
0.0
 20
0.0
 30
0.0
  9
$UCSORGBACK
 10
0.0
 20
0.0
 30
0.0
  9
$PUCSBASE
  2

  9
$PUCSNAME
  2

  9
$PUCSORG
 10
0.0
 20
0.0
 30
0.0
  9
$PUCSXDIR
 10
1.0
 20
0.0
 30
0.0
  9
$PUCSYDIR
 10
0.0
 20
1.0
 30
0.0
  9
$PUCSORTHOREF
  2

  9
$PUCSORTHOVIEW
 70
     0
  9
$PUCSORGTOP
 10
0.0
 20
0.0
 30
0.0
  9
$PUCSORGBOTTOM
 10
0.0
 20
0.0
 30
0.0
  9
$PUCSORGLEFT
 10
0.0
 20
0.0
 30
0.0
  9
$PUCSORGRIGHT
 10
0.0
 20
0.0
 30
0.0
  9
$PUCSORGFRONT
 10
0.0
 20
0.0
 30
0.0
  9
$PUCSORGBACK
 10
0.0
 20
0.0
 30
0.0
  9
$USERI1
 70
     0
  9
$USERI2
 70
     0
  9
$USERI3
 70
     0
  9
$USERI4
 70
     0
  9
$USERI5
 70
     0
  9
$USERR1
 40
0.0
  9
$USERR2
 40
0.0
  9
$USERR3
 40
0.0
  9
$USERR4
 40
0.0
  9
$USERR5
 40
0.0
  9
$WORLDVIEW
 70
     1
  9
$SHADEDGE
 70
     3
  9
$SHADEDIF
 70
    70
  9
$TILEMODE
 70
     1
  9
$MAXACTVP
 70
    64
  9
$PINSBASE
 10
0.0
 20
0.0
 30
0.0
  9
$PLIMCHECK
 70
     0
  9
$PEXTMIN
 10
1.000000000000000E+20
 20
1.000000000000000E+20
 30
1.000000000000000E+20
  9
$PEXTMAX
 10
-1.000000000000000E+20
 20
-1.000000000000000E+20
 30
-1.000000000000000E+20
  9
$PLIMMIN
 10
0.0
 20
0.0
  9
$PLIMMAX
 10
12.0
 20
9.0
  9
$UNITMODE
 70
     0
  9
$VISRETAIN
 70
     1
  9
$PLINEGEN
 70
     0
  9
$PSLTSCALE
 70
     1
  9
$TREEDEPTH
 70
  3020
  9
$CMLSTYLE
  2
Standard
  9
$CMLJUST
 70
     0
  9
$CMLSCALE
 40
1.0
  9
$PROXYGRAPHICS
 70
     1
  9
$MEASUREMENT
 70
     0
  9
$CELWEIGHT
370
    -1
  9
$ENDCAPS
280
     0
  9
$JOINSTYLE
280
     0
  9
$LWDISPLAY
290
     0
  9
$INSUNITS
 70
     1
  9
$HYPERLINKBASE
  1

  9
$STYLESHEET
  1

  9
$XEDIT
290
     1
  9
$CEPSNTYPE
380
     0
  9
$PSTYLEMODE
290
     1
  9
$FINGERPRINTGUID
  2
{FDEAD576-A652-11D2-9A35-0060089B3A3F}
  9
$VERSIONGUID
  2
{BF2ADDC5-D228-4E6B-809C-8E0095E35E71}
  9
$EXTNAMES
290
     1
  9
$PSVPSCALE
 40
0.0
  9
$OLESTARTUP
290
     0
  0
ENDSEC
  0
SECTION
  2
CLASSES
  0
CLASS
  1
ACDBDICTIONARYWDFLT
  2
AcDbDictionaryWithDefault
  3
ObjectDBX Classes
 90
        0
280
     0
281
     0
  0
CLASS
  1
ACDBPLACEHOLDER
  2
AcDbPlaceHolder
  3
ObjectDBX Classes
 90
        0
280
     0
281
     0
  0
CLASS
  1
LAYOUT
  2
AcDbLayout
  3
ObjectDBX Classes
 90
        0
280
     0
281
     0
  0
CLASS
  1
DICTIONARYVAR
  2
AcDbDictionaryVar
  3
ObjectDBX Classes
 90
        0
280
     0
281
     0
  0
CLASS
  1
TABLESTYLE
  2
AcDbTableStyle
  3
ObjectDBX Classes
 90
     4095
280
     0
281
     0
  0
CLASS
  1
MATERIAL
  2
AcDbMaterial
  3
ObjectDBX Classes
 90
     1153
280
     0
281
     0
  0
CLASS
  1
VISUALSTYLE
  2
AcDbVisualStyle
  3
ObjectDBX Classes
 90
     4095
280
     0
281
     0
  0
CLASS
  1
SCALE
  2
AcDbScale
  3
ObjectDBX Classes
 90
     1153
280
     0
281
     0
  0
CLASS
  1
MLEADERSTYLE
  2
AcDbMLeaderStyle
  3
ACDB_MLEADERSTYLE_CLASS
 90
     4095
280
     0
281
     0
  0
CLASS
  1
CELLSTYLEMAP
  2
AcDbCellStyleMap
  3
ObjectDBX Classes
 90
     1152
280
     0
281
     0
  0
ENDSEC
  0
SECTION
  2
TABLES
  0
TABLE
  2
VPORT
  5
8
330
0
100
AcDbSymbolTable
 70
     1
  0
VPORT
  5
19F
330
8
100
AcDbSymbolTableRecord
100
AcDbViewportTableRecord
  2
*Active
 70
     0
 10
0.0
 20
0.0
 11
1.0
 21
1.0
 12
10.61893564083439
 22
2.25
 13
0.0
 23
0.0
 14
0.5
 24
0.5
 15
0.5
 25
0.5
 16
0.0
 26
-1.0
 36
0.0
 17
0.0
 27
0.0
 37
0.0
 40
4.536885245901637
 41
1.952107279693486
 42
50.0
 43
0.0
 44
0.0
 50
0.0
 51
0.0
 71
     0
 72
   100
 73
     1
 74
     3
 75
     0
 76
     0
 77
     0
 78
     0
281
     0
 65
     1
110
0.0
120
0.0
130
0.0
111
1.0
121
0.0
131
0.0
112
0.0
122
0.0
132
1.0
 79
     0
146
0.0
  0
ENDTAB
  0
TABLE
  2
LTYPE
  5
5
330
0
100
AcDbSymbolTable
 70
     1
  0
LTYPE
  5
14
330
5
100
AcDbSymbolTableRecord
100
AcDbLinetypeTableRecord
  2
ByBlock
 70
     0
  3

 72
    65
 73
     0
 40
0.0
  0
LTYPE
  5
15
330
5
100
AcDbSymbolTableRecord
100
AcDbLinetypeTableRecord
  2
ByLayer
 70
     0
  3

 72
    65
 73
     0
 40
0.0
  0
LTYPE
  5
16
330
5
100
AcDbSymbolTableRecord
100
AcDbLinetypeTableRecord
  2
Continuous
 70
     0
  3
Solid line
 72
    65
 73
     0
 40
0.0
  0
ENDTAB
  0
TABLE
  2
LAYER
  5
2
330
0
100
AcDbSymbolTable
 70
     4
  0
LAYER
  5
10
102
{ACAD_XDICTIONARY
360
6B6
102
}
330
2
100
AcDbSymbolTableRecord
100
AcDbLayerTableRecord
  2
0
 70
     0
 62
     7
  6
Continuous
370
    -3
390
F
  0
LAYER
  5
AB
102
{ACAD_XDICTIONARY
360
6B8
102
}
330
2
100
AcDbSymbolTableRecord
100
AcDbLayerTableRecord
  2
Layer1
 70
     0
 62
     1
  6
Continuous
290
     0
370
    -3
390
F
  0
LAYER
  5
F8
330
2
100
AcDbSymbolTableRecord
100
AcDbLayerTableRecord
  2
Defpoints
 70
     0
 62
     7
  6
Continuous
290
     0
370
    -3
390
F
  0
LAYER
  5
204
102
{ACAD_XDICTIONARY
360
6BA
102
}
330
2
100
AcDbSymbolTableRecord
100
AcDbLayerTableRecord
  2
ASHADE
 70
     4
 62
     7
  6
Continuous
370
    -3
390
F
  0
ENDTAB
  0
TABLE
  2
STYLE
  5
3
330
0
100
AcDbSymbolTable
 70
     2
  0
STYLE
  5
11
330
3
100
AcDbSymbolTableRecord
100
AcDbTextStyleTableRecord
  2
Standard
 70
     0
 40
0.0
 41
1.0
 50
0.0
 71
     0
 42
0.2
  3
txt
  4

  0
STYLE
  5
1FE
330
3
100
AcDbSymbolTableRecord
100
AcDbTextStyleTableRecord
  2
ASHADE
 70
     0
 40
0.2
 41
1.0
 50
0.0
 71
     0
 42
0.2
  3
simplex
  4

  0
ENDTAB
  0
TABLE
  2
VIEW
  5
6
330
0
100
AcDbSymbolTable
 70
     0
  0
ENDTAB
  0
TABLE
  2
UCS
  5
7
330
0
100
AcDbSymbolTable
 70
     0
  0
ENDTAB
  0
TABLE
  2
APPID
  5
9
330
0
100
AcDbSymbolTable
 70
    10
  0
APPID
  5
12
330
9
100
AcDbSymbolTableRecord
100
AcDbRegAppTableRecord
  2
ACAD
 70
     0
  0
APPID
  5
E9
330
9
100
AcDbSymbolTableRecord
100
AcDbRegAppTableRecord
  2
ACAD_EXEMPT_FROM_CAD_STANDARDS
 70
     0
  0
APPID
  5
142
330
9
100
AcDbSymbolTableRecord
100
AcDbRegAppTableRecord
  2
ACAD_PSEXT
 70
     0
  0
APPID
  5
198
330
9
100
AcDbSymbolTableRecord
100
AcDbRegAppTableRecord
  2
DCO15
 70
     0
  0
APPID
  5
1FB
330
9
100
AcDbSymbolTableRecord
100
AcDbRegAppTableRecord
  2
ACAD_MLEADERVER
 70
     0
  0
APPID
  5
1FF
330
9
100
AcDbSymbolTableRecord
100
AcDbRegAppTableRecord
  2
AVE_RENDER
 70
     0
  0
APPID
  5
200
330
9
100
AcDbSymbolTableRecord
100
AcDbRegAppTableRecord
  2
AVE_ENTITY_MATERIAL
 70
     0
  0
APPID
  5
201
330
9
100
AcDbSymbolTableRecord
100
AcDbRegAppTableRecord
  2
AVE_FINISH
 70
     0
  0
APPID
  5
202
330
9
100
AcDbSymbolTableRecord
100
AcDbRegAppTableRecord
  2
AVE_MATERIAL
 70
     0
  0
APPID
  5
203
330
9
100
AcDbSymbolTableRecord
100
AcDbRegAppTableRecord
  2
AVE_GLOBAL
 70
     0
  0
ENDTAB
  0
TABLE
  2
DIMSTYLE
  5
A
330
0
100
AcDbSymbolTable
 70
     1
100
AcDbDimStyleTable
 71
     0
  0
DIMSTYLE
105
27
330
A
100
AcDbSymbolTableRecord
100
AcDbDimStyleTableRecord
  2
Standard
 70
     0
  3
"
 40
3.0
277
     5
340
11
342
4F
  0
ENDTAB
  0
TABLE
  2
BLOCK_RECORD
  5
1
330
0
100
AcDbSymbolTable
 70
     6
  0
BLOCK_RECORD
  5
1F
330
1
100
AcDbSymbolTableRecord
100
AcDbBlockTableRecord
  2
*Model_Space
340
22
  0
BLOCK_RECORD
  5
1B
330
1
100
AcDbSymbolTableRecord
100
AcDbBlockTableRecord
  2
*Paper_Space
340
1E
  0
BLOCK_RECORD
  5
23
330
1
100
AcDbSymbolTableRecord
100
AcDbBlockTableRecord
  2
*Paper_Space0
340
26
  0
BLOCK_RECORD
  5
4F
330
1
100
AcDbSymbolTableRecord
100
AcDbBlockTableRecord
  2
_ArchTick
340
0
  0
BLOCK_RECORD
  5
205
330
1
100
AcDbSymbolTableRecord
100
AcDbBlockTableRecord
  2
AVE_GLOBAL
340
0
102
{BLKREFS
331
208
102
}
  0
BLOCK_RECORD
  5
20E
330
1
100
AcDbSymbolTableRecord
100
AcDbBlockTableRecord
  2
AVE_RENDER
340
0
102
{BLKREFS
331
211
331
212
331
213
331
214
331
215
331
216
331
217
331
218
102
}
  0
BLOCK_RECORD
  5
67B
330
1
100
AcDbSymbolTableRecord
100
AcDbBlockTableRecord
  2
RM_SDB
340
0
102
{BLKREFS
331
B31
331
FAA
102
}
  0
ENDTAB
  0
ENDSEC
  0
SECTION
  2
BLOCKS
  0
BLOCK
  5
20
330
1F
100
AcDbEntity
  8
0
100
AcDbBlockBegin
  2
*Model_Space
 70
     0
 10
0.0
 20
0.0
 30
0.0
  3
*Model_Space
  1

  0
ENDBLK
  5
21
330
1F
100
AcDbEntity
  8
0
100
AcDbBlockEnd
  0
BLOCK
  5
1C
330
1B
100
AcDbEntity
 67
     1
  8
0
100
AcDbBlockBegin
  2
*Paper_Space
 70
     0
 10
0.0
 20
0.0
 30
0.0
  3
*Paper_Space
  1

  0
ENDBLK
  5
1D
330
1B
100
AcDbEntity
 67
     1
  8
0
100
AcDbBlockEnd
  0
BLOCK
  5
24
330
23
100
AcDbEntity
 67
     1
  8
0
100
AcDbBlockBegin
  2
*Paper_Space0
 70
     0
 10
0.0
 20
0.0
 30
0.0
  3
*Paper_Space0
  1

  0
ENDBLK
  5
25
330
23
100
AcDbEntity
 67
     1
  8
0
100
AcDbBlockEnd
  0
BLOCK
  5
51
330
4F
100
AcDbEntity
  8
0
100
AcDbBlockBegin
  2
_ArchTick
 70
     0
 10
0.0
 20
0.0
 30
0.0
  3
_ArchTick
  1

  0
LWPOLYLINE
  5
50
330
4F
100
AcDbEntity
  8
0
 62
     0
100
AcDbPolyline
 90
        2
 70
     0
 43
0.15
 10
-0.5
 20
-0.5
 10
0.5
 20
0.5
  0
ENDBLK
  5
52
330
4F
100
AcDbEntity
  8
0
100
AcDbBlockEnd
  0
BLOCK
  5
206
330
205
100
AcDbEntity
  8
ASHADE
100
AcDbBlockBegin
  2
AVE_GLOBAL
 70
     0
 10
0.0
 20
0.0
 30
0.0
  3
AVE_GLOBAL
  1
AVE_GLOBAL
  0
ENDBLK
  5
207
330
205
100
AcDbEntity
  8
0
100
AcDbBlockEnd
  0
BLOCK
  5
20F
330
20E
100
AcDbEntity
  8
ASHADE
100
AcDbBlockBegin
  2
AVE_RENDER
 70
     0
 10
0.0
 20
0.0
 30
0.0
  3
AVE_RENDER
  1
AVE_RENDER
  0
ENDBLK
  5
210
330
20E
100
AcDbEntity
  8
0
100
AcDbBlockEnd
  0
BLOCK
  5
67C
330
67B
100
AcDbEntity
  8
ASHADE
100
AcDbBlockBegin
  2
RM_SDB
 70
     2
 10
0.0
 20
0.0
 30
0.0
  3
RM_SDB
  1
RM_SDB
  0
ATTDEF
  5
67D
330
67B
100
AcDbEntity
  8
0
100
AcDbText
 10
0.0
 20
0.0
 30
0.0
 40
0.2
  1

100
AcDbAttributeDefinition
  3

  2
NAME
 70
     1
  0
ATTDEF
  5
67E
330
67B
100
AcDbEntity
  8
0
100
AcDbText
 10
0.0
 20
0.0
 30
0.0
 40
0.2
  1

100
AcDbAttributeDefinition
  3

  2
ACADCOLOR
 70
     1
  0
ATTDEF
  5
67F
330
67B
100
AcDbEntity
  8
0
100
AcDbText
 10
0.0
 20
0.0
 30
0.0
 40
0.2
  1

100
AcDbAttributeDefinition
  3

  2
COLOR
 70
     1
  0
ATTDEF
  5
680
330
67B
100
AcDbEntity
  8
0
100
AcDbText
 10
0.0
 20
0.0
 30
0.0
 40
0.2
  1

100
AcDbAttributeDefinition
  3

  2
OPACITY
 70
     1
  0
ATTDEF
  5
681
330
67B
100
AcDbEntity
  8
0
100
AcDbText
 10
0.0
 20
0.0
 30
0.0
 40
0.2
  1

100
AcDbAttributeDefinition
  3

  2
SURFACE
 70
     1
  0
ATTDEF
  5
682
330
67B
100
AcDbEntity
  8
0
100
AcDbText
 10
0.0
 20
0.0
 30
0.0
 40
0.2
  1

100
AcDbAttributeDefinition
  3

  2
SURF1
 70
     1
  0
ATTDEF
  5
683
330
67B
100
AcDbEntity
  8
0
100
AcDbText
 10
0.0
 20
0.0
 30
0.0
 40
0.2
  1

100
AcDbAttributeDefinition
  3

  2
SURF2
 70
     1
  0
ATTDEF
  5
684
330
67B
100
AcDbEntity
  8
0
100
AcDbText
 10
0.0
 20
0.0
 30
0.0
 40
0.2
  1

100
AcDbAttributeDefinition
  3

  2
SURF3
 70
     1
  0
ATTDEF
  5
685
330
67B
100
AcDbEntity
  8
0
100
AcDbText
 10
0.0
 20
0.0
 30
0.0
 40
0.2
  1

100
AcDbAttributeDefinition
  3

  2
SURF4
 70
     1
  0
ATTDEF
  5
686
330
67B
100
AcDbEntity
  8
0
100
AcDbText
 10
0.0
 20
0.0
 30
0.0
 40
0.2
  1

100
AcDbAttributeDefinition
  3

  2
SHADINGRATE
 70
     1
  0
ATTDEF
  5
687
330
67B
100
AcDbEntity
  8
0
100
AcDbText
 10
0.0
 20
0.0
 30
0.0
 40
0.2
  1

100
AcDbAttributeDefinition
  3

  2
DISPLACEMENT
 70
     1
  0
ATTDEF
  5
688
330
67B
100
AcDbEntity
  8
0
100
AcDbText
 10
0.0
 20
0.0
 30
0.0
 40
0.2
  1

100
AcDbAttributeDefinition
  3

  2
DISP1
 70
     1
  0
ATTDEF
  5
689
330
67B
100
AcDbEntity
  8
0
100
AcDbText
 10
0.0
 20
0.0
 30
0.0
 40
0.2
  1

100
AcDbAttributeDefinition
  3

  2
DISP2
 70
     1
  0
ATTDEF
  5
68A
330
67B
100
AcDbEntity
  8
0
100
AcDbText
 10
0.0
 20
0.0
 30
0.0
 40
0.2
  1

100
AcDbAttributeDefinition
  3

  2
DISP3
 70
     1
  0
ATTDEF
  5
68B
330
67B
100
AcDbEntity
  8
0
100
AcDbText
 10
0.0
 20
0.0
 30
0.0
 40
0.2
  1

100
AcDbAttributeDefinition
  3

  2
DISP4
 70
     1
  0
ATTDEF
  5
68C
330
67B
100
AcDbEntity
  8
0
100
AcDbText
 10
0.0
 20
0.0
 30
0.0
 40
0.2
  1

100
AcDbAttributeDefinition
  3

  2
DBOUND
 70
     1
  0
ATTDEF
  5
68D
330
67B
100
AcDbEntity
  8
0
100
AcDbText
 10
0.0
 20
0.0
 30
0.0
 40
0.2
  1

100
AcDbAttributeDefinition
  3

  2
SMOOTH
 70
     1
  0
ATTDEF
  5
68E
330
67B
100
AcDbEntity
  8
0
100
AcDbText
 10
0.0
 20
0.0
 30
0.0
 40
0.2
  1

100
AcDbAttributeDefinition
  3

  2
ATMOSHPERE
 70
     1
  0
ATTDEF
  5
68F
330
67B
100
AcDbEntity
  8
0
100
AcDbText
 10
0.0
 20
0.0
 30
0.0
 40
0.2
  1

100
AcDbAttributeDefinition
  3

  2
ATMO1
 70
     1
  0
ATTDEF
  5
690
330
67B
100
AcDbEntity
  8
0
100
AcDbText
 10
0.0
 20
0.0
 30
0.0
 40
0.2
  1

100
AcDbAttributeDefinition
  3

  2
ATMO2
 70
     1
  0
ATTDEF
  5
691
330
67B
100
AcDbEntity
  8
0
100
AcDbText
 10
0.0
 20
0.0
 30
0.0
 40
0.2
  1

100
AcDbAttributeDefinition
  3

  2
ATMO3
 70
     1
  0
ATTDEF
  5
692
330
67B
100
AcDbEntity
  8
0
100
AcDbText
 10
0.0
 20
0.0
 30
0.0
 40
0.2
  1

100
AcDbAttributeDefinition
  3

  2
ATMO4
 70
     1
  0
ATTDEF
  5
693
330
67B
100
AcDbEntity
  8
0
100
AcDbText
 10
0.0
 20
0.0
 30
0.0
 40
0.2
  1

100
AcDbAttributeDefinition
  3

  2
TCCORD
 70
     1
  0
ENDBLK
  5
694
330
67B
100
AcDbEntity
  8
0
100
AcDbBlockEnd
  0
ENDSEC
  0
SECTION
  2
ENTITIES
  0
INSERT
  5
208
330
1F
100
AcDbEntity
  8
ASHADE
 62
     1
100
AcDbBlockReference
  2
AVE_GLOBAL
 10
0.0
 20
0.0
 30
0.0
1001
AVE_MATERIAL
1002
{
1000
*GLOBAL*
1000
2
1000
Global finish.
1002
{
1002
}
1002
{
1070
    63
1002
{
1002
{
1010
-1.0
1020
-1.0
1030
-1.0
1002
}
1040
0.6999999880790711
1000

1040
0.0
1002
{
1002
}
1040
0.0
1002
{
1002
}
1040
0.0
1002
}
1002
{
1002
{
1010
-1.0
1020
-1.0
1030
-1.0
1002
}
1040
1.0
1000

1040
0.0
1002
{
1002
}
1040
0.0
1002
{
1002
}
1040
0.0
1002
}
1002
{
1002
{
1010
-1.0
1020
-1.0
1030
-1.0
1002
}
1040
0.2000000029802322
1000

1040
0.0
1002
{
1002
}
1040
0.0
1002
{
1002
}
1040
0.0
1002
}
1002
{
1070
     0
1002
{
1070
     1
1002
{
1040
1.0
1040
1.0
1000

1040
0.0
1002
{
1002
}
1040
0.0
1002
{
1002
}
1040
0.0
1002
}
1002
}
1040
1.0
1040
0.0
1040
0.0
1002
}
1002
{
1040
1.0
1040
1.0
1000

1040
0.0
1002
{
1002
}
1040
0.0
1002
{
1002
}
1040
0.0
1002
}
1002
{
1040
0.5
1040
1.0
1000

1040
0.0
1002
{
1002
}
1040
0.0
1002
{
1002
}
1040
0.0
1002
}
1002
{
1070
     0
1040
0.0
1002
{
1002
}
1040
1.0
1002
{
1002
}
1040
0.0
1002
}
1002
{
1040
0.0
1002
{
1002
{
1010
0.0
1020
0.0
1030
0.0
1002
}
1040
1.0
1000

1040
0.0
1002
{
1002
}
1040
0.0
1002
{
1002
}
1040
0.0
1002
}
1002
}
1002
{
1002
{
1070
     1
1002
{
1040
0.0
1040
1.0
1000

1040
0.0
1002
{
1002
}
1040
0.0
1002
{
1002
}
1040
0.0
1002
}
1002
}
1040
0.0
1002
{
1002
}
1010
1.0
1020
0.0
1030
0.0
1010
0.0
1020
1.0
1030
0.0
1010
0.0
1020
0.0
1030
1.0
1070
     0
1002
}
1002
{
1002
{
1040
1.0
1040
1.0
1002
{
1070
     1
1002
{
1040
1.0
1040
1.0
1000

1040
0.0
1002
{
1002
}
1040
0.0
1002
{
1002
}
1040
0.0
1002
}
1002
}
1002
}
1070
     0
1040
0.0
1002
{
1002
}
1002
}
1002
{
1002
}
1002
}
1002
{
1071
        3
1070
     3
1070
     0
1002
{
1070
     2
1070
     0
1070
     0
1040
0.0
1002
}
1070
     0
1070
     2
1002
{
1002
}
1002
}
1002
{
1040
8030.0
1040
190.3000030517578
1040
0.3050000071525574
1040
228.0
1040
545.0
1040
14.0
1040
17.39999961853027
1040
0.4560000002384186
1002
}
1000

1002
}
  0
INSERT
  5
211
330
1F
100
AcDbEntity
  8
ASHADE
 62
     1
100
AcDbBlockReference
  2
AVE_RENDER
 10
0.0
 20
0.0
 30
0.0
1001
AVE_RENDER
1002
{
1070
     7
1000
Pref
1070
    50
1070
    20
1070
     1
1070
     0
1000

1070
    10
1070
     1
1070
    10
1040
1.0
1070
     1
1040
0.6999999880790711
1040
1.0
1040
0.2000000029802322
1040
2.0
1010
-1.0
1020
-1.0
1030
-1.0
1040
0.3000000119209289
1070
    49
1070
     0
1070
     0
1010
1.0
1020
1.0
1030
1.0
1040
45.0
1070
     1
1070
     0
1000
WCS
1040
0.0
1070
     0
1040
10.0
1002
}
  0
INSERT
  5
212
330
1F
100
AcDbEntity
  8
ASHADE
 62
     3
100
AcDbBlockReference
  2
AVE_RENDER
 10
0.0
 20
0.0
 30
0.0
1001
AVE_RENDER
1002
{
1070
     0
1000
Full Opt
1070
     0
1070
     1
1070
     1
1070
     1
1070
     0
1070
     0
1070
     0
1070
     1
1070
     1
1040
0.0001
1040
0.0001
1002
}
  0
INSERT
  5
213
330
1F
100
AcDbEntity
  8
ASHADE
 62
     4
100
AcDbBlockReference
  2
AVE_RENDER
 10
0.0
 20
0.0
 30
0.0
1001
AVE_RENDER
1002
{
1070
     0
1000
Quick Opt
1070
     0
1070
     1
1070
     1
1070
     1
1070
     0
1070
     0
1070
     1
1002
}
  0
INSERT
  5
214
330
1F
100
AcDbEntity
  8
ASHADE
 62
     5
100
AcDbBlockReference
  2
AVE_RENDER
 10
0.0
 20
0.0
 30
0.0
1001
AVE_RENDER
1002
{
1070
     1
1000
Scanl Opt
1070
     2
1070
     0
1070
     2
1040
2.0
1040
4.0
1070
     0
1070
     1
1070
     0
1040
0.03
1002
}
  0
INSERT
  5
215
330
1F
100
AcDbEntity
  8
ASHADE
 62
     6
100
AcDbBlockReference
  2
AVE_RENDER
 10
0.0
 20
0.0
 30
0.0
1001
AVE_RENDER
1002
{
1070
     2
1000
Raytr Opt
1070
     2
1070
     0
1070
     2
1040
2.0
1040
4.0
1070
     0
1070
     1
1070
     1
1040
0.03
1070
     3
1040
0.03
1002
}
  0
INSERT
  5
216
330
1F
100
AcDbEntity
  8
ASHADE
 62
     7
100
AcDbBlockReference
  2
AVE_RENDER
 10
0.0
 20
0.0
 30
0.0
1001
AVE_RENDER
1002
{
1070
     0
1000
RFile Opt
1070
     1
1070
   640
1070
   480
1070
 10000
1070
     1
1070
     8
1070
     8
1070
     0
1070
     0
1070
     0
1070
     0
1070
     0
1070
     0
1070
     0
1002
}
  0
INSERT
  5
217
330
1F
100
AcDbEntity
  8
ASHADE
 62
     8
100
AcDbBlockReference
  2
AVE_RENDER
 10
0.0
 20
0.0
 30
0.0
1001
AVE_RENDER
1002
{
1070
     0
1000
Fog Opt
1070
     0
1070
     0
1040
0.0
1040
1.0
1040
0.0
1040
1.0
1010
0.5
1020
0.5
1030
0.5
1002
}
  0
INSERT
  5
218
330
1F
100
AcDbEntity
  8
ASHADE
 62
     9
100
AcDbBlockReference
  2
AVE_RENDER
 10
0.0
 20
0.0
 30
0.0
1001
AVE_RENDER
1002
{
1070
     0
1000
BG Opt
1070
     0
1070
     0
1010
0.0
1020
0.0
1030
0.0
1010
1.0
1020
0.0
1030
0.0
1010
0.0
1020
1.0
1030
0.0
1010
0.0
1020
0.0
1030
1.0
1040
0.5
1040
0.5
1040
0.0
1000

1070
     1
1000

1070
     1
1070
     1
1040
1.0
1040
1.0
1040
0.0
1040
0.0
1070
     0
1002
}
  0
POLYLINE
  5
B4D
330
1F
100
AcDbEntity
  8
0
 62
     7
100
AcDbPolyFaceMesh
 66
     1
 10
0.0
 20
0.0
 30
0.0
 70
    64
 71
   373
 72
   742
1001
AVE_ENTITY_MATERIAL
1002
{
1000

1002
{
1071
        0
1070
     0
1070
     0
1002
{
1070
     0
1070
     0
1070
     0
1040
0.0
1002
}
1070
     0
1070
     0
1002
{
1002
}
1002
}
1002
{
1002
}
1002
{
1002
}
1011
-6.803040494363683
1021
0.0
1031
-0.0000000008281642
1011
-5.803040494363683
1021
0.0
1031
-0.0000000008281642
1011
-6.803040494363683
1021
1.0
1031
-0.0000000008281642
1011
-6.803040494363683
1021
0.0
1031
0.9999999991718357
1002
}
  0
VERTEX
  5
B4E
330
B4D
100
AcDbEntity
  8
0
 62
     7
100
AcDbVertex
100
AcDbPolyFaceMeshVertex
 10
2.128972063619714
 20
3.526299238204956
 30
4.499999999171835
 70
   192
  0
VERTEX
  5
B4F
330
B4D
100
AcDbEntity
  8
0
 62
     7
100
AcDbVertex
100
AcDbPolyFaceMeshVertex
 10
3.808527956564047
 20
3.526299238204956
 30
4.499999999171835
 70
   192
  0
VERTEX
  5
B50
330
B4D
100
AcDbEntity
  8
0
 62
     7
100
AcDbVertex
100
AcDbPolyFaceMeshVertex
 10
2.538808832723718
 20
3.664389371871948
 30
4.499999999171835
 70
   192
  0
VERTEX
  5
B51
330
B4D
100
AcDbEntity
  8
0
 62
     7
100
AcDbVertex
100
AcDbPolyFaceMeshVertex
 10
4.179098139364336
 20
3.303334474563598
 30
4.499999999171835
 70
   192
  0
VERTEX
  5
B52
330
B4D
100
AcDbEntity
  8
0
 62
     7
100
AcDbVertex
100
AcDbPolyFaceMeshVertex
 10
1.444425592977623
 20
3.005920886993408
 30
4.499999999171835
 70
   192
  0
VERTEX
  5
B53
330
B4D
100
AcDbEntity
  8
0
 62
     7
100
AcDbVertex
100
AcDbPolyFaceMeshVertex
 10
4.493074427206135
 20
3.005920886993408
 30
4.499999999171835
 70
   192
  0
VERTEX
  5
B54
330
B4D
100
AcDbEntity
  8
0
 62
     7
100
AcDbVertex
100
AcDbPolyFaceMeshVertex
 10
1.758401880819421
 20
3.303334474563598
 30
4.499999999171835
 70
   192
  0
VERTEX
  5
B55
330
B4D
100
AcDbEntity
  8
0
 62
     7
100
AcDbVertex
100
AcDbPolyFaceMeshVertex
 10
4.735774050314045
 20
2.647965192794798
 30
4.499999999171835
 70
   192
  0
VERTEX
  5
B56
330
B4D
100
AcDbEntity
  8
0
 62
     7
100
AcDbVertex
100
AcDbPolyFaceMeshVertex
 10
1.041649828512293
 20
2.246205091476439
 30
4.499999999171835
 70
   192
  0
VERTEX
  5
B57
330
B4D
100
AcDbEntity
  8
0
 62
     7
100
AcDbVertex
100
AcDbPolyFaceMeshVertex
 10
4.895850191671467
 20
2.246205091476439
 30
4.499999999171835
 70
   192
  0
VERTEX
  5
B58
330
B4D
100
AcDbEntity
  8
0
 62
     7
100
AcDbVertex
100
AcDbPolyFaceMeshVertex
 10
1.201725969869713
 20
2.647965192794798
 30
4.499999999171835
 70
   192
  0
VERTEX
  5
B59
330
B4D
100
AcDbEntity
  8
0
 62
     7
100
AcDbVertex
100
AcDbPolyFaceMeshVertex
 10
4.965816507894617
 20
1.819426178932189
 30
4.499999999171835
 70
   192
  0
VERTEX
  5
B5A
330
B4D
100
AcDbEntity
  8
0
 62
     7
100
AcDbVertex
100
AcDbPolyFaceMeshVertex
 10
0.9950971704312374
 20
1.387584328651428
 30
4.499999999171835
 70
   192
  0
VERTEX
  5
B5B
330
B4D
100
AcDbEntity
  8
0
 62
     7
100
AcDbVertex
100
AcDbPolyFaceMeshVertex
 10
4.942402849752527
 20
1.387584328651428
 30
4.499999999171835
 70
   192
  0
VERTEX
  5
B5C
330
B4D
100
AcDbEntity
  8
0
 62
     7
100
AcDbVertex
100
AcDbPolyFaceMeshVertex
 10
0.9716830354519894
 20
1.819426178932189
 30
4.499999999171835
 70
   192
  0
VERTEX
  5
B5D
330
B4D
100
AcDbEntity
  8
0
 62
     7
100
AcDbVertex
100
AcDbPolyFaceMeshVertex
 10
4.826703081686115
 20
0.9708719849586485
 30
4.499999999171835
 70
   192
  0
VERTEX
  5
B5E
330
B4D
100
AcDbEntity
  8
0
 62
     7
100
AcDbVertex
100
AcDbPolyFaceMeshVertex
 10
1.313371668417078
 20
0.5887742042541504
 30
4.499999999171835
 70
   192
  0
VERTEX
  5
B5F
330
B4D
100
AcDbEntity
  8
0
 62
     7
100
AcDbVertex
100
AcDbPolyFaceMeshVertex
 10
4.624128351766685
 20
0.5887742042541504
 30
4.499999999171835
 70
   192
  0
VERTEX
  5
B60
330
B4D
100
AcDbEntity
  8
0
 62
     7
100
AcDbVertex
100
AcDbPolyFaceMeshVertex
 10
1.110796461660485
 20
0.9708719849586485
 30
4.499999999171835
 70
   192
  0
VERTEX
  5
B61
330
B4D
100
AcDbEntity
  8
0
 62
     7
100
AcDbVertex
100
AcDbPolyFaceMeshVertex
 10
4.344148645956135
 20
0.2591573297977447
 30
4.499999999171835
 70
   192
  0
VERTEX
  5
B62
330
B4D
100
AcDbEntity
  8
0
 62
     7
100
AcDbVertex
100
AcDbPolyFaceMeshVertex
 10
1.937642107565025
 20
-0.0025660302489996
 30
4.499999999171835
 70
   192
  0
VERTEX
  5
B63
330
B4D
100
AcDbEntity
  8
0
 62
     7
100
AcDbVertex
100
AcDbPolyFaceMeshVertex
 10
3.999857912618736
 20
-0.0025660302489996
 30
4.499999999171835
 70
   192
  0
VERTEX
  5
B64
330
B4D
100
AcDbEntity
  8
0
 62
     7
100
AcDbVertex
100
AcDbPolyFaceMeshVertex
 10
1.593351374227623
 20
0.2591573297977447
 30
4.499999999171835
 70
   192
  0
VERTEX
  5
B65
330
B4D
100
AcDbEntity
  8
0
 62
     7
100
AcDbVertex
100
AcDbPolyFaceMeshVertex
 10
3.607353220541096
 20
-0.1841580271720886
 30
4.499999999171835
 70
   192
  0
VERTEX
  5
B66
330
B4D
100
AcDbEntity
  8
0
 62
     7
100
AcDbVertex
100
AcDbPolyFaceMeshVertex
 10
3.184988031942468
 20
-0.277127593755722
 30
4.499999999171835
 70
   192
  0
VERTEX
  5
B67
330
B4D
100
AcDbEntity
  8
0
 62
     7
100
AcDbVertex
100
AcDbPolyFaceMeshVertex
 10
2.330146799642664
 20
-0.1841580271720886
 30
4.499999999171835
 70
   192
  0
VERTEX
  5
B68
330
B4D
100
AcDbEntity
  8
0
 62
     7
100
AcDbVertex
100
AcDbPolyFaceMeshVertex
 10
2.752511988241296
 20
-0.277127593755722
 30
4.499999999171835
 70
   192
  0
VERTEX
  5
B69
330
B4D
100
AcDbEntity
  8
0
 62
     7
100
AcDbVertex
100
AcDbPolyFaceMeshVertex
 10
3.398691187460046
 20
3.664389371871948
 30
4.499999999171835
 70
   192
  0
VERTEX
  5
B6A
330
B4D
100
AcDbEntity
  8
0
 62
     7
100
AcDbVertex
100
AcDbPolyFaceMeshVertex
 10
2.968750010091882
 20
3.711148262023924
 30
4.499999999171835
 70
   192
  0
VERTEX
  5
B6B
330
B4D
100
AcDbEntity
  8
0
 62
     7
100
AcDbVertex
100
AcDbPolyFaceMeshVertex
 10
3.808527956564047
 20
3.526299238204956
 30
-0.0000000008281644
 70
   192
  0
VERTEX
  5
B6C
330
B4D
100
AcDbEntity
  8
0
 62
     7
100
AcDbVertex
100
AcDbPolyFaceMeshVertex
 10
2.128972063619714
 20
3.526299238204956
 30
-0.000000000828164
 70
   192
  0
VERTEX
  5
B6D
330
B4D
100
AcDbEntity
  8
0
 62
     7
100
AcDbVertex
100
AcDbPolyFaceMeshVertex
 10
3.398691187460046
 20
3.664389371871948
 30
-0.0000000008281643
 70
   192
  0
VERTEX
  5
B6E
330
B4D
100
AcDbEntity
  8
0
 62
     7
100
AcDbVertex
100
AcDbPolyFaceMeshVertex
 10
1.758401880819421
 20
3.303334474563598
 30
-0.000000000828164
 70
   192
  0
VERTEX
  5
B6F
330
B4D
100
AcDbEntity
  8
0
 62
     7
100
AcDbVertex
100
AcDbPolyFaceMeshVertex
 10
4.493074427206135
 20
3.005920886993408
 30
-0.0000000008281645
 70
   192
  0
VERTEX
  5
B70
330
B4D
100
AcDbEntity
  8
0
 62
     7
100
AcDbVertex
100
AcDbPolyFaceMeshVertex
 10
1.444425592977623
 20
3.005920886993408
 30
-0.0000000008281639
 70
   192
  0
VERTEX
  5
B71
330
B4D
100
AcDbEntity
  8
0
 62
     7
100
AcDbVertex
100
AcDbPolyFaceMeshVertex
 10
4.179098139364336
 20
3.303334474563598
 30
-0.0000000008281644
 70
   192
  0
VERTEX
  5
B72
330
B4D
100
AcDbEntity
  8
0
 62
     7
100
AcDbVertex
100
AcDbPolyFaceMeshVertex
 10
1.201725969869713
 20
2.647965192794798
 30
-0.0000000008281639
 70
   192
  0
VERTEX
  5
B73
330
B4D
100
AcDbEntity
  8
0
 62
     7
100
AcDbVertex
100
AcDbPolyFaceMeshVertex
 10
4.895850191671467
 20
2.246205091476439
 30
-0.0000000008281646
 70
   192
  0
VERTEX
  5
B74
330
B4D
100
AcDbEntity
  8
0
 62
     7
100
AcDbVertex
100
AcDbPolyFaceMeshVertex
 10
1.041649828512293
 20
2.246205091476439
 30
-0.0000000008281638
 70
   192
  0
VERTEX
  5
B75
330
B4D
100
AcDbEntity
  8
0
 62
     7
100
AcDbVertex
100
AcDbPolyFaceMeshVertex
 10
4.735774050314045
 20
2.647965192794798
 30
-0.0000000008281645
 70
   192
  0
VERTEX
  5
B76
330
B4D
100
AcDbEntity
  8
0
 62
     7
100
AcDbVertex
100
AcDbPolyFaceMeshVertex
 10
0.9716830354519894
 20
1.819426178932189
 30
-0.0000000008281638
 70
   192
  0
VERTEX
  5
B77
330
B4D
100
AcDbEntity
  8
0
 62
     7
100
AcDbVertex
100
AcDbPolyFaceMeshVertex
 10
4.942402849752527
 20
1.387584328651428
 30
-0.0000000008281646
 70
   192
  0
VERTEX
  5
B78
330
B4D
100
AcDbEntity
  8
0
 62
     7
100
AcDbVertex
100
AcDbPolyFaceMeshVertex
 10
0.9950971704312374
 20
1.387584328651428
 30
-0.0000000008281638
 70
   192
  0
VERTEX
  5
B79
330
B4D
100
AcDbEntity
  8
0
 62
     7
100
AcDbVertex
100
AcDbPolyFaceMeshVertex
 10
4.965816507894617
 20
1.819426178932189
 30
-0.0000000008281646
 70
   192
  0
VERTEX
  5
B7A
330
B4D
100
AcDbEntity
  8
0
 62
     7
100
AcDbVertex
100
AcDbPolyFaceMeshVertex
 10
1.110796461660485
 20
0.9708719849586485
 30
-0.0000000008281639
 70
   192
  0
VERTEX
  5
B7B
330
B4D
100
AcDbEntity
  8
0
 62
     7
100
AcDbVertex
100
AcDbPolyFaceMeshVertex
 10
4.624128351766685
 20
0.5887742042541504
 30
-0.0000000008281645
 70
   192
  0
VERTEX
  5
B7C
330
B4D
100
AcDbEntity
  8
0
 62
     7
100
AcDbVertex
100
AcDbPolyFaceMeshVertex
 10
1.313371668417078
 20
0.5887742042541504
 30
-0.0000000008281639
 70
   192
  0
VERTEX
  5
B7D
330
B4D
100
AcDbEntity
  8
0
 62
     7
100
AcDbVertex
100
AcDbPolyFaceMeshVertex
 10
4.826703081686115
 20
0.9708719849586485
 30
-0.0000000008281645
 70
   192
  0
VERTEX
  5
B7E
330
B4D
100
AcDbEntity
  8
0
 62
     7
100
AcDbVertex
100
AcDbPolyFaceMeshVertex
 10
1.593351374227623
 20
0.2591573297977447
 30
-0.0000000008281639
 70
   192
  0
VERTEX
  5
B7F
330
B4D
100
AcDbEntity
  8
0
 62
     7
100
AcDbVertex
100
AcDbPolyFaceMeshVertex
 10
3.999857912618736
 20
-0.0025660302489996
 30
-0.0000000008281644
 70
   192
  0
VERTEX
  5
B80
330
B4D
100
AcDbEntity
  8
0
 62
     7
100
AcDbVertex
100
AcDbPolyFaceMeshVertex
 10
1.937642107565025
 20
-0.0025660302489996
 30
-0.000000000828164
 70
   192
  0
VERTEX
  5
B81
330
B4D
100
AcDbEntity
  8
0
 62
     7
100
AcDbVertex
100
AcDbPolyFaceMeshVertex
 10
4.344148645956135
 20
0.2591573297977447
 30
-0.0000000008281645
 70
   192
  0
VERTEX
  5
B82
330
B4D
100
AcDbEntity
  8
0
 62
     7
100
AcDbVertex
100
AcDbPolyFaceMeshVertex
 10
2.330146799642664
 20
-0.1841580271720886
 30
-0.0000000008281641
 70
   192
  0
VERTEX
  5
B83
330
B4D
100
AcDbEntity
  8
0
 62
     7
100
AcDbVertex
100
AcDbPolyFaceMeshVertex
 10
2.752511988241296
 20
-0.277127593755722
 30
-0.0000000008281642
 70
   192
  0
VERTEX
  5
B84
330
B4D
100
AcDbEntity
  8
0
 62
     7
100
AcDbVertex
100
AcDbPolyFaceMeshVertex
 10
3.607353220541096
 20
-0.1841580271720886
 30
-0.0000000008281643
 70
   192
  0
VERTEX
  5
B85
330
B4D
100
AcDbEntity
  8
0
 62
     7
100
AcDbVertex
100
AcDbPolyFaceMeshVertex
 10
3.184988031942468
 20
-0.277127593755722
 30
-0.0000000008281642
 70
   192
  0
VERTEX
  5
B86
330
B4D
100
AcDbEntity
  8
0
 62
     7
100
AcDbVertex
100
AcDbPolyFaceMeshVertex
 10
2.538808832723718
 20
3.664389371871948
 30
-0.0000000008281641
 70
   192
  0
VERTEX
  5
B87
330
B4D
100
AcDbEntity
  8
0
 62
     7
100
AcDbVertex
100
AcDbPolyFaceMeshVertex
 10
2.968750010091882
 20
3.711148262023924
 30
-0.0000000008281642
 70
   192
  0
VERTEX
  5
B88
330
B4D
100
AcDbEntity
  8
0
 62
     7
100
AcDbVertex
100
AcDbPolyFaceMeshVertex
 10
2.264053354818443
 20
3.879982948303221
 30
0.3032160691085881
 70
   192
  0
VERTEX
  5
B89
330
B4D
100
AcDbEntity
  8
0
 62
     7
100
AcDbVertex
100
AcDbPolyFaceMeshVertex
 10
1.561952601034265
 20
4.325416088104248
 30
2.249999999171835
 70
   192
  0
VERTEX
  5
B8A
330
B4D
100
AcDbEntity
  8
0
 62
     7
100
AcDbVertex
100
AcDbPolyFaceMeshVertex
 10
2.051355372030359
 20
4.534597396850585
 30
2.249999999171835
 70
   192
  0
VERTEX
  5
B8B
330
B4D
100
AcDbEntity
  8
0
 62
     7
100
AcDbVertex
100
AcDbPolyFaceMeshVertex
 10
2.065139780599693
 20
4.49217414855957
 30
1.726236938602071
 70
   192
  0
VERTEX
  5
B8C
330
B4D
100
AcDbEntity
  8
0
 62
     7
100
AcDbVertex
100
AcDbPolyFaceMeshVertex
 10
2.576232920248132
 20
4.608827590942381
 30
1.726236938602071
 70
   192
  0
VERTEX
  5
B8D
330
B4D
100
AcDbEntity
  8
0
 62
     7
100
AcDbVertex
100
AcDbPolyFaceMeshVertex
 10
2.576232920248132
 20
4.608827590942381
 30
2.773762940532308
 70
   192
  0
VERTEX
  5
B8E
330
B4D
100
AcDbEntity
  8
0
 62
     7
100
AcDbVertex
100
AcDbPolyFaceMeshVertex
 10
2.065139780599693
 20
4.49217414855957
 30
2.773762940532308
 70
   192
  0
VERTEX
  5
B8F
330
B4D
100
AcDbEntity
  8
0
 62
     7
100
AcDbVertex
100
AcDbPolyFaceMeshVertex
 10
2.106095324117761
 20
4.366126060485838
 30
3.282439707881552
 70
   192
  0
VERTEX
  5
B90
330
B4D
100
AcDbEntity
  8
0
 62
     7
100
AcDbVertex
100
AcDbPolyFaceMeshVertex
 10
1.645894060690025
 20
4.169426441192626
 30
3.282439707881552
 70
   192
  0
VERTEX
  5
B91
330
B4D
100
AcDbEntity
  8
0
 62
     7
100
AcDbVertex
100
AcDbPolyFaceMeshVertex
 10
1.748555193502525
 20
3.978649616241455
 30
3.761378525859457
 70
   192
  0
VERTEX
  5
B92
330
B4D
100
AcDbEntity
  8
0
 62
     7
100
AcDbVertex
100
AcDbPolyFaceMeshVertex
 10
1.888116846639734
 20
3.719300270080566
 30
4.196784018642049
 70
   192
  0
VERTEX
  5
B93
330
B4D
100
AcDbEntity
  8
0
 62
     7
100
AcDbVertex
100
AcDbPolyFaceMeshVertex
 10
1.029618273336511
 20
3.405316591262816
 30
3.761378525859457
 70
   192
  0
VERTEX
  5
B94
330
B4D
100
AcDbEntity
  8
0
 62
     7
100
AcDbVertex
100
AcDbPolyFaceMeshVertex
 10
1.363286982137779
 20
3.72433590888977
 30
3.761378525859457
 70
   192
  0
VERTEX
  5
B95
330
B4D
100
AcDbEntity
  8
0
 62
     7
100
AcDbVertex
100
AcDbPolyFaceMeshVertex
 10
1.228210459310632
 20
3.893716096878051
 30
3.282439707881552
 70
   192
  0
VERTEX
  5
B96
330
B4D
100
AcDbEntity
  8
0
 62
     7
100
AcDbVertex
100
AcDbPolyFaceMeshVertex
 10
1.583089838583093
 20
4.286136150360106
 30
2.773762940532308
 70
   192
  0
VERTEX
  5
B97
330
B4D
100
AcDbEntity
  8
0
 62
     7
100
AcDbVertex
100
AcDbPolyFaceMeshVertex
 10
1.583089838583093
 20
4.286136150360106
 30
1.726236938602071
 70
   192
  0
VERTEX
  5
B98
330
B4D
100
AcDbEntity
  8
0
 62
     7
100
AcDbVertex
100
AcDbPolyFaceMeshVertex
 10
1.117764483053308
 20
4.032210350036621
 30
2.249999999171835
 70
   192
  0
VERTEX
  5
B99
330
B4D
100
AcDbEntity
  8
0
 62
     7
100
AcDbVertex
100
AcDbPolyFaceMeshVertex
 10
1.748555193502525
 20
3.978649616241455
 30
0.7386214724842138
 70
   192
  0
VERTEX
  5
B9A
330
B4D
100
AcDbEntity
  8
0
 62
     7
100
AcDbVertex
100
AcDbPolyFaceMeshVertex
 10
1.645894060690025
 20
4.169426441192626
 30
1.217560171252828
 70
   192
  0
VERTEX
  5
B9B
330
B4D
100
AcDbEntity
  8
0
 62
     7
100
AcDbVertex
100
AcDbPolyFaceMeshVertex
 10
2.173042307455164
 20
4.160084247589111
 30
0.7386214724842138
 70
   192
  0
VERTEX
  5
B9C
330
B4D
100
AcDbEntity
  8
0
 62
     7
100
AcDbVertex
100
AcDbPolyFaceMeshVertex
 10
1.228210459310632
 20
3.893716096878051
 30
1.217560171252828
 70
   192
  0
VERTEX
  5
B9D
330
B4D
100
AcDbEntity
  8
0
 62
     7
100
AcDbVertex
100
AcDbPolyFaceMeshVertex
 10
1.363286982137779
 20
3.72433590888977
 30
0.7386214724842138
 70
   192
  0
VERTEX
  5
B9E
330
B4D
100
AcDbEntity
  8
0
 62
     7
100
AcDbVertex
100
AcDbPolyFaceMeshVertex
 10
1.145576487142664
 20
3.99733567237854
 30
1.726236938602071
 70
   192
  0
VERTEX
  5
B9F
330
B4D
100
AcDbEntity
  8
0
 62
     7
100
AcDbVertex
100
AcDbPolyFaceMeshVertex
 10
0.7666611772366574
 20
3.635055541992187
 30
1.726236938602071
 70
   192
  0
VERTEX
  5
BA0
330
B4D
100
AcDbEntity
  8
0
 62
     7
100
AcDbVertex
100
AcDbPolyFaceMeshVertex
 10
2.173042307455164
 20
4.160084247589111
 30
3.761378525859457
 70
   192
  0
VERTEX
  5
BA1
330
B4D
100
AcDbEntity
  8
0
 62
     7
100
AcDbVertex
100
AcDbPolyFaceMeshVertex
 10
1.145576487142664
 20
3.99733567237854
 30
2.773762940532308
 70
   192
  0
VERTEX
  5
BA2
330
B4D
100
AcDbEntity
  8
0
 62
     7
100
AcDbVertex
100
AcDbPolyFaceMeshVertex
 10
0.7666611772366574
 20
3.635055541992187
 30
2.773762940532308
 70
   192
  0
VERTEX
  5
BA3
330
B4D
100
AcDbEntity
  8
0
 62
     7
100
AcDbVertex
100
AcDbPolyFaceMeshVertex
 10
0.8664689164944698
 20
3.547855854034423
 30
1.217560171252828
 70
   192
  0
VERTEX
  5
BA4
330
B4D
100
AcDbEntity
  8
0
 62
     7
100
AcDbVertex
100
AcDbPolyFaceMeshVertex
 10
0.7330689531155637
 20
3.664403915405272
 30
2.249999999171835
 70
   192
  0
VERTEX
  5
BA5
330
B4D
100
AcDbEntity
  8
0
 62
     7
100
AcDbVertex
100
AcDbPolyFaceMeshVertex
 10
0.4202299218960813
 20
3.233818054199218
 30
2.249999999171835
 70
   192
  0
VERTEX
  5
BA6
330
B4D
100
AcDbEntity
  8
0
 62
     7
100
AcDbVertex
100
AcDbPolyFaceMeshVertex
 10
0.8664689164944698
 20
3.547855854034423
 30
3.282439707881552
 70
   192
  0
VERTEX
  5
BA7
330
B4D
100
AcDbEntity
  8
0
 62
     7
100
AcDbVertex
100
AcDbPolyFaceMeshVertex
 10
0.5722966295071652
 20
3.142962455749511
 30
3.282439707881552
 70
   192
  0
VERTEX
  5
BA8
330
B4D
100
AcDbEntity
  8
0
 62
     7
100
AcDbVertex
100
AcDbPolyFaceMeshVertex
 10
1.251409540731529
 20
3.211543083190916
 30
4.196784018642049
 70
   192
  0
VERTEX
  5
BA9
330
B4D
100
AcDbEntity
  8
0
 62
     7
100
AcDbVertex
100
AcDbPolyFaceMeshVertex
 10
1.011102686483484
 20
2.880788326263426
 30
4.196784018642049
 70
   192
  0
VERTEX
  5
BAA
330
B4D
100
AcDbEntity
  8
0
 62
     7
100
AcDbVertex
100
AcDbPolyFaceMeshVertex
 10
1.029618273336511
 20
3.405316591262816
 30
0.7386214724842138
 70
   192
  0
VERTEX
  5
BAB
330
B4D
100
AcDbEntity
  8
0
 62
     7
100
AcDbVertex
100
AcDbPolyFaceMeshVertex
 10
1.546914110738855
 20
3.49407410621643
 30
0.3032160691085881
 70
   192
  0
VERTEX
  5
BAC
330
B4D
100
AcDbEntity
  8
0
 62
     7
100
AcDbVertex
100
AcDbPolyFaceMeshVertex
 10
1.251409540731529
 20
3.211543083190916
 30
0.3032160691085881
 70
   192
  0
VERTEX
  5
BAD
330
B4D
100
AcDbEntity
  8
0
 62
     7
100
AcDbVertex
100
AcDbPolyFaceMeshVertex
 10
0.5722966295071652
 20
3.142962455749511
 30
1.217560171252828
 70
   192
  0
VERTEX
  5
BAE
330
B4D
100
AcDbEntity
  8
0
 62
     7
100
AcDbVertex
100
AcDbPolyFaceMeshVertex
 10
0.4585223298855841
 20
3.210939407348631
 30
1.726236938602071
 70
   192
  0
VERTEX
  5
BAF
330
B4D
100
AcDbEntity
  8
0
 62
     7
100
AcDbVertex
100
AcDbPolyFaceMeshVertex
 10
0.2310648065396368
 20
2.738618612289428
 30
1.726236938602071
 70
   192
  0
VERTEX
  5
BB0
330
B4D
100
AcDbEntity
  8
0
 62
     7
100
AcDbVertex
100
AcDbPolyFaceMeshVertex
 10
0.4585223298855841
 20
3.210939407348631
 30
2.773762940532308
 70
   192
  0
VERTEX
  5
BB1
330
B4D
100
AcDbEntity
  8
0
 62
     7
100
AcDbVertex
100
AcDbPolyFaceMeshVertex
 10
0.2310648065396368
 20
2.738618612289428
 30
2.773762940532308
 70
   192
  0
VERTEX
  5
BB2
330
B4D
100
AcDbEntity
  8
0
 62
     7
100
AcDbVertex
100
AcDbPolyFaceMeshVertex
 10
0.7582755189724982
 20
3.031845331192016
 30
3.761378525859457
 70
   192
  0
VERTEX
  5
BB3
330
B4D
100
AcDbEntity
  8
0
 62
     7
100
AcDbVertex
100
AcDbPolyFaceMeshVertex
 10
0.5579795938321164
 20
2.615925550460814
 30
3.761378525859457
 70
   192
  0
VERTEX
  5
BB4
330
B4D
100
AcDbEntity
  8
0
 62
     7
100
AcDbVertex
100
AcDbPolyFaceMeshVertex
 10
0.8337154489346554
 20
2.51244020462036
 30
0.3032160691085881
 70
   192
  0
VERTEX
  5
BB5
330
B4D
100
AcDbEntity
  8
0
 62
     7
100
AcDbVertex
100
AcDbPolyFaceMeshVertex
 10
0.3551483255215695
 20
2.692049503326416
 30
1.217560171252828
 70
   192
  0
VERTEX
  5
BB6
330
B4D
100
AcDbEntity
  8
0
 62
     7
100
AcDbVertex
100
AcDbPolyFaceMeshVertex
 10
0.7582755189724982
 20
3.031845331192016
 30
0.7386214724842138
 70
   192
  0
VERTEX
  5
BB7
330
B4D
100
AcDbEntity
  8
0
 62
     7
100
AcDbVertex
100
AcDbPolyFaceMeshVertex
 10
0.5579795938321164
 20
2.615925550460814
 30
0.7386214724842138
 70
   192
  0
VERTEX
  5
BB8
330
B4D
100
AcDbEntity
  8
0
 62
     7
100
AcDbVertex
100
AcDbPolyFaceMeshVertex
 10
0.0915985208340695
 20
2.233274221420288
 30
1.726236938602071
 70
   192
  0
VERTEX
  5
BB9
330
B4D
100
AcDbEntity
  8
0
 62
     7
100
AcDbVertex
100
AcDbPolyFaceMeshVertex
 10
0.1893029313870489
 20
2.754292249679564
 30
2.249999999171835
 70
   192
  0
VERTEX
  5
BBA
330
B4D
100
AcDbEntity
  8
0
 62
     7
100
AcDbVertex
100
AcDbPolyFaceMeshVertex
 10
0.0915985208340695
 20
2.233274221420288
 30
2.773762940532308
 70
   192
  0
VERTEX
  5
BBB
330
B4D
100
AcDbEntity
  8
0
 62
     7
100
AcDbVertex
100
AcDbPolyFaceMeshVertex
 10
0.3551483255215695
 20
2.692049503326416
 30
3.282439707881552
 70
   192
  0
VERTEX
  5
BBC
330
B4D
100
AcDbEntity
  8
0
 62
     7
100
AcDbVertex
100
AcDbPolyFaceMeshVertex
 10
0.4351673227139532
 20
2.170925855636596
 30
3.761378525859457
 70
   192
  0
VERTEX
  5
BBD
330
B4D
100
AcDbEntity
  8
0
 62
     7
100
AcDbVertex
100
AcDbPolyFaceMeshVertex
 10
0.7249498468228391
 20
2.118337869644165
 30
4.196784018642049
 70
   192
  0
VERTEX
  5
BBE
330
B4D
100
AcDbEntity
  8
0
 62
     7
100
AcDbVertex
100
AcDbPolyFaceMeshVertex
 10
0.4351673227139532
 20
2.170925855636596
 30
0.7386214724842138
 70
   192
  0
VERTEX
  5
BBF
330
B4D
100
AcDbEntity
  8
0
 62
     7
100
AcDbVertex
100
AcDbPolyFaceMeshVertex
 10
0.2220034700223028
 20
2.209609270095825
 30
1.217560171252828
 70
   192
  0
VERTEX
  5
BC0
330
B4D
100
AcDbEntity
  8
0
 62
     7
100
AcDbVertex
100
AcDbPolyFaceMeshVertex
 10
0.0446066957303106
 20
1.711148381233215
 30
1.726236938602071
 70
   192
  0
VERTEX
  5
BC1
330
B4D
100
AcDbEntity
  8
0
 62
     7
100
AcDbVertex
100
AcDbPolyFaceMeshVertex
 10
0.0477089982815793
 20
2.241239070892333
 30
2.249999999171835
 70
   192
  0
VERTEX
  5
BC2
330
B4D
100
AcDbEntity
  8
0
 62
     7
100
AcDbVertex
100
AcDbPolyFaceMeshVertex
 10
0.0446066957303106
 20
1.711148381233215
 30
2.773762940532308
 70
   192
  0
VERTEX
  5
BC3
330
B4D
100
AcDbEntity
  8
0
 62
     7
100
AcDbVertex
100
AcDbPolyFaceMeshVertex
 10
0.2220034700223028
 20
2.209609270095825
 30
3.282439707881552
 70
   192
  0
VERTEX
  5
BC4
330
B4D
100
AcDbEntity
  8
0
 62
     7
100
AcDbVertex
100
AcDbPolyFaceMeshVertex
 10
0.3937864404507687
 20
1.711148381233215
 30
3.761378525859457
 70
   192
  0
VERTEX
  5
BC5
330
B4D
100
AcDbEntity
  8
0
 62
     7
100
AcDbVertex
100
AcDbPolyFaceMeshVertex
 10
0.6883025270291388
 20
1.711148381233215
 30
0.3032160691085881
 70
   192
  0
VERTEX
  5
BC6
330
B4D
100
AcDbEntity
  8
0
 62
     7
100
AcDbVertex
100
AcDbPolyFaceMeshVertex
 10
0.7249498468228391
 20
1.303958654403686
 30
0.3032160691085881
 70
   192
  0
VERTEX
  5
BC7
330
B4D
100
AcDbEntity
  8
0
 62
     7
100
AcDbVertex
100
AcDbPolyFaceMeshVertex
 10
0.4351673227139532
 20
1.251370787620543
 30
0.7386214724842138
 70
   192
  0
VERTEX
  5
BC8
330
B4D
100
AcDbEntity
  8
0
 62
     7
100
AcDbVertex
100
AcDbPolyFaceMeshVertex
 10
1.011102686483484
 20
0.5415083765983582
 30
4.196784018642049
 70
   192
  0
VERTEX
  5
BC9
330
B4D
100
AcDbEntity
  8
0
 62
     7
100
AcDbVertex
100
AcDbPolyFaceMeshVertex
 10
0.8337154489346554
 20
0.9098564386367796
 30
4.196784018642049
 70
   192
  0
VERTEX
  5
BCA
330
B4D
100
AcDbEntity
  8
0
 62
     7
100
AcDbVertex
100
AcDbPolyFaceMeshVertex
 10
0.5579795938321164
 20
0.8063709735870361
 30
3.761378525859457
 70
   192
  0
VERTEX
  5
BCB
330
B4D
100
AcDbEntity
  8
0
 62
     7
100
AcDbVertex
100
AcDbPolyFaceMeshVertex
 10
0.2220034700223028
 20
1.212687373161314
 30
1.217560171252828
 70
   192
  0
VERTEX
  5
BCC
330
B4D
100
AcDbEntity
  8
0
 62
     7
100
AcDbVertex
100
AcDbPolyFaceMeshVertex
 10
0.3551483255215695
 20
0.7302472591400147
 30
1.217560171252828
 70
   192
  0
VERTEX
  5
BCD
330
B4D
100
AcDbEntity
  8
0
 62
     7
100
AcDbVertex
100
AcDbPolyFaceMeshVertex
 10
0.2310648065396368
 20
0.6836779117584229
 30
1.726236938602071
 70
   192
  0
VERTEX
  5
BCE
330
B4D
100
AcDbEntity
  8
0
 62
     7
100
AcDbVertex
100
AcDbPolyFaceMeshVertex
 10
0.0915985208340695
 20
1.189022302627563
 30
1.726236938602071
 70
   192
  0
VERTEX
  5
BCF
330
B4D
100
AcDbEntity
  8
0
 62
     7
100
AcDbVertex
100
AcDbPolyFaceMeshVertex
 10
0.1893029313870489
 20
0.6680043339729309
 30
2.249999999171835
 70
   192
  0
VERTEX
  5
BD0
330
B4D
100
AcDbEntity
  8
0
 62
     7
100
AcDbVertex
100
AcDbPolyFaceMeshVertex
 10
0.0477089982815793
 20
1.181057572364807
 30
2.249999999171835
 70
   192
  0
VERTEX
  5
BD1
330
B4D
100
AcDbEntity
  8
0
 62
     7
100
AcDbVertex
100
AcDbPolyFaceMeshVertex
 10
0.2310648065396368
 20
0.6836779117584229
 30
2.773762940532308
 70
   192
  0
VERTEX
  5
BD2
330
B4D
100
AcDbEntity
  8
0
 62
     7
100
AcDbVertex
100
AcDbPolyFaceMeshVertex
 10
0.0915985208340695
 20
1.189022302627563
 30
2.773762940532308
 70
   192
  0
VERTEX
  5
BD3
330
B4D
100
AcDbEntity
  8
0
 62
     7
100
AcDbVertex
100
AcDbPolyFaceMeshVertex
 10
0.3551483255215695
 20
0.7302472591400147
 30
3.282439707881552
 70
   192
  0
VERTEX
  5
BD4
330
B4D
100
AcDbEntity
  8
0
 62
     7
100
AcDbVertex
100
AcDbPolyFaceMeshVertex
 10
0.4202299218960813
 20
0.1884785890579223
 30
2.249999999171835
 70
   192
  0
VERTEX
  5
BD5
330
B4D
100
AcDbEntity
  8
0
 62
     7
100
AcDbVertex
100
AcDbPolyFaceMeshVertex
 10
0.2220034700223028
 20
1.212687373161314
 30
3.282439707881552
 70
   192
  0
VERTEX
  5
BD6
330
B4D
100
AcDbEntity
  8
0
 62
     7
100
AcDbVertex
100
AcDbPolyFaceMeshVertex
 10
0.4351673227139532
 20
1.251370787620543
 30
3.761378525859457
 70
   192
  0
VERTEX
  5
BD7
330
B4D
100
AcDbEntity
  8
0
 62
     7
100
AcDbVertex
100
AcDbPolyFaceMeshVertex
 10
0.5722966295071652
 20
0.279334157705307
 30
3.282439707881552
 70
   192
  0
VERTEX
  5
BD8
330
B4D
100
AcDbEntity
  8
0
 62
     7
100
AcDbVertex
100
AcDbPolyFaceMeshVertex
 10
0.7249498468228391
 20
1.303958654403686
 30
4.196784018642049
 70
   192
  0
VERTEX
  5
BD9
330
B4D
100
AcDbEntity
  8
0
 62
     7
100
AcDbVertex
100
AcDbPolyFaceMeshVertex
 10
1.011102686483484
 20
0.5415083765983582
 30
0.3032160691085881
 70
   192
  0
VERTEX
  5
BDA
330
B4D
100
AcDbEntity
  8
0
 62
     7
100
AcDbVertex
100
AcDbPolyFaceMeshVertex
 10
0.5579795938321164
 20
0.8063709735870361
 30
0.7386214724842138
 70
   192
  0
VERTEX
  5
BDB
330
B4D
100
AcDbEntity
  8
0
 62
     7
100
AcDbVertex
100
AcDbPolyFaceMeshVertex
 10
0.5722966295071652
 20
0.279334157705307
 30
1.217560171252828
 70
   192
  0
VERTEX
  5
BDC
330
B4D
100
AcDbEntity
  8
0
 62
     7
100
AcDbVertex
100
AcDbPolyFaceMeshVertex
 10
0.7582755189724982
 20
0.3904514014720917
 30
0.7386214724842138
 70
   192
  0
VERTEX
  5
BDD
330
B4D
100
AcDbEntity
  8
0
 62
     7
100
AcDbVertex
100
AcDbPolyFaceMeshVertex
 10
0.4585223298855841
 20
0.2113572359085083
 30
1.726236938602071
 70
   192
  0
VERTEX
  5
BDE
330
B4D
100
AcDbEntity
  8
0
 62
     7
100
AcDbVertex
100
AcDbPolyFaceMeshVertex
 10
0.7666611772366574
 20
-0.2127589285373688
 30
1.726236938602071
 70
   192
  0
VERTEX
  5
BDF
330
B4D
100
AcDbEntity
  8
0
 62
     7
100
AcDbVertex
100
AcDbPolyFaceMeshVertex
 10
0.4585223298855841
 20
0.2113572359085083
 30
2.773762940532308
 70
   192
  0
VERTEX
  5
BE0
330
B4D
100
AcDbEntity
  8
0
 62
     7
100
AcDbVertex
100
AcDbPolyFaceMeshVertex
 10
0.7666611772366574
 20
-0.2127589285373688
 30
2.773762940532308
 70
   192
  0
VERTEX
  5
BE1
330
B4D
100
AcDbEntity
  8
0
 62
     7
100
AcDbVertex
100
AcDbPolyFaceMeshVertex
 10
0.7582755189724982
 20
0.3904514014720917
 30
3.761378525859457
 70
   192
  0
VERTEX
  5
BE2
330
B4D
100
AcDbEntity
  8
0
 62
     7
100
AcDbVertex
100
AcDbPolyFaceMeshVertex
 10
1.029618273336511
 20
0.0169801265001297
 30
3.761378525859457
 70
   192
  0
VERTEX
  5
BE3
330
B4D
100
AcDbEntity
  8
0
 62
     7
100
AcDbVertex
100
AcDbPolyFaceMeshVertex
 10
0.8664689164944698
 20
-0.1255592405796051
 30
1.217560171252828
 70
   192
  0
VERTEX
  5
BE4
330
B4D
100
AcDbEntity
  8
0
 62
     7
100
AcDbVertex
100
AcDbPolyFaceMeshVertex
 10
1.145576487142664
 20
-0.5750391483306885
 30
1.726236938602071
 70
   192
  0
VERTEX
  5
BE5
330
B4D
100
AcDbEntity
  8
0
 62
     7
100
AcDbVertex
100
AcDbPolyFaceMeshVertex
 10
0.7330689531155637
 20
-0.2421072721481323
 30
2.249999999171835
 70
   192
  0
VERTEX
  5
BE6
330
B4D
100
AcDbEntity
  8
0
 62
     7
100
AcDbVertex
100
AcDbPolyFaceMeshVertex
 10
1.145576487142664
 20
-0.5750391483306885
 30
2.773762940532308
 70
   192
  0
VERTEX
  5
BE7
330
B4D
100
AcDbEntity
  8
0
 62
     7
100
AcDbVertex
100
AcDbPolyFaceMeshVertex
 10
0.8664689164944698
 20
-0.1255592405796051
 30
3.282439707881552
 70
   192
  0
VERTEX
  5
BE8
330
B4D
100
AcDbEntity
  8
0
 62
     7
100
AcDbVertex
100
AcDbPolyFaceMeshVertex
 10
1.363286982137779
 20
-0.3020392060279846
 30
3.761378525859457
 70
   192
  0
VERTEX
  5
BE9
330
B4D
100
AcDbEntity
  8
0
 62
     7
100
AcDbVertex
100
AcDbPolyFaceMeshVertex
 10
1.546914110738855
 20
-0.0717774331569672
 30
0.3032160691085881
 70
   192
  0
VERTEX
  5
BEA
330
B4D
100
AcDbEntity
  8
0
 62
     7
100
AcDbVertex
100
AcDbPolyFaceMeshVertex
 10
1.546914110738855
 20
-0.0717774331569672
 30
4.196784018642049
 70
   192
  0
VERTEX
  5
BEB
330
B4D
100
AcDbEntity
  8
0
 62
     7
100
AcDbVertex
100
AcDbPolyFaceMeshVertex
 10
1.888116846639734
 20
-0.2970036864280701
 30
0.3032160691085881
 70
   192
  0
VERTEX
  5
BEC
330
B4D
100
AcDbEntity
  8
0
 62
     7
100
AcDbVertex
100
AcDbPolyFaceMeshVertex
 10
1.748555193502525
 20
-0.5563530325889589
 30
0.7386214724842138
 70
   192
  0
VERTEX
  5
BED
330
B4D
100
AcDbEntity
  8
0
 62
     7
100
AcDbVertex
100
AcDbPolyFaceMeshVertex
 10
1.228210459310632
 20
-0.4714193642139435
 30
1.217560171252828
 70
   192
  0
VERTEX
  5
BEE
330
B4D
100
AcDbEntity
  8
0
 62
     7
100
AcDbVertex
100
AcDbPolyFaceMeshVertex
 10
1.029618273336511
 20
0.0169801265001297
 30
0.7386214724842138
 70
   192
  0
VERTEX
  5
BEF
330
B4D
100
AcDbEntity
  8
0
 62
     7
100
AcDbVertex
100
AcDbPolyFaceMeshVertex
 10
1.363286982137779
 20
-0.3020392060279846
 30
0.7386214724842138
 70
   192
  0
VERTEX
  5
BF0
330
B4D
100
AcDbEntity
  8
0
 62
     7
100
AcDbVertex
100
AcDbPolyFaceMeshVertex
 10
1.583089838583093
 20
-0.8638393878936765
 30
1.726236938602071
 70
   192
  0
VERTEX
  5
BF1
330
B4D
100
AcDbEntity
  8
0
 62
     7
100
AcDbVertex
100
AcDbPolyFaceMeshVertex
 10
1.117764483053308
 20
-0.6099138855934143
 30
2.249999999171835
 70
   192
  0
VERTEX
  5
BF2
330
B4D
100
AcDbEntity
  8
0
 62
     7
100
AcDbVertex
100
AcDbPolyFaceMeshVertex
 10
1.583089838583093
 20
-0.8638393878936765
 30
2.773762940532308
 70
   192
  0
VERTEX
  5
BF3
330
B4D
100
AcDbEntity
  8
0
 62
     7
100
AcDbVertex
100
AcDbPolyFaceMeshVertex
 10
1.228210459310632
 20
-0.4714193642139435
 30
3.282439707881552
 70
   192
  0
VERTEX
  5
BF4
330
B4D
100
AcDbEntity
  8
0
 62
     7
100
AcDbVertex
100
AcDbPolyFaceMeshVertex
 10
1.748555193502525
 20
-0.5563530325889589
 30
3.761378525859457
 70
   192
  0
VERTEX
  5
BF5
330
B4D
100
AcDbEntity
  8
0
 62
     7
100
AcDbVertex
100
AcDbPolyFaceMeshVertex
 10
2.662637720663171
 20
-0.5486606955528261
 30
4.196784018642049
 70
   192
  0
VERTEX
  5
BF6
330
B4D
100
AcDbEntity
  8
0
 62
     7
100
AcDbVertex
100
AcDbPolyFaceMeshVertex
 10
2.264053354818443
 20
-0.4576862752437593
 30
4.196784018642049
 70
   192
  0
VERTEX
  5
BF7
330
B4D
100
AcDbEntity
  8
0
 62
     7
100
AcDbVertex
100
AcDbPolyFaceMeshVertex
 10
2.173042307455164
 20
-0.7377874851226807
 30
3.761378525859457
 70
   192
  0
VERTEX
  5
BF8
330
B4D
100
AcDbEntity
  8
0
 62
     7
100
AcDbVertex
100
AcDbPolyFaceMeshVertex
 10
1.645894060690025
 20
-0.7471299171447754
 30
3.282439707881552
 70
   192
  0
VERTEX
  5
BF9
330
B4D
100
AcDbEntity
  8
0
 62
     7
100
AcDbVertex
100
AcDbPolyFaceMeshVertex
 10
1.561952601034265
 20
-0.9031196832656858
 30
2.249999999171835
 70
   192
  0
VERTEX
  5
BFA
330
B4D
100
AcDbEntity
  8
0
 62
     7
100
AcDbVertex
100
AcDbPolyFaceMeshVertex
 10
2.065139780599693
 20
-1.069877386093138
 30
2.773762940532308
 70
   192
  0
VERTEX
  5
BFB
330
B4D
100
AcDbEntity
  8
0
 62
     7
100
AcDbVertex
100
AcDbPolyFaceMeshVertex
 10
1.645894060690025
 20
-0.7471299171447754
 30
1.217560171252828
 70
   192
  0
VERTEX
  5
BFC
330
B4D
100
AcDbEntity
  8
0
 62
     7
100
AcDbVertex
100
AcDbPolyFaceMeshVertex
 10
2.065139780599693
 20
-1.069877386093138
 30
1.726236938602071
 70
   192
  0
VERTEX
  5
BFD
330
B4D
100
AcDbEntity
  8
0
 62
     7
100
AcDbVertex
100
AcDbPolyFaceMeshVertex
 10
2.106095324117761
 20
-0.9438294768333436
 30
1.217560171252828
 70
   192
  0
VERTEX
  5
BFE
330
B4D
100
AcDbEntity
  8
0
 62
     7
100
AcDbVertex
100
AcDbPolyFaceMeshVertex
 10
2.051355372030359
 20
-1.112300753593444
 30
2.249999999171835
 70
   192
  0
VERTEX
  5
BFF
330
B4D
100
AcDbEntity
  8
0
 62
     7
100
AcDbVertex
100
AcDbPolyFaceMeshVertex
 10
2.570244799215416
 20
-1.23073375225067
 30
2.249999999171835
 70
   192
  0
VERTEX
  5
C00
330
B4D
100
AcDbEntity
  8
0
 62
     7
100
AcDbVertex
100
AcDbPolyFaceMeshVertex
 10
2.106095324117761
 20
-0.9438294768333436
 30
3.282439707881552
 70
   192
  0
VERTEX
  5
C01
330
B4D
100
AcDbEntity
  8
0
 62
     7
100
AcDbVertex
100
AcDbPolyFaceMeshVertex
 10
2.594022760946373
 20
-1.055195808410644
 30
3.282439707881552
 70
   192
  0
VERTEX
  5
C02
330
B4D
100
AcDbEntity
  8
0
 62
     7
100
AcDbVertex
100
AcDbPolyFaceMeshVertex
 10
3.071062098104576
 20
-0.567003071308136
 30
4.196784018642049
 70
   192
  0
VERTEX
  5
C03
330
B4D
100
AcDbEntity
  8
0
 62
     7
100
AcDbVertex
100
AcDbPolyFaceMeshVertex
 10
2.623104105550867
 20
-0.84051114320755
 30
3.761378525859457
 70
   192
  0
VERTEX
  5
C04
330
B4D
100
AcDbEntity
  8
0
 62
     7
100
AcDbVertex
100
AcDbPolyFaceMeshVertex
 10
2.264053354818443
 20
-0.4576862752437593
 30
0.3032160691085881
 70
   192
  0
VERTEX
  5
C05
330
B4D
100
AcDbEntity
  8
0
 62
     7
100
AcDbVertex
100
AcDbPolyFaceMeshVertex
 10
2.173042307455164
 20
-0.7377874851226807
 30
0.7386214724842138
 70
   192
  0
VERTEX
  5
C06
330
B4D
100
AcDbEntity
  8
0
 62
     7
100
AcDbVertex
100
AcDbPolyFaceMeshVertex
 10
2.594022760946373
 20
-1.055195808410644
 30
1.217560171252828
 70
   192
  0
VERTEX
  5
C07
330
B4D
100
AcDbEntity
  8
0
 62
     7
100
AcDbVertex
100
AcDbPolyFaceMeshVertex
 10
2.576232920248132
 20
-1.186530947685241
 30
1.726236938602071
 70
   192
  0
VERTEX
  5
C08
330
B4D
100
AcDbEntity
  8
0
 62
     7
100
AcDbVertex
100
AcDbPolyFaceMeshVertex
 10
3.101942072469812
 20
-1.254612326622009
 30
2.249999999171835
 70
   192
  0
VERTEX
  5
C09
330
B4D
100
AcDbEntity
  8
0
 62
     7
100
AcDbVertex
100
AcDbPolyFaceMeshVertex
 10
2.576232920248132
 20
-1.186530947685241
 30
2.773762940532308
 70
   192
  0
VERTEX
  5
C0A
330
B4D
100
AcDbEntity
  8
0
 62
     7
100
AcDbVertex
100
AcDbPolyFaceMeshVertex
 10
3.093995104391199
 20
-1.077649593353271
 30
3.282439707881552
 70
   192
  0
VERTEX
  5
C0B
330
B4D
100
AcDbEntity
  8
0
 62
     7
100
AcDbVertex
100
AcDbPolyFaceMeshVertex
 10
3.071062098104576
 20
-0.567003071308136
 30
0.3032160691085881
 70
   192
  0
VERTEX
  5
C0C
330
B4D
100
AcDbEntity
  8
0
 62
     7
100
AcDbVertex
100
AcDbPolyFaceMeshVertex
 10
2.623104105550867
 20
-0.84051114320755
 30
0.7386214724842138
 70
   192
  0
VERTEX
  5
C0D
330
B4D
100
AcDbEntity
  8
0
 62
     7
100
AcDbVertex
100
AcDbPolyFaceMeshVertex
 10
3.093995104391199
 20
-1.077649593353271
 30
1.217560171252828
 70
   192
  0
VERTEX
  5
C0E
330
B4D
100
AcDbEntity
  8
0
 62
     7
100
AcDbVertex
100
AcDbPolyFaceMeshVertex
 10
3.084275255758386
 20
-0.8612223267555235
 30
0.7386214724842138
 70
   192
  0
VERTEX
  5
C0F
330
B4D
100
AcDbEntity
  8
0
 62
     7
100
AcDbVertex
100
AcDbPolyFaceMeshVertex
 10
3.099941263753992
 20
-1.210050702095031
 30
1.726236938602071
 70
   192
  0
VERTEX
  5
C10
330
B4D
100
AcDbEntity
  8
0
 62
     7
100
AcDbVertex
100
AcDbPolyFaceMeshVertex
 10
3.619433413107016
 20
-1.139680743217468
 30
1.726236938602071
 70
   192
  0
VERTEX
  5
C11
330
B4D
100
AcDbEntity
  8
0
 62
     7
100
AcDbVertex
100
AcDbPolyFaceMeshVertex
 10
3.099941263753992
 20
-1.210050702095031
 30
2.773762940532308
 70
   192
  0
VERTEX
  5
C12
330
B4D
100
AcDbEntity
  8
0
 62
     7
100
AcDbVertex
100
AcDbPolyFaceMeshVertex
 10
3.619433413107016
 20
-1.139680743217468
 30
2.773762940532308
 70
   192
  0
VERTEX
  5
C13
330
B4D
100
AcDbEntity
  8
0
 62
     7
100
AcDbVertex
100
AcDbPolyFaceMeshVertex
 10
3.084275255758386
 20
-0.8612223267555235
 30
3.761378525859457
 70
   192
  0
VERTEX
  5
C14
330
B4D
100
AcDbEntity
  8
0
 62
     7
100
AcDbVertex
100
AcDbPolyFaceMeshVertex
 10
3.541732798177816
 20
-0.7992554306983948
 30
3.761378525859457
 70
   192
  0
VERTEX
  5
C15
330
B4D
100
AcDbEntity
  8
0
 62
     7
100
AcDbVertex
100
AcDbPolyFaceMeshVertex
 10
3.589941034872156
 20
-1.010469079017638
 30
1.217560171252828
 70
   192
  0
VERTEX
  5
C16
330
B4D
100
AcDbEntity
  8
0
 62
     7
100
AcDbVertex
100
AcDbPolyFaceMeshVertex
 10
4.118011484701256
 20
-0.9776828289031982
 30
1.726236938602071
 70
   192
  0
VERTEX
  5
C17
330
B4D
100
AcDbEntity
  8
0
 62
     7
100
AcDbVertex
100
AcDbPolyFaceMeshVertex
 10
3.629359255392175
 20
-1.183168888092041
 30
2.249999999171835
 70
   192
  0
VERTEX
  5
C18
330
B4D
100
AcDbEntity
  8
0
 62
     7
100
AcDbVertex
100
AcDbPolyFaceMeshVertex
 10
4.118011484701256
 20
-0.9776828289031982
 30
2.773762940532308
 70
   192
  0
VERTEX
  5
C19
330
B4D
100
AcDbEntity
  8
0
 62
     7
100
AcDbVertex
100
AcDbPolyFaceMeshVertex
 10
3.589941034872156
 20
-1.010469079017638
 30
3.282439707881552
 70
   192
  0
VERTEX
  5
C1A
330
B4D
100
AcDbEntity
  8
0
 62
     7
100
AcDbVertex
100
AcDbPolyFaceMeshVertex
 10
3.980774889547447
 20
-0.656602144241333
 30
3.761378525859457
 70
   192
  0
VERTEX
  5
C1B
330
B4D
100
AcDbEntity
  8
0
 62
     7
100
AcDbVertex
100
AcDbPolyFaceMeshVertex
 10
3.865022669393637
 20
-0.38578662276268
 30
0.3032160691085881
 70
   192
  0
VERTEX
  5
C1C
330
B4D
100
AcDbEntity
  8
0
 62
     7
100
AcDbVertex
100
AcDbPolyFaceMeshVertex
 10
3.865022669393637
 20
-0.38578662276268
 30
4.196784018642049
 70
   192
  0
VERTEX
  5
C1D
330
B4D
100
AcDbEntity
  8
0
 62
     7
100
AcDbVertex
100
AcDbPolyFaceMeshVertex
 10
4.225041399557216
 20
-0.1920522898435593
 30
0.3032160691085881
 70
   192
  0
VERTEX
  5
C1E
330
B4D
100
AcDbEntity
  8
0
 62
     7
100
AcDbVertex
100
AcDbPolyFaceMeshVertex
 10
4.387290011007404
 20
-0.4378473460674286
 30
0.7386214724842138
 70
   192
  0
VERTEX
  5
C1F
330
B4D
100
AcDbEntity
  8
0
 62
     7
100
AcDbVertex
100
AcDbPolyFaceMeshVertex
 10
4.065921793539146
 20
-0.8558135032653806
 30
1.217560171252828
 70
   192
  0
VERTEX
  5
C20
330
B4D
100
AcDbEntity
  8
0
 62
     7
100
AcDbVertex
100
AcDbPolyFaceMeshVertex
 10
3.541732798177816
 20
-0.7992554306983948
 30
0.7386214724842138
 70
   192
  0
VERTEX
  5
C21
330
B4D
100
AcDbEntity
  8
0
 62
     7
100
AcDbVertex
100
AcDbPolyFaceMeshVertex
 10
3.980774889547447
 20
-0.656602144241333
 30
0.7386214724842138
 70
   192
  0
VERTEX
  5
C22
330
B4D
100
AcDbEntity
  8
0
 62
     7
100
AcDbVertex
100
AcDbPolyFaceMeshVertex
 10
4.579651842672447
 20
-0.7292636632919312
 30
1.726236938602071
 70
   192
  0
VERTEX
  5
C23
330
B4D
100
AcDbEntity
  8
0
 62
     7
100
AcDbVertex
100
AcDbPolyFaceMeshVertex
 10
4.135542879659755
 20
-1.018699765205383
 30
2.249999999171835
 70
   192
  0
VERTEX
  5
C24
330
B4D
100
AcDbEntity
  8
0
 62
     7
100
AcDbVertex
100
AcDbPolyFaceMeshVertex
 10
4.579651842672447
 20
-0.7292636632919312
 30
2.773762940532308
 70
   192
  0
VERTEX
  5
C25
330
B4D
100
AcDbEntity
  8
0
 62
     7
100
AcDbVertex
100
AcDbPolyFaceMeshVertex
 10
4.065921793539146
 20
-0.8558135032653806
 30
3.282439707881552
 70
   192
  0
VERTEX
  5
C26
330
B4D
100
AcDbEntity
  8
0
 62
     7
100
AcDbVertex
100
AcDbPolyFaceMeshVertex
 10
4.387290011007404
 20
-0.4378473460674286
 30
3.761378525859457
 70
   192
  0
VERTEX
  5
C27
330
B4D
100
AcDbEntity
  8
0
 62
     7
100
AcDbVertex
100
AcDbPolyFaceMeshVertex
 10
4.813671122152424
 20
0.370734840631485
 30
4.196784018642049
 70
   192
  0
VERTEX
  5
C28
330
B4D
100
AcDbEntity
  8
0
 62
     7
100
AcDbVertex
100
AcDbPolyFaceMeshVertex
 10
4.544682512838466
 20
0.0628524795174599
 30
4.196784018642049
 70
   192
  0
VERTEX
  5
C29
330
B4D
100
AcDbEntity
  8
0
 62
     7
100
AcDbVertex
100
AcDbPolyFaceMeshVertex
 10
4.748210917074306
 20
-0.1500220596790314
 30
3.761378525859457
 70
   192
  0
VERTEX
  5
C2A
330
B4D
100
AcDbEntity
  8
0
 62
     7
100
AcDbVertex
100
AcDbPolyFaceMeshVertex
 10
4.506638537008386
 20
-0.6186537742614746
 30
3.282439707881552
 70
   192
  0
VERTEX
  5
C2B
330
B4D
100
AcDbEntity
  8
0
 62
     7
100
AcDbVertex
100
AcDbPolyFaceMeshVertex
 10
4.604225168783287
 20
-0.7664909958839417
 30
2.249999999171835
 70
   192
  0
VERTEX
  5
C2C
330
B4D
100
AcDbEntity
  8
0
 62
     7
100
AcDbVertex
100
AcDbPolyFaceMeshVertex
 10
4.989516268331627
 20
-0.4024075865745546
 30
2.773762940532308
 70
   192
  0
VERTEX
  5
C2D
330
B4D
100
AcDbEntity
  8
0
 62
     7
100
AcDbVertex
100
AcDbPolyFaceMeshVertex
 10
4.506638537008386
 20
-0.6186537742614746
 30
1.217560171252828
 70
   192
  0
VERTEX
  5
C2E
330
B4D
100
AcDbEntity
  8
0
 62
     7
100
AcDbVertex
100
AcDbPolyFaceMeshVertex
 10
4.989516268331627
 20
-0.4024075865745546
 30
1.726236938602071
 70
   192
  0
VERTEX
  5
C2F
330
B4D
100
AcDbEntity
  8
0
 62
     7
100
AcDbVertex
100
AcDbPolyFaceMeshVertex
 10
4.897926340658287
 20
-0.3066121935844421
 30
1.217560171252828
 70
   192
  0
VERTEX
  5
C30
330
B4D
100
AcDbEntity
  8
0
 62
     7
100
AcDbVertex
100
AcDbPolyFaceMeshVertex
 10
5.020341883260826
 20
-0.4346489310264589
 30
2.249999999171835
 70
   192
  0
VERTEX
  5
C31
330
B4D
100
AcDbEntity
  8
0
 62
     7
100
AcDbVertex
100
AcDbPolyFaceMeshVertex
 10
5.370519648153406
 20
-0.0338391475379467
 30
2.249999999171835
 70
   192
  0
VERTEX
  5
C32
330
B4D
100
AcDbEntity
  8
0
 62
     7
100
AcDbVertex
100
AcDbPolyFaceMeshVertex
 10
4.897926340658287
 20
-0.3066121935844421
 30
3.282439707881552
 70
   192
  0
VERTEX
  5
C33
330
B4D
100
AcDbEntity
  8
0
 62
     7
100
AcDbVertex
100
AcDbPolyFaceMeshVertex
 10
5.227209101278406
 20
0.0702818185091019
 30
3.282439707881552
 70
   192
  0
VERTEX
  5
C34
330
B4D
100
AcDbEntity
  8
0
 62
     7
100
AcDbVertex
100
AcDbPolyFaceMeshVertex
 10
5.023362169820886
 20
0.7216991782188416
 30
4.196784018642049
 70
   192
  0
VERTEX
  5
C35
330
B4D
100
AcDbEntity
  8
0
 62
     7
100
AcDbVertex
100
AcDbPolyFaceMeshVertex
 10
5.051939020711994
 20
0.1976227611303329
 30
3.761378525859457
 70
   192
  0
VERTEX
  5
C36
330
B4D
100
AcDbEntity
  8
0
 62
     7
100
AcDbVertex
100
AcDbPolyFaceMeshVertex
 10
4.544682512838466
 20
0.0628524795174599
 30
0.3032160691085881
 70
   192
  0
VERTEX
  5
C37
330
B4D
100
AcDbEntity
  8
0
 62
     7
100
AcDbVertex
100
AcDbPolyFaceMeshVertex
 10
4.748210917074306
 20
-0.1500220596790314
 30
0.7386214724842138
 70
   192
  0
VERTEX
  5
C38
330
B4D
100
AcDbEntity
  8
0
 62
     7
100
AcDbVertex
100
AcDbPolyFaceMeshVertex
 10
5.227209101278406
 20
0.0702818185091019
 30
1.217560171252828
 70
   192
  0
VERTEX
  5
C39
330
B4D
100
AcDbEntity
  8
0
 62
     7
100
AcDbVertex
100
AcDbPolyFaceMeshVertex
 10
5.334431658346277
 20
-0.0076201031915844
 30
1.726236938602071
 70
   192
  0
VERTEX
  5
C3A
330
B4D
100
AcDbEntity
  8
0
 62
     7
100
AcDbVertex
100
AcDbPolyFaceMeshVertex
 10
5.643501291830157
 20
0.4230559766292572
 30
2.249999999171835
 70
   192
  0
VERTEX
  5
C3B
330
B4D
100
AcDbEntity
  8
0
 62
     7
100
AcDbVertex
100
AcDbPolyFaceMeshVertex
 10
5.334431658346277
 20
-0.0076201031915844
 30
2.773762940532308
 70
   192
  0
VERTEX
  5
C3C
330
B4D
100
AcDbEntity
  8
0
 62
     7
100
AcDbVertex
100
AcDbPolyFaceMeshVertex
 10
5.483902941305256
 20
0.4999146461486818
 30
3.282439707881552
 70
   192
  0
VERTEX
  5
C3D
330
B4D
100
AcDbEntity
  8
0
 62
     7
100
AcDbVertex
100
AcDbPolyFaceMeshVertex
 10
5.023362169820886
 20
0.7216991782188416
 30
0.3032160691085881
 70
   192
  0
VERTEX
  5
C3E
330
B4D
100
AcDbEntity
  8
0
 62
     7
100
AcDbVertex
100
AcDbPolyFaceMeshVertex
 10
5.051939020711994
 20
0.1976227611303329
 30
0.7386214724842138
 70
   192
  0
VERTEX
  5
C3F
330
B4D
100
AcDbEntity
  8
0
 62
     7
100
AcDbVertex
100
AcDbPolyFaceMeshVertex
 10
5.483902941305256
 20
0.4999146461486818
 30
1.217560171252828
 70
   192
  0
VERTEX
  5
C40
330
B4D
100
AcDbEntity
  8
0
 62
     7
100
AcDbVertex
100
AcDbPolyFaceMeshVertex
 10
5.288711557943447
 20
0.5939135551452637
 30
0.7386214724842138
 70
   192
  0
VERTEX
  5
C41
330
B4D
100
AcDbEntity
  8
0
 62
     7
100
AcDbVertex
100
AcDbPolyFaceMeshVertex
 10
5.603312502462486
 20
0.4424099922180176
 30
1.726236938602071
 70
   192
  0
VERTEX
  5
C42
330
B4D
100
AcDbEntity
  8
0
 62
     7
100
AcDbVertex
100
AcDbPolyFaceMeshVertex
 10
5.787515650350666
 20
0.9332184195518491
 30
1.726236938602071
 70
   192
  0
VERTEX
  5
C43
330
B4D
100
AcDbEntity
  8
0
 62
     7
100
AcDbVertex
100
AcDbPolyFaceMeshVertex
 10
5.603312502462486
 20
0.4424099922180176
 30
2.773762940532308
 70
   192
  0
VERTEX
  5
C44
330
B4D
100
AcDbEntity
  8
0
 62
     7
100
AcDbVertex
100
AcDbPolyFaceMeshVertex
 10
5.787515650350666
 20
0.9332184195518491
 30
2.773762940532308
 70
   192
  0
VERTEX
  5
C45
330
B4D
100
AcDbEntity
  8
0
 62
     7
100
AcDbVertex
100
AcDbPolyFaceMeshVertex
 10
5.288711557943447
 20
0.5939135551452637
 30
3.761378525859457
 70
   192
  0
VERTEX
  5
C46
330
B4D
100
AcDbEntity
  8
0
 62
     7
100
AcDbVertex
100
AcDbPolyFaceMeshVertex
 10
5.450919161398037
 20
1.026113152503967
 30
3.761378525859457
 70
   192
  0
VERTEX
  5
C47
330
B4D
100
AcDbEntity
  8
0
 62
     7
100
AcDbVertex
100
AcDbPolyFaceMeshVertex
 10
5.659757624227626
 20
0.9684774875640867
 30
1.217560171252828
 70
   192
  0
VERTEX
  5
C48
330
B4D
100
AcDbEntity
  8
0
 62
     7
100
AcDbVertex
100
AcDbPolyFaceMeshVertex
 10
5.881121645528896
 20
1.449030160903929
 30
1.726236938602071
 70
   192
  0
VERTEX
  5
C49
330
B4D
100
AcDbEntity
  8
0
 62
     7
100
AcDbVertex
100
AcDbPolyFaceMeshVertex
 10
5.830514917928796
 20
0.9213514328002927
 30
2.249999999171835
 70
   192
  0
VERTEX
  5
C4A
330
B4D
100
AcDbEntity
  8
0
 62
     7
100
AcDbVertex
100
AcDbPolyFaceMeshVertex
 10
5.881121645528896
 20
1.449030160903929
 30
2.773762940532308
 70
   192
  0
VERTEX
  5
C4B
330
B4D
100
AcDbEntity
  8
0
 62
     7
100
AcDbVertex
100
AcDbPolyFaceMeshVertex
 10
5.659757624227626
 20
0.9684774875640867
 30
3.282439707881552
 70
   192
  0
VERTEX
  5
C4C
330
B4D
100
AcDbEntity
  8
0
 62
     7
100
AcDbVertex
100
AcDbPolyFaceMeshVertex
 10
5.533347139913654
 20
1.48033034801483
 30
3.761378525859457
 70
   192
  0
VERTEX
  5
C4D
330
B4D
100
AcDbEntity
  8
0
 62
     7
100
AcDbVertex
100
AcDbPolyFaceMeshVertex
 10
5.240016947347736
 20
1.506730556488036
 30
0.3032160691085881
 70
   192
  0
VERTEX
  5
C4E
330
B4D
100
AcDbEntity
  8
0
 62
     7
100
AcDbVertex
100
AcDbPolyFaceMeshVertex
 10
5.240016947347736
 20
1.506730556488036
 30
4.196784018642049
 70
   192
  0
VERTEX
  5
C4F
330
B4D
100
AcDbEntity
  8
0
 62
     7
100
AcDbVertex
100
AcDbPolyFaceMeshVertex
 10
5.240016947347736
 20
1.915566086769104
 30
0.3032160691085881
 70
   192
  0
VERTEX
  5
C50
330
B4D
100
AcDbEntity
  8
0
 62
     7
100
AcDbVertex
100
AcDbPolyFaceMeshVertex
 10
5.533347139913654
 20
1.941966295242308
 30
0.7386214724842138
 70
   192
  0
VERTEX
  5
C51
330
B4D
100
AcDbEntity
  8
0
 62
     7
100
AcDbVertex
100
AcDbPolyFaceMeshVertex
 10
5.749120722372156
 20
1.460910439491271
 30
1.217560171252828
 70
   192
  0
VERTEX
  5
C52
330
B4D
100
AcDbEntity
  8
0
 62
     7
100
AcDbVertex
100
AcDbPolyFaceMeshVertex
 10
5.450919161398037
 20
1.026113152503967
 30
0.7386214724842138
 70
   192
  0
VERTEX
  5
C53
330
B4D
100
AcDbEntity
  8
0
 62
     7
100
AcDbVertex
100
AcDbPolyFaceMeshVertex
 10
5.533347139913654
 20
1.48033034801483
 30
0.7386214724842138
 70
   192
  0
VERTEX
  5
C54
330
B4D
100
AcDbEntity
  8
0
 62
     7
100
AcDbVertex
100
AcDbPolyFaceMeshVertex
 10
5.881121645528896
 20
1.973266482353209
 30
1.726236938602071
 70
   192
  0
VERTEX
  5
C55
330
B4D
100
AcDbEntity
  8
0
 62
     7
100
AcDbVertex
100
AcDbPolyFaceMeshVertex
 10
5.925548563558674
 20
1.445031642913818
 30
2.249999999171835
 70
   192
  0
VERTEX
  5
C56
330
B4D
100
AcDbEntity
  8
0
 62
     7
100
AcDbVertex
100
AcDbPolyFaceMeshVertex
 10
5.881121645528896
 20
1.973266482353209
 30
2.773762940532308
 70
   192
  0
VERTEX
  5
C57
330
B4D
100
AcDbEntity
  8
0
 62
     7
100
AcDbVertex
100
AcDbPolyFaceMeshVertex
 10
5.749120722372156
 20
1.460910439491271
 30
3.282439707881552
 70
   192
  0
VERTEX
  5
C58
330
B4D
100
AcDbEntity
  8
0
 62
     7
100
AcDbVertex
100
AcDbPolyFaceMeshVertex
 10
5.533347139913654
 20
1.941966295242308
 30
3.761378525859457
 70
   192
  0
VERTEX
  5
C59
330
B4D
100
AcDbEntity
  8
0
 62
     7
100
AcDbVertex
100
AcDbPolyFaceMeshVertex
 10
5.023362169820886
 20
2.700597524642943
 30
4.196784018642049
 70
   192
  0
VERTEX
  5
C5A
330
B4D
100
AcDbEntity
  8
0
 62
     7
100
AcDbVertex
100
AcDbPolyFaceMeshVertex
 10
5.166075716573816
 20
2.321232795715332
 30
4.196784018642049
 70
   192
  0
VERTEX
  5
C5B
330
B4D
100
AcDbEntity
  8
0
 62
     7
100
AcDbVertex
100
AcDbPolyFaceMeshVertex
 10
5.449855814535236
 20
2.40002393722534
 30
3.761378525859457
 70
   192
  0
VERTEX
  5
C5C
330
B4D
100
AcDbEntity
  8
0
 62
     7
100
AcDbVertex
100
AcDbPolyFaceMeshVertex
 10
5.749120722372156
 20
1.961386203765869
 30
3.282439707881552
 70
   192
  0
VERTEX
  5
C5D
330
B4D
100
AcDbEntity
  8
0
 62
     7
100
AcDbVertex
100
AcDbPolyFaceMeshVertex
 10
5.925548563558674
 20
1.977265000343321
 30
2.249999999171835
 70
   192
  0
VERTEX
  5
C5E
330
B4D
100
AcDbEntity
  8
0
 62
     7
100
AcDbVertex
100
AcDbPolyFaceMeshVertex
 10
5.786308298666096
 20
2.49343967437744
 30
2.773762940532308
 70
   192
  0
VERTEX
  5
C5F
330
B4D
100
AcDbEntity
  8
0
 62
     7
100
AcDbVertex
100
AcDbPolyFaceMeshVertex
 10
5.749120722372156
 20
1.961386203765869
 30
1.217560171252828
 70
   192
  0
VERTEX
  5
C60
330
B4D
100
AcDbEntity
  8
0
 62
     7
100
AcDbVertex
100
AcDbPolyFaceMeshVertex
 10
5.786308298666096
 20
2.49343967437744
 30
1.726236938602071
 70
   192
  0
VERTEX
  5
C61
330
B4D
100
AcDbEntity
  8
0
 62
     7
100
AcDbVertex
100
AcDbPolyFaceMeshVertex
 10
5.658604631979084
 20
2.457982778549193
 30
1.217560171252828
 70
   192
  0
VERTEX
  5
C62
330
B4D
100
AcDbEntity
  8
0
 62
     7
100
AcDbVertex
100
AcDbPolyFaceMeshVertex
 10
5.829289446432216
 20
2.505373001098631
 30
2.249999999171835
 70
   192
  0
VERTEX
  5
C63
330
B4D
100
AcDbEntity
  8
0
 62
     7
100
AcDbVertex
100
AcDbPolyFaceMeshVertex
 10
5.643501291830157
 20
2.999240636825561
 30
2.249999999171835
 70
   192
  0
VERTEX
  5
C64
330
B4D
100
AcDbEntity
  8
0
 62
     7
100
AcDbVertex
100
AcDbPolyFaceMeshVertex
 10
5.658604631979084
 20
2.457982778549193
 30
3.282439707881552
 70
   192
  0
VERTEX
  5
C65
330
B4D
100
AcDbEntity
  8
0
 62
     7
100
AcDbVertex
100
AcDbPolyFaceMeshVertex
 10
5.483902941305256
 20
2.922382116317748
 30
3.282439707881552
 70
   192
  0
VERTEX
  5
C66
330
B4D
100
AcDbEntity
  8
0
 62
     7
100
AcDbVertex
100
AcDbPolyFaceMeshVertex
 10
4.813671122152424
 20
3.051561832427978
 30
4.196784018642049
 70
   192
  0
VERTEX
  5
C67
330
B4D
100
AcDbEntity
  8
0
 62
     7
100
AcDbVertex
100
AcDbPolyFaceMeshVertex
 10
5.288711557943447
 20
2.828383207321165
 30
3.761378525859457
 70
   192
  0
VERTEX
  5
C68
330
B4D
100
AcDbEntity
  8
0
 62
     7
100
AcDbVertex
100
AcDbPolyFaceMeshVertex
 10
5.449855814535236
 20
2.40002393722534
 30
0.7386214724842138
 70
   192
  0
VERTEX
  5
C69
330
B4D
100
AcDbEntity
  8
0
 62
     7
100
AcDbVertex
100
AcDbPolyFaceMeshVertex
 10
5.166075716573816
 20
2.321232795715332
 30
0.3032160691085881
 70
   192
  0
VERTEX
  5
C6A
330
B4D
100
AcDbEntity
  8
0
 62
     7
100
AcDbVertex
100
AcDbPolyFaceMeshVertex
 10
5.483902941305256
 20
2.922382116317748
 30
1.217560171252828
 70
   192
  0
VERTEX
  5
C6B
330
B4D
100
AcDbEntity
  8
0
 62
     7
100
AcDbVertex
100
AcDbPolyFaceMeshVertex
 10
5.603312502462486
 20
2.979886531829832
 30
1.726236938602071
 70
   192
  0
VERTEX
  5
C6C
330
B4D
100
AcDbEntity
  8
0
 62
     7
100
AcDbVertex
100
AcDbPolyFaceMeshVertex
 10
5.370519648153406
 20
3.456135749816893
 30
2.249999999171835
 70
   192
  0
VERTEX
  5
C6D
330
B4D
100
AcDbEntity
  8
0
 62
     7
100
AcDbVertex
100
AcDbPolyFaceMeshVertex
 10
5.603312502462486
 20
2.979886531829832
 30
2.773762940532308
 70
   192
  0
VERTEX
  5
C6E
330
B4D
100
AcDbEntity
  8
0
 62
     7
100
AcDbVertex
100
AcDbPolyFaceMeshVertex
 10
5.227209101278406
 20
3.352014780044555
 30
3.282439707881552
 70
   192
  0
VERTEX
  5
C6F
330
B4D
100
AcDbEntity
  8
0
 62
     7
100
AcDbVertex
100
AcDbPolyFaceMeshVertex
 10
4.813671122152424
 20
3.051561832427978
 30
0.3032160691085881
 70
   192
  0
VERTEX
  5
C70
330
B4D
100
AcDbEntity
  8
0
 62
     7
100
AcDbVertex
100
AcDbPolyFaceMeshVertex
 10
5.288711557943447
 20
2.828383207321165
 30
0.7386214724842138
 70
   192
  0
VERTEX
  5
C71
330
B4D
100
AcDbEntity
  8
0
 62
     7
100
AcDbVertex
100
AcDbPolyFaceMeshVertex
 10
5.227209101278406
 20
3.352014780044555
 30
1.217560171252828
 70
   192
  0
VERTEX
  5
C72
330
B4D
100
AcDbEntity
  8
0
 62
     7
100
AcDbVertex
100
AcDbPolyFaceMeshVertex
 10
5.051939020711994
 20
3.224673986434936
 30
0.7386214724842138
 70
   192
  0
VERTEX
  5
C73
330
B4D
100
AcDbEntity
  8
0
 62
     7
100
AcDbVertex
100
AcDbPolyFaceMeshVertex
 10
5.334431658346277
 20
3.429916858673095
 30
1.726236938602071
 70
   192
  0
VERTEX
  5
C74
330
B4D
100
AcDbEntity
  8
0
 62
     7
100
AcDbVertex
100
AcDbPolyFaceMeshVertex
 10
4.989516268331627
 20
3.824704170227049
 30
1.726236938602071
 70
   192
  0
VERTEX
  5
C75
330
B4D
100
AcDbEntity
  8
0
 62
     7
100
AcDbVertex
100
AcDbPolyFaceMeshVertex
 10
5.334431658346277
 20
3.429916858673095
 30
2.773762940532308
 70
   192
  0
VERTEX
  5
C76
330
B4D
100
AcDbEntity
  8
0
 62
     7
100
AcDbVertex
100
AcDbPolyFaceMeshVertex
 10
4.989516268331627
 20
3.824704170227049
 30
2.773762940532308
 70
   192
  0
VERTEX
  5
C77
330
B4D
100
AcDbEntity
  8
0
 62
     7
100
AcDbVertex
100
AcDbPolyFaceMeshVertex
 10
5.051939020711994
 20
3.224673986434936
 30
3.761378525859457
 70
   192
  0
VERTEX
  5
C78
330
B4D
100
AcDbEntity
  8
0
 62
     7
100
AcDbVertex
100
AcDbPolyFaceMeshVertex
 10
4.748210917074306
 20
3.572318792343138
 30
3.761378525859457
 70
   192
  0
VERTEX
  5
C79
330
B4D
100
AcDbEntity
  8
0
 62
     7
100
AcDbVertex
100
AcDbPolyFaceMeshVertex
 10
4.897926340658287
 20
3.728908777236938
 30
1.217560171252828
 70
   192
  0
VERTEX
  5
C7A
330
B4D
100
AcDbEntity
  8
0
 62
     7
100
AcDbVertex
100
AcDbPolyFaceMeshVertex
 10
4.579651842672447
 20
4.151560306549071
 30
1.726236938602071
 70
   192
  0
VERTEX
  5
C7B
330
B4D
100
AcDbEntity
  8
0
 62
     7
100
AcDbVertex
100
AcDbPolyFaceMeshVertex
 10
5.020341883260826
 20
3.856945514678955
 30
2.249999999171835
 70
   192
  0
VERTEX
  5
C7C
330
B4D
100
AcDbEntity
  8
0
 62
     7
100
AcDbVertex
100
AcDbPolyFaceMeshVertex
 10
4.579651842672447
 20
4.151560306549071
 30
2.773762940532308
 70
   192
  0
VERTEX
  5
C7D
330
B4D
100
AcDbEntity
  8
0
 62
     7
100
AcDbVertex
100
AcDbPolyFaceMeshVertex
 10
4.897926340658287
 20
3.728908777236938
 30
3.282439707881552
 70
   192
  0
VERTEX
  5
C7E
330
B4D
100
AcDbEntity
  8
0
 62
     7
100
AcDbVertex
100
AcDbPolyFaceMeshVertex
 10
4.387290011007404
 20
3.860143899917602
 30
3.761378525859457
 70
   192
  0
VERTEX
  5
C7F
330
B4D
100
AcDbEntity
  8
0
 62
     7
100
AcDbVertex
100
AcDbPolyFaceMeshVertex
 10
4.225041399557216
 20
3.614348888397216
 30
0.3032160691085881
 70
   192
  0
VERTEX
  5
C80
330
B4D
100
AcDbEntity
  8
0
 62
     7
100
AcDbVertex
100
AcDbPolyFaceMeshVertex
 10
4.225041399557216
 20
3.614348888397216
 30
4.196784018642049
 70
   192
  0
VERTEX
  5
C81
330
B4D
100
AcDbEntity
  8
0
 62
     7
100
AcDbVertex
100
AcDbPolyFaceMeshVertex
 10
3.541732798177816
 20
4.2215518951416
 30
3.761378525859457
 70
   192
  0
VERTEX
  5
C82
330
B4D
100
AcDbEntity
  8
0
 62
     7
100
AcDbVertex
100
AcDbPolyFaceMeshVertex
 10
3.980774889547447
 20
4.078898906707762
 30
3.761378525859457
 70
   192
  0
VERTEX
  5
C83
330
B4D
100
AcDbEntity
  8
0
 62
     7
100
AcDbVertex
100
AcDbPolyFaceMeshVertex
 10
4.065921793539146
 20
4.278110027313231
 30
3.282439707881552
 70
   192
  0
VERTEX
  5
C84
330
B4D
100
AcDbEntity
  8
0
 62
     7
100
AcDbVertex
100
AcDbPolyFaceMeshVertex
 10
4.065921793539146
 20
4.278110027313231
 30
1.217560171252828
 70
   192
  0
VERTEX
  5
C85
330
B4D
100
AcDbEntity
  8
0
 62
     7
100
AcDbVertex
100
AcDbPolyFaceMeshVertex
 10
4.506638537008386
 20
4.040950298309326
 30
1.217560171252828
 70
   192
  0
VERTEX
  5
C86
330
B4D
100
AcDbEntity
  8
0
 62
     7
100
AcDbVertex
100
AcDbPolyFaceMeshVertex
 10
4.387290011007404
 20
3.860143899917602
 30
0.7386214724842138
 70
   192
  0
VERTEX
  5
C87
330
B4D
100
AcDbEntity
  8
0
 62
     7
100
AcDbVertex
100
AcDbPolyFaceMeshVertex
 10
4.748210917074306
 20
3.572318792343138
 30
0.7386214724842138
 70
   192
  0
VERTEX
  5
C88
330
B4D
100
AcDbEntity
  8
0
 62
     7
100
AcDbVertex
100
AcDbPolyFaceMeshVertex
 10
4.604225168783287
 20
4.188787460327147
 30
2.249999999171835
 70
   192
  0
VERTEX
  5
C89
330
B4D
100
AcDbEntity
  8
0
 62
     7
100
AcDbVertex
100
AcDbPolyFaceMeshVertex
 10
4.135542879659755
 20
4.440996170043945
 30
2.249999999171835
 70
   192
  0
VERTEX
  5
C8A
330
B4D
100
AcDbEntity
  8
0
 62
     7
100
AcDbVertex
100
AcDbPolyFaceMeshVertex
 10
4.118011484701256
 20
4.399979591369628
 30
1.726236938602071
 70
   192
  0
VERTEX
  5
C8B
330
B4D
100
AcDbEntity
  8
0
 62
     7
100
AcDbVertex
100
AcDbPolyFaceMeshVertex
 10
3.619433413107016
 20
4.561977386474608
 30
1.726236938602071
 70
   192
  0
VERTEX
  5
C8C
330
B4D
100
AcDbEntity
  8
0
 62
     7
100
AcDbVertex
100
AcDbPolyFaceMeshVertex
 10
4.506638537008386
 20
4.040950298309326
 30
3.282439707881552
 70
   192
  0
VERTEX
  5
C8D
330
B4D
100
AcDbEntity
  8
0
 62
     7
100
AcDbVertex
100
AcDbPolyFaceMeshVertex
 10
4.118011484701256
 20
4.399979591369628
 30
2.773762940532308
 70
   192
  0
VERTEX
  5
C8E
330
B4D
100
AcDbEntity
  8
0
 62
     7
100
AcDbVertex
100
AcDbPolyFaceMeshVertex
 10
3.619433413107016
 20
4.561977386474608
 30
2.773762940532308
 70
   192
  0
VERTEX
  5
C8F
330
B4D
100
AcDbEntity
  8
0
 62
     7
100
AcDbVertex
100
AcDbPolyFaceMeshVertex
 10
3.093995104391199
 20
4.499946117401123
 30
1.217560171252828
 70
   192
  0
VERTEX
  5
C90
330
B4D
100
AcDbEntity
  8
0
 62
     7
100
AcDbVertex
100
AcDbPolyFaceMeshVertex
 10
3.589941034872156
 20
4.432765483856201
 30
1.217560171252828
 70
   192
  0
VERTEX
  5
C91
330
B4D
100
AcDbEntity
  8
0
 62
     7
100
AcDbVertex
100
AcDbPolyFaceMeshVertex
 10
3.541732798177816
 20
4.2215518951416
 30
0.7386214724842138
 70
   192
  0
VERTEX
  5
C92
330
B4D
100
AcDbEntity
  8
0
 62
     7
100
AcDbVertex
100
AcDbPolyFaceMeshVertex
 10
3.980774889547447
 20
4.078898906707762
 30
0.7386214724842138
 70
   192
  0
VERTEX
  5
C93
330
B4D
100
AcDbEntity
  8
0
 62
     7
100
AcDbVertex
100
AcDbPolyFaceMeshVertex
 10
3.629359255392175
 20
4.605465412139891
 30
2.249999999171835
 70
   192
  0
VERTEX
  5
C94
330
B4D
100
AcDbEntity
  8
0
 62
     7
100
AcDbVertex
100
AcDbPolyFaceMeshVertex
 10
3.101942072469812
 20
4.67690896987915
 30
2.249999999171835
 70
   192
  0
VERTEX
  5
C95
330
B4D
100
AcDbEntity
  8
0
 62
     7
100
AcDbVertex
100
AcDbPolyFaceMeshVertex
 10
3.589941034872156
 20
4.432765483856201
 30
3.282439707881552
 70
   192
  0
VERTEX
  5
C96
330
B4D
100
AcDbEntity
  8
0
 62
     7
100
AcDbVertex
100
AcDbPolyFaceMeshVertex
 10
3.093995104391199
 20
4.499946117401123
 30
3.282439707881552
 70
   192
  0
VERTEX
  5
C97
330
B4D
100
AcDbEntity
  8
0
 62
     7
100
AcDbVertex
100
AcDbPolyFaceMeshVertex
 10
3.476197252828697
 20
3.934420347213745
 30
4.196784018642049
 70
   192
  0
VERTEX
  5
C98
330
B4D
100
AcDbEntity
  8
0
 62
     7
100
AcDbVertex
100
AcDbPolyFaceMeshVertex
 10
3.071062098104576
 20
3.989299774169921
 30
4.196784018642049
 70
   192
  0
VERTEX
  5
C99
330
B4D
100
AcDbEntity
  8
0
 62
     7
100
AcDbVertex
100
AcDbPolyFaceMeshVertex
 10
2.662637720663171
 20
3.970957279205321
 30
4.196784018642049
 70
   192
  0
VERTEX
  5
C9A
330
B4D
100
AcDbEntity
  8
0
 62
     7
100
AcDbVertex
100
AcDbPolyFaceMeshVertex
 10
3.084275255758386
 20
4.283518791198729
 30
3.761378525859457
 70
   192
  0
VERTEX
  5
C9B
330
B4D
100
AcDbEntity
  8
0
 62
     7
100
AcDbVertex
100
AcDbPolyFaceMeshVertex
 10
2.594022760946373
 20
4.477492332458496
 30
3.282439707881552
 70
   192
  0
VERTEX
  5
C9C
330
B4D
100
AcDbEntity
  8
0
 62
     7
100
AcDbVertex
100
AcDbPolyFaceMeshVertex
 10
2.570244799215416
 20
4.653030395507811
 30
2.249999999171835
 70
   192
  0
VERTEX
  5
C9D
330
B4D
100
AcDbEntity
  8
0
 62
     7
100
AcDbVertex
100
AcDbPolyFaceMeshVertex
 10
2.106095324117761
 20
4.366126060485838
 30
1.217560171252828
 70
   192
  0
VERTEX
  5
C9E
330
B4D
100
AcDbEntity
  8
0
 62
     7
100
AcDbVertex
100
AcDbPolyFaceMeshVertex
 10
2.623104105550867
 20
4.262807846069335
 30
0.7386214724842138
 70
   192
  0
VERTEX
  5
C9F
330
B4D
100
AcDbEntity
  8
0
 62
     7
100
AcDbVertex
100
AcDbPolyFaceMeshVertex
 10
3.071062098104576
 20
3.989299774169921
 30
0.3032160691085881
 70
   192
  0
VERTEX
  5
CA0
330
B4D
100
AcDbEntity
  8
0
 62
     7
100
AcDbVertex
100
AcDbPolyFaceMeshVertex
 10
3.476197252828697
 20
3.934420347213745
 30
0.3032160691085881
 70
   192
  0
VERTEX
  5
CA1
330
B4D
100
AcDbEntity
  8
0
 62
     7
100
AcDbVertex
100
AcDbPolyFaceMeshVertex
 10
3.084275255758386
 20
4.283518791198729
 30
0.7386214724842138
 70
   192
  0
VERTEX
  5
CA2
330
B4D
100
AcDbEntity
  8
0
 62
     7
100
AcDbVertex
100
AcDbPolyFaceMeshVertex
 10
2.594022760946373
 20
4.477492332458496
 30
1.217560171252828
 70
   192
  0
VERTEX
  5
CA3
330
B4D
100
AcDbEntity
  8
0
 62
     7
100
AcDbVertex
100
AcDbPolyFaceMeshVertex
 10
3.099941263753992
 20
4.632347583770751
 30
1.726236938602071
 70
   192
  0
VERTEX
  5
CA4
330
B4D
100
AcDbEntity
  8
0
 62
     7
100
AcDbVertex
100
AcDbPolyFaceMeshVertex
 10
3.099941263753992
 20
4.632347583770751
 30
2.773762940532308
 70
   192
  0
VERTEX
  5
CA5
330
B4D
100
AcDbEntity
  8
0
 62
     7
100
AcDbVertex
100
AcDbPolyFaceMeshVertex
 10
2.623104105550867
 20
4.262807846069335
 30
3.761378525859457
 70
   192
  0
VERTEX
  5
CA6
330
B4D
100
AcDbEntity
  8
0
 62
     7
100
AcDbVertex
100
AcDbPolyFaceMeshVertex
 10
3.865022669393637
 20
3.808083295822143
 30
0.3032160691085881
 70
   192
  0
VERTEX
  5
CA7
330
B4D
100
AcDbEntity
  8
0
 62
     7
100
AcDbVertex
100
AcDbPolyFaceMeshVertex
 10
0.3937864404507687
 20
1.711148381233215
 30
0.7386214724842138
 70
   192
  0
VERTEX
  5
CA8
330
B4D
100
AcDbEntity
  8
0
 62
     7
100
AcDbVertex
100
AcDbPolyFaceMeshVertex
 10
0.1771411996670782
 20
1.711148381233215
 30
1.217560171252828
 70
   192
  0
VERTEX
  5
CA9
330
B4D
100
AcDbEntity
  8
0
 62
     7
100
AcDbVertex
100
AcDbPolyFaceMeshVertex
 10
0.0000000100918829
 20
1.711148381233215
 30
2.249999999171835
 70
   192
  0
VERTEX
  5
CAA
330
B4D
100
AcDbEntity
  8
0
 62
     7
100
AcDbVertex
100
AcDbPolyFaceMeshVertex
 10
0.1771411996670782
 20
1.711148381233215
 30
3.282439707881552
 70
   192
  0
VERTEX
  5
CAB
330
B4D
100
AcDbEntity
  8
0
 62
     7
100
AcDbVertex
100
AcDbPolyFaceMeshVertex
 10
4.544682512838466
 20
3.359444141387939
 30
0.3032160691085881
 70
   192
  0
VERTEX
  5
CAC
330
B4D
100
AcDbEntity
  8
0
 62
     7
100
AcDbVertex
100
AcDbPolyFaceMeshVertex
 10
5.023362169820886
 20
2.700597524642943
 30
0.3032160691085881
 70
   192
  0
VERTEX
  5
CAD
330
B4D
100
AcDbEntity
  8
0
 62
     7
100
AcDbVertex
100
AcDbPolyFaceMeshVertex
 10
5.167016993124104
 20
1.104465246200561
 30
0.3032160691085881
 70
   192
  0
VERTEX
  5
CAE
330
B4D
100
AcDbEntity
  8
0
 62
     7
100
AcDbVertex
100
AcDbPolyFaceMeshVertex
 10
4.813671122152424
 20
0.370734840631485
 30
0.3032160691085881
 70
   192
  0
VERTEX
  5
CAF
330
B4D
100
AcDbEntity
  8
0
 62
     7
100
AcDbVertex
100
AcDbPolyFaceMeshVertex
 10
3.476197252828697
 20
-0.512123703956604
 30
0.3032160691085881
 70
   192
  0
VERTEX
  5
CB0
330
B4D
100
AcDbEntity
  8
0
 62
     7
100
AcDbVertex
100
AcDbPolyFaceMeshVertex
 10
2.662637720663171
 20
-0.5486606955528261
 30
0.3032160691085881
 70
   192
  0
VERTEX
  5
CB1
330
B4D
100
AcDbEntity
  8
0
 62
     7
100
AcDbVertex
100
AcDbPolyFaceMeshVertex
 10
1.251409540731529
 20
0.2107535153627396
 30
0.3032160691085881
 70
   192
  0
VERTEX
  5
CB2
330
B4D
100
AcDbEntity
  8
0
 62
     7
100
AcDbVertex
100
AcDbPolyFaceMeshVertex
 10
0.8337154489346554
 20
0.9098564386367796
 30
0.3032160691085881
 70
   192
  0
VERTEX
  5
CB3
330
B4D
100
AcDbEntity
  8
0
 62
     7
100
AcDbVertex
100
AcDbPolyFaceMeshVertex
 10
0.7249498468228391
 20
2.118337869644165
 30
0.3032160691085881
 70
   192
  0
VERTEX
  5
CB4
330
B4D
100
AcDbEntity
  8
0
 62
     7
100
AcDbVertex
100
AcDbPolyFaceMeshVertex
 10
1.011102686483484
 20
2.880788326263426
 30
0.3032160691085881
 70
   192
  0
VERTEX
  5
CB5
330
B4D
100
AcDbEntity
  8
0
 62
     7
100
AcDbVertex
100
AcDbPolyFaceMeshVertex
 10
1.888116846639734
 20
3.719300270080566
 30
0.3032160691085881
 70
   192
  0
VERTEX
  5
CB6
330
B4D
100
AcDbEntity
  8
0
 62
     7
100
AcDbVertex
100
AcDbPolyFaceMeshVertex
 10
2.662637720663171
 20
3.970957279205321
 30
0.3032160691085881
 70
   192
  0
VERTEX
  5
CB7
330
B4D
100
AcDbEntity
  8
0
 62
     7
100
AcDbVertex
100
AcDbPolyFaceMeshVertex
 10
2.264053354818443
 20
3.879982948303221
 30
4.196784018642049
 70
   192
  0
VERTEX
  5
CB8
330
B4D
100
AcDbEntity
  8
0
 62
     7
100
AcDbVertex
100
AcDbPolyFaceMeshVertex
 10
1.546914110738855
 20
3.49407410621643
 30
4.196784018642049
 70
   192
  0
VERTEX
  5
CB9
330
B4D
100
AcDbEntity
  8
0
 62
     7
100
AcDbVertex
100
AcDbPolyFaceMeshVertex
 10
0.8337154489346554
 20
2.51244020462036
 30
4.196784018642049
 70
   192
  0
VERTEX
  5
CBA
330
B4D
100
AcDbEntity
  8
0
 62
     7
100
AcDbVertex
100
AcDbPolyFaceMeshVertex
 10
0.6883025270291388
 20
1.711148381233215
 30
4.196784018642049
 70
   192
  0
VERTEX
  5
CBB
330
B4D
100
AcDbEntity
  8
0
 62
     7
100
AcDbVertex
100
AcDbPolyFaceMeshVertex
 10
1.251409540731529
 20
0.2107535153627396
 30
4.196784018642049
 70
   192
  0
VERTEX
  5
CBC
330
B4D
100
AcDbEntity
  8
0
 62
     7
100
AcDbVertex
100
AcDbPolyFaceMeshVertex
 10
1.888116846639734
 20
-0.2970036864280701
 30
4.196784018642049
 70
   192
  0
VERTEX
  5
CBD
330
B4D
100
AcDbEntity
  8
0
 62
     7
100
AcDbVertex
100
AcDbPolyFaceMeshVertex
 10
3.476197252828697
 20
-0.512123703956604
 30
4.196784018642049
 70
   192
  0
VERTEX
  5
CBE
330
B4D
100
AcDbEntity
  8
0
 62
     7
100
AcDbVertex
100
AcDbPolyFaceMeshVertex
 10
4.225041399557216
 20
-0.1920522898435593
 30
4.196784018642049
 70
   192
  0
VERTEX
  5
CBF
330
B4D
100
AcDbEntity
  8
0
 62
     7
100
AcDbVertex
100
AcDbPolyFaceMeshVertex
 10
5.167016993124104
 20
1.104465246200561
 30
4.196784018642049
 70
   192
  0
VERTEX
  5
CC0
330
B4D
100
AcDbEntity
  8
0
 62
     7
100
AcDbVertex
100
AcDbPolyFaceMeshVertex
 10
5.240016947347736
 20
1.915566086769104
 30
4.196784018642049
 70
   192
  0
VERTEX
  5
CC1
330
B4D
100
AcDbEntity
  8
0
 62
     7
100
AcDbVertex
100
AcDbPolyFaceMeshVertex
 10
4.544682512838466
 20
3.359444141387939
 30
4.196784018642049
 70
   192
  0
VERTEX
  5
CC2
330
B4D
100
AcDbEntity
  8
0
 62
     7
100
AcDbVertex
100
AcDbPolyFaceMeshVertex
 10
3.865022669393637
 20
3.808083295822143
 30
4.196784018642049
 70
   192
  0
VERTEX
  5
CC3
330
B4D
100
AcDbEntity
  8
0
 62
     7
100
AcDbFaceRecord
 10
0.0
 20
0.0
 30
0.0
 70
   128
 71
     1
 72
     2
 73
     3
  0
VERTEX
  5
CC4
330
B4D
100
AcDbEntity
  8
0
 62
     7
100
AcDbFaceRecord
 10
0.0
 20
0.0
 30
0.0
 70
   128
 71
     4
 72
     2
 73
     1
  0
VERTEX
  5
CC5
330
B4D
100
AcDbEntity
  8
0
 62
     7
100
AcDbFaceRecord
 10
0.0
 20
0.0
 30
0.0
 70
   128
 71
     5
 72
     6
 73
     7
  0
VERTEX
  5
CC6
330
B4D
100
AcDbEntity
  8
0
 62
     7
100
AcDbFaceRecord
 10
0.0
 20
0.0
 30
0.0
 70
   128
 71
     8
 72
     6
 73
     5
  0
VERTEX
  5
CC7
330
B4D
100
AcDbEntity
  8
0
 62
     7
100
AcDbFaceRecord
 10
0.0
 20
0.0
 30
0.0
 70
   128
 71
     9
 72
    10
 73
    11
  0
VERTEX
  5
CC8
330
B4D
100
AcDbEntity
  8
0
 62
     7
100
AcDbFaceRecord
 10
0.0
 20
0.0
 30
0.0
 70
   128
 71
    12
 72
    10
 73
     9
  0
VERTEX
  5
CC9
330
B4D
100
AcDbEntity
  8
0
 62
     7
100
AcDbFaceRecord
 10
0.0
 20
0.0
 30
0.0
 70
   128
 71
    13
 72
    14
 73
    15
  0
VERTEX
  5
CCA
330
B4D
100
AcDbEntity
  8
0
 62
     7
100
AcDbFaceRecord
 10
0.0
 20
0.0
 30
0.0
 70
   128
 71
    16
 72
    14
 73
    13
  0
VERTEX
  5
CCB
330
B4D
100
AcDbEntity
  8
0
 62
     7
100
AcDbFaceRecord
 10
0.0
 20
0.0
 30
0.0
 70
   128
 71
    17
 72
    18
 73
    19
  0
VERTEX
  5
CCC
330
B4D
100
AcDbEntity
  8
0
 62
     7
100
AcDbFaceRecord
 10
0.0
 20
0.0
 30
0.0
 70
   128
 71
    20
 72
    18
 73
    17
  0
VERTEX
  5
CCD
330
B4D
100
AcDbEntity
  8
0
 62
     7
100
AcDbFaceRecord
 10
0.0
 20
0.0
 30
0.0
 70
   128
 71
    21
 72
    22
 73
    23
  0
VERTEX
  5
CCE
330
B4D
100
AcDbEntity
  8
0
 62
     7
100
AcDbFaceRecord
 10
0.0
 20
0.0
 30
0.0
 70
   128
 71
    24
 72
    22
 73
    21
  0
VERTEX
  5
CCF
330
B4D
100
AcDbEntity
  8
0
 62
     7
100
AcDbFaceRecord
 10
0.0
 20
0.0
 30
0.0
 70
   128
 71
    25
 72
    24
 73
    26
  0
VERTEX
  5
CD0
330
B4D
100
AcDbEntity
  8
0
 62
     7
100
AcDbFaceRecord
 10
0.0
 20
0.0
 30
0.0
 70
   128
 71
    27
 72
    25
 73
    26
  0
VERTEX
  5
CD1
330
B4D
100
AcDbEntity
  8
0
 62
     7
100
AcDbFaceRecord
 10
0.0
 20
0.0
 30
0.0
 70
   128
 71
    26
 72
    24
 73
    21
  0
VERTEX
  5
CD2
330
B4D
100
AcDbEntity
  8
0
 62
     7
100
AcDbFaceRecord
 10
0.0
 20
0.0
 30
0.0
 70
   128
 71
    20
 72
    23
 73
    22
  0
VERTEX
  5
CD3
330
B4D
100
AcDbEntity
  8
0
 62
     7
100
AcDbFaceRecord
 10
0.0
 20
0.0
 30
0.0
 70
   128
 71
    23
 72
    20
 73
    17
  0
VERTEX
  5
CD4
330
B4D
100
AcDbEntity
  8
0
 62
     7
100
AcDbFaceRecord
 10
0.0
 20
0.0
 30
0.0
 70
   128
 71
    16
 72
    19
 73
    18
  0
VERTEX
  5
CD5
330
B4D
100
AcDbEntity
  8
0
 62
     7
100
AcDbFaceRecord
 10
0.0
 20
0.0
 30
0.0
 70
   128
 71
    19
 72
    16
 73
    13
  0
VERTEX
  5
CD6
330
B4D
100
AcDbEntity
  8
0
 62
     7
100
AcDbFaceRecord
 10
0.0
 20
0.0
 30
0.0
 70
   128
 71
    12
 72
    15
 73
    14
  0
VERTEX
  5
CD7
330
B4D
100
AcDbEntity
  8
0
 62
     7
100
AcDbFaceRecord
 10
0.0
 20
0.0
 30
0.0
 70
   128
 71
    15
 72
    12
 73
     9
  0
VERTEX
  5
CD8
330
B4D
100
AcDbEntity
  8
0
 62
     7
100
AcDbFaceRecord
 10
0.0
 20
0.0
 30
0.0
 70
   128
 71
     8
 72
    11
 73
    10
  0
VERTEX
  5
CD9
330
B4D
100
AcDbEntity
  8
0
 62
     7
100
AcDbFaceRecord
 10
0.0
 20
0.0
 30
0.0
 70
   128
 71
    11
 72
     8
 73
     5
  0
VERTEX
  5
CDA
330
B4D
100
AcDbEntity
  8
0
 62
     7
100
AcDbFaceRecord
 10
0.0
 20
0.0
 30
0.0
 70
   128
 71
     4
 72
     7
 73
     6
  0
VERTEX
  5
CDB
330
B4D
100
AcDbEntity
  8
0
 62
     7
100
AcDbFaceRecord
 10
0.0
 20
0.0
 30
0.0
 70
   128
 71
     7
 72
     4
 73
     1
  0
VERTEX
  5
CDC
330
B4D
100
AcDbEntity
  8
0
 62
     7
100
AcDbFaceRecord
 10
0.0
 20
0.0
 30
0.0
 70
   128
 71
    28
 72
     3
 73
     2
  0
VERTEX
  5
CDD
330
B4D
100
AcDbEntity
  8
0
 62
     7
100
AcDbFaceRecord
 10
0.0
 20
0.0
 30
0.0
 70
   128
 71
    29
 72
     3
 73
    28
  0
VERTEX
  5
CDE
330
B4D
100
AcDbEntity
  8
0
 62
     7
100
AcDbFaceRecord
 10
0.0
 20
0.0
 30
0.0
 70
   128
 71
    30
 72
    31
 73
    32
  0
VERTEX
  5
CDF
330
B4D
100
AcDbEntity
  8
0
 62
     7
100
AcDbFaceRecord
 10
0.0
 20
0.0
 30
0.0
 70
   128
 71
    33
 72
    31
 73
    30
  0
VERTEX
  5
CE0
330
B4D
100
AcDbEntity
  8
0
 62
     7
100
AcDbFaceRecord
 10
0.0
 20
0.0
 30
0.0
 70
   128
 71
    34
 72
    35
 73
    36
  0
VERTEX
  5
CE1
330
B4D
100
AcDbEntity
  8
0
 62
     7
100
AcDbFaceRecord
 10
0.0
 20
0.0
 30
0.0
 70
   128
 71
    37
 72
    35
 73
    34
  0
VERTEX
  5
CE2
330
B4D
100
AcDbEntity
  8
0
 62
     7
100
AcDbFaceRecord
 10
0.0
 20
0.0
 30
0.0
 70
   128
 71
    38
 72
    39
 73
    40
  0
VERTEX
  5
CE3
330
B4D
100
AcDbEntity
  8
0
 62
     7
100
AcDbFaceRecord
 10
0.0
 20
0.0
 30
0.0
 70
   128
 71
    41
 72
    39
 73
    38
  0
VERTEX
  5
CE4
330
B4D
100
AcDbEntity
  8
0
 62
     7
100
AcDbFaceRecord
 10
0.0
 20
0.0
 30
0.0
 70
   128
 71
    42
 72
    43
 73
    44
  0
VERTEX
  5
CE5
330
B4D
100
AcDbEntity
  8
0
 62
     7
100
AcDbFaceRecord
 10
0.0
 20
0.0
 30
0.0
 70
   128
 71
    45
 72
    43
 73
    42
  0
VERTEX
  5
CE6
330
B4D
100
AcDbEntity
  8
0
 62
     7
100
AcDbFaceRecord
 10
0.0
 20
0.0
 30
0.0
 70
   128
 71
    46
 72
    47
 73
    48
  0
VERTEX
  5
CE7
330
B4D
100
AcDbEntity
  8
0
 62
     7
100
AcDbFaceRecord
 10
0.0
 20
0.0
 30
0.0
 70
   128
 71
    49
 72
    47
 73
    46
  0
VERTEX
  5
CE8
330
B4D
100
AcDbEntity
  8
0
 62
     7
100
AcDbFaceRecord
 10
0.0
 20
0.0
 30
0.0
 70
   128
 71
    50
 72
    51
 73
    52
  0
VERTEX
  5
CE9
330
B4D
100
AcDbEntity
  8
0
 62
     7
100
AcDbFaceRecord
 10
0.0
 20
0.0
 30
0.0
 70
   128
 71
    53
 72
    51
 73
    50
  0
VERTEX
  5
CEA
330
B4D
100
AcDbEntity
  8
0
 62
     7
100
AcDbFaceRecord
 10
0.0
 20
0.0
 30
0.0
 70
   128
 71
    54
 72
    53
 73
    55
  0
VERTEX
  5
CEB
330
B4D
100
AcDbEntity
  8
0
 62
     7
100
AcDbFaceRecord
 10
0.0
 20
0.0
 30
0.0
 70
   128
 71
    56
 72
    54
 73
    55
  0
VERTEX
  5
CEC
330
B4D
100
AcDbEntity
  8
0
 62
     7
100
AcDbFaceRecord
 10
0.0
 20
0.0
 30
0.0
 70
   128
 71
    55
 72
    53
 73
    50
  0
VERTEX
  5
CED
330
B4D
100
AcDbEntity
  8
0
 62
     7
100
AcDbFaceRecord
 10
0.0
 20
0.0
 30
0.0
 70
   128
 71
    49
 72
    52
 73
    51
  0
VERTEX
  5
CEE
330
B4D
100
AcDbEntity
  8
0
 62
     7
100
AcDbFaceRecord
 10
0.0
 20
0.0
 30
0.0
 70
   128
 71
    52
 72
    49
 73
    46
  0
VERTEX
  5
CEF
330
B4D
100
AcDbEntity
  8
0
 62
     7
100
AcDbFaceRecord
 10
0.0
 20
0.0
 30
0.0
 70
   128
 71
    45
 72
    48
 73
    47
  0
VERTEX
  5
CF0
330
B4D
100
AcDbEntity
  8
0
 62
     7
100
AcDbFaceRecord
 10
0.0
 20
0.0
 30
0.0
 70
   128
 71
    48
 72
    45
 73
    42
  0
VERTEX
  5
CF1
330
B4D
100
AcDbEntity
  8
0
 62
     7
100
AcDbFaceRecord
 10
0.0
 20
0.0
 30
0.0
 70
   128
 71
    41
 72
    44
 73
    43
  0
VERTEX
  5
CF2
330
B4D
100
AcDbEntity
  8
0
 62
     7
100
AcDbFaceRecord
 10
0.0
 20
0.0
 30
0.0
 70
   128
 71
    44
 72
    41
 73
    38
  0
VERTEX
  5
CF3
330
B4D
100
AcDbEntity
  8
0
 62
     7
100
AcDbFaceRecord
 10
0.0
 20
0.0
 30
0.0
 70
   128
 71
    37
 72
    40
 73
    39
  0
VERTEX
  5
CF4
330
B4D
100
AcDbEntity
  8
0
 62
     7
100
AcDbFaceRecord
 10
0.0
 20
0.0
 30
0.0
 70
   128
 71
    40
 72
    37
 73
    34
  0
VERTEX
  5
CF5
330
B4D
100
AcDbEntity
  8
0
 62
     7
100
AcDbFaceRecord
 10
0.0
 20
0.0
 30
0.0
 70
   128
 71
    33
 72
    36
 73
    35
  0
VERTEX
  5
CF6
330
B4D
100
AcDbEntity
  8
0
 62
     7
100
AcDbFaceRecord
 10
0.0
 20
0.0
 30
0.0
 70
   128
 71
    36
 72
    33
 73
    30
  0
VERTEX
  5
CF7
330
B4D
100
AcDbEntity
  8
0
 62
     7
100
AcDbFaceRecord
 10
0.0
 20
0.0
 30
0.0
 70
   128
 71
    57
 72
    32
 73
    31
  0
VERTEX
  5
CF8
330
B4D
100
AcDbEntity
  8
0
 62
     7
100
AcDbFaceRecord
 10
0.0
 20
0.0
 30
0.0
 70
   128
 71
    58
 72
    32
 73
    57
  0
VERTEX
  5
CF9
330
B4D
100
AcDbEntity
  8
0
 62
     7
100
AcDbFaceRecord
 10
0.0
 20
0.0
 30
0.0
 70
   128
 71
    57
 72
    31
 73
    59
  0
VERTEX
  5
CFA
330
B4D
100
AcDbEntity
  8
0
 62
     7
100
AcDbFaceRecord
 10
0.0
 20
0.0
 30
0.0
 70
   128
 71
    60
 72
    61
 73
    62
  0
VERTEX
  5
CFB
330
B4D
100
AcDbEntity
  8
0
 62
     7
100
AcDbFaceRecord
 10
0.0
 20
0.0
 30
0.0
 70
   128
 71
    63
 72
    62
 73
    61
  0
VERTEX
  5
CFC
330
B4D
100
AcDbEntity
  8
0
 62
     7
100
AcDbFaceRecord
 10
0.0
 20
0.0
 30
0.0
 70
   128
 71
    64
 72
    65
 73
    66
  0
VERTEX
  5
CFD
330
B4D
100
AcDbEntity
  8
0
 62
     7
100
AcDbFaceRecord
 10
0.0
 20
0.0
 30
0.0
 70
   128
 71
    67
 72
    66
 73
    65
  0
VERTEX
  5
CFE
330
B4D
100
AcDbEntity
  8
0
 62
     7
100
AcDbFaceRecord
 10
0.0
 20
0.0
 30
0.0
 70
   128
 71
    67
 72
    68
 73
    66
  0
VERTEX
  5
CFF
330
B4D
100
AcDbEntity
  8
0
 62
     7
100
AcDbFaceRecord
 10
0.0
 20
0.0
 30
0.0
 70
   128
 71
     1
 72
    69
 73
     7
  0
VERTEX
  5
D00
330
B4D
100
AcDbEntity
  8
0
 62
     7
100
AcDbFaceRecord
 10
0.0
 20
0.0
 30
0.0
 70
   128
 71
    70
 72
    71
 73
    72
  0
VERTEX
  5
D01
330
B4D
100
AcDbEntity
  8
0
 62
     7
100
AcDbFaceRecord
 10
0.0
 20
0.0
 30
0.0
 70
   128
 71
    67
 72
    72
 73
    71
  0
VERTEX
  5
D02
330
B4D
100
AcDbEntity
  8
0
 62
     7
100
AcDbFaceRecord
 10
0.0
 20
0.0
 30
0.0
 70
   128
 71
    67
 72
    73
 73
    72
  0
VERTEX
  5
D03
330
B4D
100
AcDbEntity
  8
0
 62
     7
100
AcDbFaceRecord
 10
0.0
 20
0.0
 30
0.0
 70
   128
 71
    60
 72
    74
 73
    75
  0
VERTEX
  5
D04
330
B4D
100
AcDbEntity
  8
0
 62
     7
100
AcDbFaceRecord
 10
0.0
 20
0.0
 30
0.0
 70
   128
 71
    76
 72
    77
 73
    78
  0
VERTEX
  5
D05
330
B4D
100
AcDbEntity
  8
0
 62
     7
100
AcDbFaceRecord
 10
0.0
 20
0.0
 30
0.0
 70
   128
 71
    76
 72
    79
 73
    77
  0
VERTEX
  5
D06
330
B4D
100
AcDbEntity
  8
0
 62
     7
100
AcDbFaceRecord
 10
0.0
 20
0.0
 30
0.0
 70
   128
 71
    59
 72
    76
 73
    78
  0
VERTEX
  5
D07
330
B4D
100
AcDbEntity
  8
0
 62
     7
100
AcDbFaceRecord
 10
0.0
 20
0.0
 30
0.0
 70
   128
 71
    80
 72
    79
 73
    76
  0
VERTEX
  5
D08
330
B4D
100
AcDbEntity
  8
0
 62
     7
100
AcDbFaceRecord
 10
0.0
 20
0.0
 30
0.0
 70
   128
 71
    74
 72
    60
 73
    62
  0
VERTEX
  5
D09
330
B4D
100
AcDbEntity
  8
0
 62
     7
100
AcDbFaceRecord
 10
0.0
 20
0.0
 30
0.0
 70
   128
 71
    81
 72
    79
 73
    82
  0
VERTEX
  5
D0A
330
B4D
100
AcDbEntity
  8
0
 62
     7
100
AcDbFaceRecord
 10
0.0
 20
0.0
 30
0.0
 70
   128
 71
    81
 72
    77
 73
    79
  0
VERTEX
  5
D0B
330
B4D
100
AcDbEntity
  8
0
 62
     7
100
AcDbFaceRecord
 10
0.0
 20
0.0
 30
0.0
 70
   128
 71
    81
 72
    74
 73
    77
  0
VERTEX
  5
D0C
330
B4D
100
AcDbEntity
  8
0
 62
     7
100
AcDbFaceRecord
 10
0.0
 20
0.0
 30
0.0
 70
   128
 71
    81
 72
    75
 73
    74
  0
VERTEX
  5
D0D
330
B4D
100
AcDbEntity
  8
0
 62
     7
100
AcDbFaceRecord
 10
0.0
 20
0.0
 30
0.0
 70
   128
 71
    73
 72
    61
 73
    60
  0
VERTEX
  5
D0E
330
B4D
100
AcDbEntity
  8
0
 62
     7
100
AcDbFaceRecord
 10
0.0
 20
0.0
 30
0.0
 70
   128
 71
    73
 72
    65
 73
    61
  0
VERTEX
  5
D0F
330
B4D
100
AcDbEntity
  8
0
 62
     7
100
AcDbFaceRecord
 10
0.0
 20
0.0
 30
0.0
 70
   128
 71
    73
 72
    67
 73
    65
  0
VERTEX
  5
D10
330
B4D
100
AcDbEntity
  8
0
 62
     7
100
AcDbFaceRecord
 10
0.0
 20
0.0
 30
0.0
 70
   128
 71
    83
 72
    66
 73
    68
  0
VERTEX
  5
D11
330
B4D
100
AcDbEntity
  8
0
 62
     7
100
AcDbFaceRecord
 10
0.0
 20
0.0
 30
0.0
 70
   128
 71
    84
 72
    75
 73
    85
  0
VERTEX
  5
D12
330
B4D
100
AcDbEntity
  8
0
 62
     7
100
AcDbFaceRecord
 10
0.0
 20
0.0
 30
0.0
 70
   128
 71
    84
 72
    60
 73
    75
  0
VERTEX
  5
D13
330
B4D
100
AcDbEntity
  8
0
 62
     7
100
AcDbFaceRecord
 10
0.0
 20
0.0
 30
0.0
 70
   128
 71
    84
 72
    73
 73
    60
  0
VERTEX
  5
D14
330
B4D
100
AcDbEntity
  8
0
 62
     7
100
AcDbFaceRecord
 10
0.0
 20
0.0
 30
0.0
 70
   128
 71
    84
 72
    72
 73
    73
  0
VERTEX
  5
D15
330
B4D
100
AcDbEntity
  8
0
 62
     7
100
AcDbFaceRecord
 10
0.0
 20
0.0
 30
0.0
 70
   128
 71
    69
 72
    83
 73
    68
  0
VERTEX
  5
D16
330
B4D
100
AcDbEntity
  8
0
 62
     7
100
AcDbFaceRecord
 10
0.0
 20
0.0
 30
0.0
 70
   128
 71
    68
 72
    67
 73
    71
  0
VERTEX
  5
D17
330
B4D
100
AcDbEntity
  8
0
 62
     7
100
AcDbFaceRecord
 10
0.0
 20
0.0
 30
0.0
 70
   128
 71
    86
 72
    79
 73
    80
  0
VERTEX
  5
D18
330
B4D
100
AcDbEntity
  8
0
 62
     7
100
AcDbFaceRecord
 10
0.0
 20
0.0
 30
0.0
 70
   128
 71
    86
 72
    82
 73
    79
  0
VERTEX
  5
D19
330
B4D
100
AcDbEntity
  8
0
 62
     7
100
AcDbFaceRecord
 10
0.0
 20
0.0
 30
0.0
 70
   128
 71
    87
 72
    81
 73
    82
  0
VERTEX
  5
D1A
330
B4D
100
AcDbEntity
  8
0
 62
     7
100
AcDbFaceRecord
 10
0.0
 20
0.0
 30
0.0
 70
   128
 71
    87
 72
    75
 73
    81
  0
VERTEX
  5
D1B
330
B4D
100
AcDbEntity
  8
0
 62
     7
100
AcDbFaceRecord
 10
0.0
 20
0.0
 30
0.0
 70
   128
 71
    87
 72
    85
 73
    75
  0
VERTEX
  5
D1C
330
B4D
100
AcDbEntity
  8
0
 62
     7
100
AcDbFaceRecord
 10
0.0
 20
0.0
 30
0.0
 70
   128
 71
    88
 72
    87
 73
    82
  0
VERTEX
  5
D1D
330
B4D
100
AcDbEntity
  8
0
 62
     7
100
AcDbFaceRecord
 10
0.0
 20
0.0
 30
0.0
 70
   128
 71
    89
 72
    84
 73
    85
  0
VERTEX
  5
D1E
330
B4D
100
AcDbEntity
  8
0
 62
     7
100
AcDbFaceRecord
 10
0.0
 20
0.0
 30
0.0
 70
   128
 71
    89
 72
    72
 73
    84
  0
VERTEX
  5
D1F
330
B4D
100
AcDbEntity
  8
0
 62
     7
100
AcDbFaceRecord
 10
0.0
 20
0.0
 30
0.0
 70
   128
 71
    89
 72
    70
 73
    72
  0
VERTEX
  5
D20
330
B4D
100
AcDbEntity
  8
0
 62
     7
100
AcDbFaceRecord
 10
0.0
 20
0.0
 30
0.0
 70
   128
 71
    90
 72
    89
 73
    85
  0
VERTEX
  5
D21
330
B4D
100
AcDbEntity
  8
0
 62
     7
100
AcDbFaceRecord
 10
0.0
 20
0.0
 30
0.0
 70
   128
 71
    91
 72
    70
 73
    92
  0
VERTEX
  5
D22
330
B4D
100
AcDbEntity
  8
0
 62
     7
100
AcDbFaceRecord
 10
0.0
 20
0.0
 30
0.0
 70
   128
 71
    91
 72
    71
 73
    70
  0
VERTEX
  5
D23
330
B4D
100
AcDbEntity
  8
0
 62
     7
100
AcDbFaceRecord
 10
0.0
 20
0.0
 30
0.0
 70
   128
 71
     5
 72
    92
 73
    11
  0
VERTEX
  5
D24
330
B4D
100
AcDbEntity
  8
0
 62
     7
100
AcDbFaceRecord
 10
0.0
 20
0.0
 30
0.0
 70
   128
 71
     5
 72
    91
 73
    92
  0
VERTEX
  5
D25
330
B4D
100
AcDbEntity
  8
0
 62
     7
100
AcDbFaceRecord
 10
0.0
 20
0.0
 30
0.0
 70
   128
 71
    93
 72
    94
 73
    95
  0
VERTEX
  5
D26
330
B4D
100
AcDbEntity
  8
0
 62
     7
100
AcDbFaceRecord
 10
0.0
 20
0.0
 30
0.0
 70
   128
 71
    93
 72
    80
 73
    94
  0
VERTEX
  5
D27
330
B4D
100
AcDbEntity
  8
0
 62
     7
100
AcDbFaceRecord
 10
0.0
 20
0.0
 30
0.0
 70
   128
 71
    93
 72
    86
 73
    80
  0
VERTEX
  5
D28
330
B4D
100
AcDbEntity
  8
0
 62
     7
100
AcDbFaceRecord
 10
0.0
 20
0.0
 30
0.0
 70
   128
 71
    93
 72
    96
 73
    86
  0
VERTEX
  5
D29
330
B4D
100
AcDbEntity
  8
0
 62
     7
100
AcDbFaceRecord
 10
0.0
 20
0.0
 30
0.0
 70
   128
 71
    97
 72
    86
 73
    96
  0
VERTEX
  5
D2A
330
B4D
100
AcDbEntity
  8
0
 62
     7
100
AcDbFaceRecord
 10
0.0
 20
0.0
 30
0.0
 70
   128
 71
    97
 72
    82
 73
    86
  0
VERTEX
  5
D2B
330
B4D
100
AcDbEntity
  8
0
 62
     7
100
AcDbFaceRecord
 10
0.0
 20
0.0
 30
0.0
 70
   128
 71
    97
 72
    88
 73
    82
  0
VERTEX
  5
D2C
330
B4D
100
AcDbEntity
  8
0
 62
     7
100
AcDbFaceRecord
 10
0.0
 20
0.0
 30
0.0
 70
   128
 71
    98
 72
    97
 73
    96
  0
VERTEX
  5
D2D
330
B4D
100
AcDbEntity
  8
0
 62
     7
100
AcDbFaceRecord
 10
0.0
 20
0.0
 30
0.0
 70
   128
 71
    99
 72
    87
 73
    88
  0
VERTEX
  5
D2E
330
B4D
100
AcDbEntity
  8
0
 62
     7
100
AcDbFaceRecord
 10
0.0
 20
0.0
 30
0.0
 70
   128
 71
    99
 72
    85
 73
    87
  0
VERTEX
  5
D2F
330
B4D
100
AcDbEntity
  8
0
 62
     7
100
AcDbFaceRecord
 10
0.0
 20
0.0
 30
0.0
 70
   128
 71
    99
 72
    90
 73
    85
  0
VERTEX
  5
D30
330
B4D
100
AcDbEntity
  8
0
 62
     7
100
AcDbFaceRecord
 10
0.0
 20
0.0
 30
0.0
 70
   128
 71
   100
 72
    99
 73
    88
  0
VERTEX
  5
D31
330
B4D
100
AcDbEntity
  8
0
 62
     7
100
AcDbFaceRecord
 10
0.0
 20
0.0
 30
0.0
 70
   128
 71
   101
 72
    89
 73
    90
  0
VERTEX
  5
D32
330
B4D
100
AcDbEntity
  8
0
 62
     7
100
AcDbFaceRecord
 10
0.0
 20
0.0
 30
0.0
 70
   128
 71
   101
 72
    70
 73
    89
  0
VERTEX
  5
D33
330
B4D
100
AcDbEntity
  8
0
 62
     7
100
AcDbFaceRecord
 10
0.0
 20
0.0
 30
0.0
 70
   128
 71
   101
 72
    92
 73
    70
  0
VERTEX
  5
D34
330
B4D
100
AcDbEntity
  8
0
 62
     7
100
AcDbFaceRecord
 10
0.0
 20
0.0
 30
0.0
 70
   128
 71
   102
 72
   101
 73
    90
  0
VERTEX
  5
D35
330
B4D
100
AcDbEntity
  8
0
 62
     7
100
AcDbFaceRecord
 10
0.0
 20
0.0
 30
0.0
 70
   128
 71
    37
 72
    39
 73
   103
  0
VERTEX
  5
D36
330
B4D
100
AcDbEntity
  8
0
 62
     7
100
AcDbFaceRecord
 10
0.0
 20
0.0
 30
0.0
 70
   128
 71
   104
 72
    98
 73
    96
  0
VERTEX
  5
D37
330
B4D
100
AcDbEntity
  8
0
 62
     7
100
AcDbFaceRecord
 10
0.0
 20
0.0
 30
0.0
 70
   128
 71
   105
 72
    93
 73
    95
  0
VERTEX
  5
D38
330
B4D
100
AcDbEntity
  8
0
 62
     7
100
AcDbFaceRecord
 10
0.0
 20
0.0
 30
0.0
 70
   128
 71
   105
 72
    96
 73
    93
  0
VERTEX
  5
D39
330
B4D
100
AcDbEntity
  8
0
 62
     7
100
AcDbFaceRecord
 10
0.0
 20
0.0
 30
0.0
 70
   128
 71
   105
 72
   104
 73
    96
  0
VERTEX
  5
D3A
330
B4D
100
AcDbEntity
  8
0
 62
     7
100
AcDbFaceRecord
 10
0.0
 20
0.0
 30
0.0
 70
   128
 71
   105
 72
   106
 73
   104
  0
VERTEX
  5
D3B
330
B4D
100
AcDbEntity
  8
0
 62
     7
100
AcDbFaceRecord
 10
0.0
 20
0.0
 30
0.0
 70
   128
 71
   107
 72
    98
 73
   104
  0
VERTEX
  5
D3C
330
B4D
100
AcDbEntity
  8
0
 62
     7
100
AcDbFaceRecord
 10
0.0
 20
0.0
 30
0.0
 70
   128
 71
   108
 72
    97
 73
    98
  0
VERTEX
  5
D3D
330
B4D
100
AcDbEntity
  8
0
 62
     7
100
AcDbFaceRecord
 10
0.0
 20
0.0
 30
0.0
 70
   128
 71
   108
 72
    88
 73
    97
  0
VERTEX
  5
D3E
330
B4D
100
AcDbEntity
  8
0
 62
     7
100
AcDbFaceRecord
 10
0.0
 20
0.0
 30
0.0
 70
   128
 71
   108
 72
   100
 73
    88
  0
VERTEX
  5
D3F
330
B4D
100
AcDbEntity
  8
0
 62
     7
100
AcDbFaceRecord
 10
0.0
 20
0.0
 30
0.0
 70
   128
 71
   109
 72
   100
 73
   108
  0
VERTEX
  5
D40
330
B4D
100
AcDbEntity
  8
0
 62
     7
100
AcDbFaceRecord
 10
0.0
 20
0.0
 30
0.0
 70
   128
 71
   110
 72
    99
 73
   100
  0
VERTEX
  5
D41
330
B4D
100
AcDbEntity
  8
0
 62
     7
100
AcDbFaceRecord
 10
0.0
 20
0.0
 30
0.0
 70
   128
 71
   110
 72
    90
 73
    99
  0
VERTEX
  5
D42
330
B4D
100
AcDbEntity
  8
0
 62
     7
100
AcDbFaceRecord
 10
0.0
 20
0.0
 30
0.0
 70
   128
 71
   110
 72
   102
 73
    90
  0
VERTEX
  5
D43
330
B4D
100
AcDbEntity
  8
0
 62
     7
100
AcDbFaceRecord
 10
0.0
 20
0.0
 30
0.0
 70
   128
 71
   111
 72
   102
 73
   110
  0
VERTEX
  5
D44
330
B4D
100
AcDbEntity
  8
0
 62
     7
100
AcDbFaceRecord
 10
0.0
 20
0.0
 30
0.0
 70
   128
 71
     9
 72
   112
 73
    15
  0
VERTEX
  5
D45
330
B4D
100
AcDbEntity
  8
0
 62
     7
100
AcDbFaceRecord
 10
0.0
 20
0.0
 30
0.0
 70
   128
 71
   103
 72
   113
 73
   106
  0
VERTEX
  5
D46
330
B4D
100
AcDbEntity
  8
0
 62
     7
100
AcDbFaceRecord
 10
0.0
 20
0.0
 30
0.0
 70
   128
 71
   114
 72
   106
 73
   113
  0
VERTEX
  5
D47
330
B4D
100
AcDbEntity
  8
0
 62
     7
100
AcDbFaceRecord
 10
0.0
 20
0.0
 30
0.0
 70
   128
 71
   114
 72
   104
 73
   106
  0
VERTEX
  5
D48
330
B4D
100
AcDbEntity
  8
0
 62
     7
100
AcDbFaceRecord
 10
0.0
 20
0.0
 30
0.0
 70
   128
 71
   114
 72
   107
 73
   104
  0
VERTEX
  5
D49
330
B4D
100
AcDbEntity
  8
0
 62
     7
100
AcDbFaceRecord
 10
0.0
 20
0.0
 30
0.0
 70
   128
 71
   115
 72
   107
 73
   114
  0
VERTEX
  5
D4A
330
B4D
100
AcDbEntity
  8
0
 62
     7
100
AcDbFaceRecord
 10
0.0
 20
0.0
 30
0.0
 70
   128
 71
   116
 72
    98
 73
   107
  0
VERTEX
  5
D4B
330
B4D
100
AcDbEntity
  8
0
 62
     7
100
AcDbFaceRecord
 10
0.0
 20
0.0
 30
0.0
 70
   128
 71
   116
 72
   108
 73
    98
  0
VERTEX
  5
D4C
330
B4D
100
AcDbEntity
  8
0
 62
     7
100
AcDbFaceRecord
 10
0.0
 20
0.0
 30
0.0
 70
   128
 71
   116
 72
   109
 73
   108
  0
VERTEX
  5
D4D
330
B4D
100
AcDbEntity
  8
0
 62
     7
100
AcDbFaceRecord
 10
0.0
 20
0.0
 30
0.0
 70
   128
 71
   117
 72
   109
 73
   116
  0
VERTEX
  5
D4E
330
B4D
100
AcDbEntity
  8
0
 62
     7
100
AcDbFaceRecord
 10
0.0
 20
0.0
 30
0.0
 70
   128
 71
   118
 72
   100
 73
   109
  0
VERTEX
  5
D4F
330
B4D
100
AcDbEntity
  8
0
 62
     7
100
AcDbFaceRecord
 10
0.0
 20
0.0
 30
0.0
 70
   128
 71
   118
 72
   110
 73
   100
  0
VERTEX
  5
D50
330
B4D
100
AcDbEntity
  8
0
 62
     7
100
AcDbFaceRecord
 10
0.0
 20
0.0
 30
0.0
 70
   128
 71
   118
 72
   111
 73
   110
  0
VERTEX
  5
D51
330
B4D
100
AcDbEntity
  8
0
 62
     7
100
AcDbFaceRecord
 10
0.0
 20
0.0
 30
0.0
 70
   128
 71
   112
 72
   102
 73
   111
  0
VERTEX
  5
D52
330
B4D
100
AcDbEntity
  8
0
 62
     7
100
AcDbFaceRecord
 10
0.0
 20
0.0
 30
0.0
 70
   128
 71
   119
 72
   111
 73
   118
  0
VERTEX
  5
D53
330
B4D
100
AcDbEntity
  8
0
 62
     7
100
AcDbFaceRecord
 10
0.0
 20
0.0
 30
0.0
 70
   128
 71
   120
 72
   121
 73
   122
  0
VERTEX
  5
D54
330
B4D
100
AcDbEntity
  8
0
 62
     7
100
AcDbFaceRecord
 10
0.0
 20
0.0
 30
0.0
 70
   128
 71
    43
 72
   120
 73
    41
  0
VERTEX
  5
D55
330
B4D
100
AcDbEntity
  8
0
 62
     7
100
AcDbFaceRecord
 10
0.0
 20
0.0
 30
0.0
 70
   128
 71
    43
 72
   121
 73
   120
  0
VERTEX
  5
D56
330
B4D
100
AcDbEntity
  8
0
 62
     7
100
AcDbFaceRecord
 10
0.0
 20
0.0
 30
0.0
 70
   128
 71
   123
 72
   124
 73
   125
  0
VERTEX
  5
D57
330
B4D
100
AcDbEntity
  8
0
 62
     7
100
AcDbFaceRecord
 10
0.0
 20
0.0
 30
0.0
 70
   128
 71
   126
 72
   127
 73
   128
  0
VERTEX
  5
D58
330
B4D
100
AcDbEntity
  8
0
 62
     7
100
AcDbFaceRecord
 10
0.0
 20
0.0
 30
0.0
 70
   128
 71
   126
 72
   122
 73
   127
  0
VERTEX
  5
D59
330
B4D
100
AcDbEntity
  8
0
 62
     7
100
AcDbFaceRecord
 10
0.0
 20
0.0
 30
0.0
 70
   128
 71
   129
 72
   128
 73
   130
  0
VERTEX
  5
D5A
330
B4D
100
AcDbEntity
  8
0
 62
     7
100
AcDbFaceRecord
 10
0.0
 20
0.0
 30
0.0
 70
   128
 71
   129
 72
   126
 73
   128
  0
VERTEX
  5
D5B
330
B4D
100
AcDbEntity
  8
0
 62
     7
100
AcDbFaceRecord
 10
0.0
 20
0.0
 30
0.0
 70
   128
 71
   131
 72
   130
 73
   132
  0
VERTEX
  5
D5C
330
B4D
100
AcDbEntity
  8
0
 62
     7
100
AcDbFaceRecord
 10
0.0
 20
0.0
 30
0.0
 70
   128
 71
   131
 72
   129
 73
   130
  0
VERTEX
  5
D5D
330
B4D
100
AcDbEntity
  8
0
 62
     7
100
AcDbFaceRecord
 10
0.0
 20
0.0
 30
0.0
 70
   128
 71
   133
 72
   132
 73
   134
  0
VERTEX
  5
D5E
330
B4D
100
AcDbEntity
  8
0
 62
     7
100
AcDbFaceRecord
 10
0.0
 20
0.0
 30
0.0
 70
   128
 71
   133
 72
   131
 73
   132
  0
VERTEX
  5
D5F
330
B4D
100
AcDbEntity
  8
0
 62
     7
100
AcDbFaceRecord
 10
0.0
 20
0.0
 30
0.0
 70
   128
 71
   135
 72
   130
 73
   128
  0
VERTEX
  5
D60
330
B4D
100
AcDbEntity
  8
0
 62
     7
100
AcDbFaceRecord
 10
0.0
 20
0.0
 30
0.0
 70
   128
 71
   136
 72
   134
 73
   125
  0
VERTEX
  5
D61
330
B4D
100
AcDbEntity
  8
0
 62
     7
100
AcDbFaceRecord
 10
0.0
 20
0.0
 30
0.0
 70
   128
 71
   136
 72
   133
 73
   134
  0
VERTEX
  5
D62
330
B4D
100
AcDbEntity
  8
0
 62
     7
100
AcDbFaceRecord
 10
0.0
 20
0.0
 30
0.0
 70
   128
 71
   137
 72
   125
 73
   124
  0
VERTEX
  5
D63
330
B4D
100
AcDbEntity
  8
0
 62
     7
100
AcDbFaceRecord
 10
0.0
 20
0.0
 30
0.0
 70
   128
 71
   137
 72
   136
 73
   125
  0
VERTEX
  5
D64
330
B4D
100
AcDbEntity
  8
0
 62
     7
100
AcDbFaceRecord
 10
0.0
 20
0.0
 30
0.0
 70
   128
 71
   138
 72
   134
 73
   132
  0
VERTEX
  5
D65
330
B4D
100
AcDbEntity
  8
0
 62
     7
100
AcDbFaceRecord
 10
0.0
 20
0.0
 30
0.0
 70
   128
 71
   139
 72
   137
 73
   124
  0
VERTEX
  5
D66
330
B4D
100
AcDbEntity
  8
0
 62
     7
100
AcDbFaceRecord
 10
0.0
 20
0.0
 30
0.0
 70
   128
 71
    19
 72
   123
 73
    17
  0
VERTEX
  5
D67
330
B4D
100
AcDbEntity
  8
0
 62
     7
100
AcDbFaceRecord
 10
0.0
 20
0.0
 30
0.0
 70
   128
 71
    19
 72
   124
 73
   123
  0
VERTEX
  5
D68
330
B4D
100
AcDbEntity
  8
0
 62
     7
100
AcDbFaceRecord
 10
0.0
 20
0.0
 30
0.0
 70
   128
 71
    45
 72
    47
 73
   140
  0
VERTEX
  5
D69
330
B4D
100
AcDbEntity
  8
0
 62
     7
100
AcDbFaceRecord
 10
0.0
 20
0.0
 30
0.0
 70
   128
 71
   141
 72
   122
 73
   121
  0
VERTEX
  5
D6A
330
B4D
100
AcDbEntity
  8
0
 62
     7
100
AcDbFaceRecord
 10
0.0
 20
0.0
 30
0.0
 70
   128
 71
   141
 72
   127
 73
   122
  0
VERTEX
  5
D6B
330
B4D
100
AcDbEntity
  8
0
 62
     7
100
AcDbFaceRecord
 10
0.0
 20
0.0
 30
0.0
 70
   128
 71
   141
 72
   142
 73
   127
  0
VERTEX
  5
D6C
330
B4D
100
AcDbEntity
  8
0
 62
     7
100
AcDbFaceRecord
 10
0.0
 20
0.0
 30
0.0
 70
   128
 71
   141
 72
   143
 73
   142
  0
VERTEX
  5
D6D
330
B4D
100
AcDbEntity
  8
0
 62
     7
100
AcDbFaceRecord
 10
0.0
 20
0.0
 30
0.0
 70
   128
 71
   144
 72
   127
 73
   142
  0
VERTEX
  5
D6E
330
B4D
100
AcDbEntity
  8
0
 62
     7
100
AcDbFaceRecord
 10
0.0
 20
0.0
 30
0.0
 70
   128
 71
   144
 72
   128
 73
   127
  0
VERTEX
  5
D6F
330
B4D
100
AcDbEntity
  8
0
 62
     7
100
AcDbFaceRecord
 10
0.0
 20
0.0
 30
0.0
 70
   128
 71
   144
 72
   135
 73
   128
  0
VERTEX
  5
D70
330
B4D
100
AcDbEntity
  8
0
 62
     7
100
AcDbFaceRecord
 10
0.0
 20
0.0
 30
0.0
 70
   128
 71
   145
 72
   144
 73
   142
  0
VERTEX
  5
D71
330
B4D
100
AcDbEntity
  8
0
 62
     7
100
AcDbFaceRecord
 10
0.0
 20
0.0
 30
0.0
 70
   128
 71
   146
 72
   130
 73
   135
  0
VERTEX
  5
D72
330
B4D
100
AcDbEntity
  8
0
 62
     7
100
AcDbFaceRecord
 10
0.0
 20
0.0
 30
0.0
 70
   128
 71
   146
 72
   132
 73
   130
  0
VERTEX
  5
D73
330
B4D
100
AcDbEntity
  8
0
 62
     7
100
AcDbFaceRecord
 10
0.0
 20
0.0
 30
0.0
 70
   128
 71
   146
 72
   138
 73
   132
  0
VERTEX
  5
D74
330
B4D
100
AcDbEntity
  8
0
 62
     7
100
AcDbFaceRecord
 10
0.0
 20
0.0
 30
0.0
 70
   128
 71
   147
 72
   146
 73
   135
  0
VERTEX
  5
D75
330
B4D
100
AcDbEntity
  8
0
 62
     7
100
AcDbFaceRecord
 10
0.0
 20
0.0
 30
0.0
 70
   128
 71
   148
 72
   134
 73
   138
  0
VERTEX
  5
D76
330
B4D
100
AcDbEntity
  8
0
 62
     7
100
AcDbFaceRecord
 10
0.0
 20
0.0
 30
0.0
 70
   128
 71
   148
 72
   125
 73
   134
  0
VERTEX
  5
D77
330
B4D
100
AcDbEntity
  8
0
 62
     7
100
AcDbFaceRecord
 10
0.0
 20
0.0
 30
0.0
 70
   128
 71
   148
 72
   123
 73
   125
  0
VERTEX
  5
D78
330
B4D
100
AcDbEntity
  8
0
 62
     7
100
AcDbFaceRecord
 10
0.0
 20
0.0
 30
0.0
 70
   128
 71
   149
 72
   148
 73
   138
  0
VERTEX
  5
D79
330
B4D
100
AcDbEntity
  8
0
 62
     7
100
AcDbFaceRecord
 10
0.0
 20
0.0
 30
0.0
 70
   128
 71
   150
 72
   142
 73
   143
  0
VERTEX
  5
D7A
330
B4D
100
AcDbEntity
  8
0
 62
     7
100
AcDbFaceRecord
 10
0.0
 20
0.0
 30
0.0
 70
   128
 71
   150
 72
   145
 73
   142
  0
VERTEX
  5
D7B
330
B4D
100
AcDbEntity
  8
0
 62
     7
100
AcDbFaceRecord
 10
0.0
 20
0.0
 30
0.0
 70
   128
 71
   151
 72
   145
 73
   150
  0
VERTEX
  5
D7C
330
B4D
100
AcDbEntity
  8
0
 62
     7
100
AcDbFaceRecord
 10
0.0
 20
0.0
 30
0.0
 70
   128
 71
   152
 72
   144
 73
   145
  0
VERTEX
  5
D7D
330
B4D
100
AcDbEntity
  8
0
 62
     7
100
AcDbFaceRecord
 10
0.0
 20
0.0
 30
0.0
 70
   128
 71
   152
 72
   135
 73
   144
  0
VERTEX
  5
D7E
330
B4D
100
AcDbEntity
  8
0
 62
     7
100
AcDbFaceRecord
 10
0.0
 20
0.0
 30
0.0
 70
   128
 71
   152
 72
   147
 73
   135
  0
VERTEX
  5
D7F
330
B4D
100
AcDbEntity
  8
0
 62
     7
100
AcDbFaceRecord
 10
0.0
 20
0.0
 30
0.0
 70
   128
 71
   153
 72
   147
 73
   152
  0
VERTEX
  5
D80
330
B4D
100
AcDbEntity
  8
0
 62
     7
100
AcDbFaceRecord
 10
0.0
 20
0.0
 30
0.0
 70
   128
 71
   154
 72
   146
 73
   147
  0
VERTEX
  5
D81
330
B4D
100
AcDbEntity
  8
0
 62
     7
100
AcDbFaceRecord
 10
0.0
 20
0.0
 30
0.0
 70
   128
 71
   154
 72
   138
 73
   146
  0
VERTEX
  5
D82
330
B4D
100
AcDbEntity
  8
0
 62
     7
100
AcDbFaceRecord
 10
0.0
 20
0.0
 30
0.0
 70
   128
 71
   154
 72
   149
 73
   138
  0
VERTEX
  5
D83
330
B4D
100
AcDbEntity
  8
0
 62
     7
100
AcDbFaceRecord
 10
0.0
 20
0.0
 30
0.0
 70
   128
 71
   155
 72
   149
 73
   154
  0
VERTEX
  5
D84
330
B4D
100
AcDbEntity
  8
0
 62
     7
100
AcDbFaceRecord
 10
0.0
 20
0.0
 30
0.0
 70
   128
 71
    49
 72
    51
 73
   156
  0
VERTEX
  5
D85
330
B4D
100
AcDbEntity
  8
0
 62
     7
100
AcDbFaceRecord
 10
0.0
 20
0.0
 30
0.0
 70
   128
 71
    23
 72
   157
 73
    21
  0
VERTEX
  5
D86
330
B4D
100
AcDbEntity
  8
0
 62
     7
100
AcDbFaceRecord
 10
0.0
 20
0.0
 30
0.0
 70
   128
 71
   158
 72
   156
 73
    51
  0
VERTEX
  5
D87
330
B4D
100
AcDbEntity
  8
0
 62
     7
100
AcDbFaceRecord
 10
0.0
 20
0.0
 30
0.0
 70
   128
 71
   158
 72
   159
 73
   156
  0
VERTEX
  5
D88
330
B4D
100
AcDbEntity
  8
0
 62
     7
100
AcDbFaceRecord
 10
0.0
 20
0.0
 30
0.0
 70
   128
 71
   160
 72
   151
 73
   150
  0
VERTEX
  5
D89
330
B4D
100
AcDbEntity
  8
0
 62
     7
100
AcDbFaceRecord
 10
0.0
 20
0.0
 30
0.0
 70
   128
 71
   161
 72
   143
 73
   140
  0
VERTEX
  5
D8A
330
B4D
100
AcDbEntity
  8
0
 62
     7
100
AcDbFaceRecord
 10
0.0
 20
0.0
 30
0.0
 70
   128
 71
   161
 72
   150
 73
   143
  0
VERTEX
  5
D8B
330
B4D
100
AcDbEntity
  8
0
 62
     7
100
AcDbFaceRecord
 10
0.0
 20
0.0
 30
0.0
 70
   128
 71
   161
 72
   160
 73
   150
  0
VERTEX
  5
D8C
330
B4D
100
AcDbEntity
  8
0
 62
     7
100
AcDbFaceRecord
 10
0.0
 20
0.0
 30
0.0
 70
   128
 71
   161
 72
   162
 73
   160
  0
VERTEX
  5
D8D
330
B4D
100
AcDbEntity
  8
0
 62
     7
100
AcDbFaceRecord
 10
0.0
 20
0.0
 30
0.0
 70
   128
 71
   163
 72
   151
 73
   160
  0
VERTEX
  5
D8E
330
B4D
100
AcDbEntity
  8
0
 62
     7
100
AcDbFaceRecord
 10
0.0
 20
0.0
 30
0.0
 70
   128
 71
   164
 72
   145
 73
   151
  0
VERTEX
  5
D8F
330
B4D
100
AcDbEntity
  8
0
 62
     7
100
AcDbFaceRecord
 10
0.0
 20
0.0
 30
0.0
 70
   128
 71
   164
 72
   152
 73
   145
  0
VERTEX
  5
D90
330
B4D
100
AcDbEntity
  8
0
 62
     7
100
AcDbFaceRecord
 10
0.0
 20
0.0
 30
0.0
 70
   128
 71
   164
 72
   153
 73
   152
  0
VERTEX
  5
D91
330
B4D
100
AcDbEntity
  8
0
 62
     7
100
AcDbFaceRecord
 10
0.0
 20
0.0
 30
0.0
 70
   128
 71
   165
 72
   153
 73
   164
  0
VERTEX
  5
D92
330
B4D
100
AcDbEntity
  8
0
 62
     7
100
AcDbFaceRecord
 10
0.0
 20
0.0
 30
0.0
 70
   128
 71
   166
 72
   147
 73
   153
  0
VERTEX
  5
D93
330
B4D
100
AcDbEntity
  8
0
 62
     7
100
AcDbFaceRecord
 10
0.0
 20
0.0
 30
0.0
 70
   128
 71
   166
 72
   154
 73
   147
  0
VERTEX
  5
D94
330
B4D
100
AcDbEntity
  8
0
 62
     7
100
AcDbFaceRecord
 10
0.0
 20
0.0
 30
0.0
 70
   128
 71
   166
 72
   155
 73
   154
  0
VERTEX
  5
D95
330
B4D
100
AcDbEntity
  8
0
 62
     7
100
AcDbFaceRecord
 10
0.0
 20
0.0
 30
0.0
 70
   128
 71
   157
 72
   149
 73
   155
  0
VERTEX
  5
D96
330
B4D
100
AcDbEntity
  8
0
 62
     7
100
AcDbFaceRecord
 10
0.0
 20
0.0
 30
0.0
 70
   128
 71
   167
 72
   155
 73
   166
  0
VERTEX
  5
D97
330
B4D
100
AcDbEntity
  8
0
 62
     7
100
AcDbFaceRecord
 10
0.0
 20
0.0
 30
0.0
 70
   128
 71
   168
 72
   169
 73
   170
  0
VERTEX
  5
D98
330
B4D
100
AcDbEntity
  8
0
 62
     7
100
AcDbFaceRecord
 10
0.0
 20
0.0
 30
0.0
 70
   128
 71
   167
 72
   170
 73
   169
  0
VERTEX
  5
D99
330
B4D
100
AcDbEntity
  8
0
 62
     7
100
AcDbFaceRecord
 10
0.0
 20
0.0
 30
0.0
 70
   128
 71
   167
 72
   171
 73
   170
  0
VERTEX
  5
D9A
330
B4D
100
AcDbEntity
  8
0
 62
     7
100
AcDbFaceRecord
 10
0.0
 20
0.0
 30
0.0
 70
   128
 71
   165
 72
   172
 73
   173
  0
VERTEX
  5
D9B
330
B4D
100
AcDbEntity
  8
0
 62
     7
100
AcDbFaceRecord
 10
0.0
 20
0.0
 30
0.0
 70
   128
 71
   163
 72
   174
 73
   175
  0
VERTEX
  5
D9C
330
B4D
100
AcDbEntity
  8
0
 62
     7
100
AcDbFaceRecord
 10
0.0
 20
0.0
 30
0.0
 70
   128
 71
   162
 72
   156
 73
   159
  0
VERTEX
  5
D9D
330
B4D
100
AcDbEntity
  8
0
 62
     7
100
AcDbFaceRecord
 10
0.0
 20
0.0
 30
0.0
 70
   128
 71
   174
 72
   162
 73
   159
  0
VERTEX
  5
D9E
330
B4D
100
AcDbEntity
  8
0
 62
     7
100
AcDbFaceRecord
 10
0.0
 20
0.0
 30
0.0
 70
   128
 71
   174
 72
   160
 73
   162
  0
VERTEX
  5
D9F
330
B4D
100
AcDbEntity
  8
0
 62
     7
100
AcDbFaceRecord
 10
0.0
 20
0.0
 30
0.0
 70
   128
 71
   174
 72
   163
 73
   160
  0
VERTEX
  5
DA0
330
B4D
100
AcDbEntity
  8
0
 62
     7
100
AcDbFaceRecord
 10
0.0
 20
0.0
 30
0.0
 70
   128
 71
   176
 72
   174
 73
   159
  0
VERTEX
  5
DA1
330
B4D
100
AcDbEntity
  8
0
 62
     7
100
AcDbFaceRecord
 10
0.0
 20
0.0
 30
0.0
 70
   128
 71
   176
 72
   175
 73
   174
  0
VERTEX
  5
DA2
330
B4D
100
AcDbEntity
  8
0
 62
     7
100
AcDbFaceRecord
 10
0.0
 20
0.0
 30
0.0
 70
   128
 71
   172
 72
   151
 73
   163
  0
VERTEX
  5
DA3
330
B4D
100
AcDbEntity
  8
0
 62
     7
100
AcDbFaceRecord
 10
0.0
 20
0.0
 30
0.0
 70
   128
 71
   172
 72
   164
 73
   151
  0
VERTEX
  5
DA4
330
B4D
100
AcDbEntity
  8
0
 62
     7
100
AcDbFaceRecord
 10
0.0
 20
0.0
 30
0.0
 70
   128
 71
   172
 72
   165
 73
   164
  0
VERTEX
  5
DA5
330
B4D
100
AcDbEntity
  8
0
 62
     7
100
AcDbFaceRecord
 10
0.0
 20
0.0
 30
0.0
 70
   128
 71
   177
 72
   175
 73
   178
  0
VERTEX
  5
DA6
330
B4D
100
AcDbEntity
  8
0
 62
     7
100
AcDbFaceRecord
 10
0.0
 20
0.0
 30
0.0
 70
   128
 71
   177
 72
   163
 73
   175
  0
VERTEX
  5
DA7
330
B4D
100
AcDbEntity
  8
0
 62
     7
100
AcDbFaceRecord
 10
0.0
 20
0.0
 30
0.0
 70
   128
 71
   177
 72
   172
 73
   163
  0
VERTEX
  5
DA8
330
B4D
100
AcDbEntity
  8
0
 62
     7
100
AcDbFaceRecord
 10
0.0
 20
0.0
 30
0.0
 70
   128
 71
   177
 72
   173
 73
   172
  0
VERTEX
  5
DA9
330
B4D
100
AcDbEntity
  8
0
 62
     7
100
AcDbFaceRecord
 10
0.0
 20
0.0
 30
0.0
 70
   128
 71
   171
 72
   153
 73
   165
  0
VERTEX
  5
DAA
330
B4D
100
AcDbEntity
  8
0
 62
     7
100
AcDbFaceRecord
 10
0.0
 20
0.0
 30
0.0
 70
   128
 71
   171
 72
   166
 73
   153
  0
VERTEX
  5
DAB
330
B4D
100
AcDbEntity
  8
0
 62
     7
100
AcDbFaceRecord
 10
0.0
 20
0.0
 30
0.0
 70
   128
 71
   171
 72
   167
 73
   166
  0
VERTEX
  5
DAC
330
B4D
100
AcDbEntity
  8
0
 62
     7
100
AcDbFaceRecord
 10
0.0
 20
0.0
 30
0.0
 70
   128
 71
   179
 72
   173
 73
   180
  0
VERTEX
  5
DAD
330
B4D
100
AcDbEntity
  8
0
 62
     7
100
AcDbFaceRecord
 10
0.0
 20
0.0
 30
0.0
 70
   128
 71
   179
 72
   165
 73
   173
  0
VERTEX
  5
DAE
330
B4D
100
AcDbEntity
  8
0
 62
     7
100
AcDbFaceRecord
 10
0.0
 20
0.0
 30
0.0
 70
   128
 71
   179
 72
   171
 73
   165
  0
VERTEX
  5
DAF
330
B4D
100
AcDbEntity
  8
0
 62
     7
100
AcDbFaceRecord
 10
0.0
 20
0.0
 30
0.0
 70
   128
 71
   179
 72
   170
 73
   171
  0
VERTEX
  5
DB0
330
B4D
100
AcDbEntity
  8
0
 62
     7
100
AcDbFaceRecord
 10
0.0
 20
0.0
 30
0.0
 70
   128
 71
   181
 72
   168
 73
   182
  0
VERTEX
  5
DB1
330
B4D
100
AcDbEntity
  8
0
 62
     7
100
AcDbFaceRecord
 10
0.0
 20
0.0
 30
0.0
 70
   128
 71
   158
 72
    53
 73
   183
  0
VERTEX
  5
DB2
330
B4D
100
AcDbEntity
  8
0
 62
     7
100
AcDbFaceRecord
 10
0.0
 20
0.0
 30
0.0
 70
   128
 71
   184
 72
   158
 73
   183
  0
VERTEX
  5
DB3
330
B4D
100
AcDbEntity
  8
0
 62
     7
100
AcDbFaceRecord
 10
0.0
 20
0.0
 30
0.0
 70
   128
 71
   184
 72
   159
 73
   158
  0
VERTEX
  5
DB4
330
B4D
100
AcDbEntity
  8
0
 62
     7
100
AcDbFaceRecord
 10
0.0
 20
0.0
 30
0.0
 70
   128
 71
   184
 72
   176
 73
   159
  0
VERTEX
  5
DB5
330
B4D
100
AcDbEntity
  8
0
 62
     7
100
AcDbFaceRecord
 10
0.0
 20
0.0
 30
0.0
 70
   128
 71
   184
 72
   185
 73
   176
  0
VERTEX
  5
DB6
330
B4D
100
AcDbEntity
  8
0
 62
     7
100
AcDbFaceRecord
 10
0.0
 20
0.0
 30
0.0
 70
   128
 71
   186
 72
   176
 73
   185
  0
VERTEX
  5
DB7
330
B4D
100
AcDbEntity
  8
0
 62
     7
100
AcDbFaceRecord
 10
0.0
 20
0.0
 30
0.0
 70
   128
 71
   186
 72
   175
 73
   176
  0
VERTEX
  5
DB8
330
B4D
100
AcDbEntity
  8
0
 62
     7
100
AcDbFaceRecord
 10
0.0
 20
0.0
 30
0.0
 70
   128
 71
   186
 72
   178
 73
   175
  0
VERTEX
  5
DB9
330
B4D
100
AcDbEntity
  8
0
 62
     7
100
AcDbFaceRecord
 10
0.0
 20
0.0
 30
0.0
 70
   128
 71
   187
 72
   178
 73
   186
  0
VERTEX
  5
DBA
330
B4D
100
AcDbEntity
  8
0
 62
     7
100
AcDbFaceRecord
 10
0.0
 20
0.0
 30
0.0
 70
   128
 71
   188
 72
   177
 73
   178
  0
VERTEX
  5
DBB
330
B4D
100
AcDbEntity
  8
0
 62
     7
100
AcDbFaceRecord
 10
0.0
 20
0.0
 30
0.0
 70
   128
 71
   188
 72
   173
 73
   177
  0
VERTEX
  5
DBC
330
B4D
100
AcDbEntity
  8
0
 62
     7
100
AcDbFaceRecord
 10
0.0
 20
0.0
 30
0.0
 70
   128
 71
   188
 72
   180
 73
   173
  0
VERTEX
  5
DBD
330
B4D
100
AcDbEntity
  8
0
 62
     7
100
AcDbFaceRecord
 10
0.0
 20
0.0
 30
0.0
 70
   128
 71
   189
 72
   180
 73
   188
  0
VERTEX
  5
DBE
330
B4D
100
AcDbEntity
  8
0
 62
     7
100
AcDbFaceRecord
 10
0.0
 20
0.0
 30
0.0
 70
   128
 71
   182
 72
   179
 73
   180
  0
VERTEX
  5
DBF
330
B4D
100
AcDbEntity
  8
0
 62
     7
100
AcDbFaceRecord
 10
0.0
 20
0.0
 30
0.0
 70
   128
 71
   182
 72
   170
 73
   179
  0
VERTEX
  5
DC0
330
B4D
100
AcDbEntity
  8
0
 62
     7
100
AcDbFaceRecord
 10
0.0
 20
0.0
 30
0.0
 70
   128
 71
   182
 72
   168
 73
   170
  0
VERTEX
  5
DC1
330
B4D
100
AcDbEntity
  8
0
 62
     7
100
AcDbFaceRecord
 10
0.0
 20
0.0
 30
0.0
 70
   128
 71
    27
 72
   181
 73
    25
  0
VERTEX
  5
DC2
330
B4D
100
AcDbEntity
  8
0
 62
     7
100
AcDbFaceRecord
 10
0.0
 20
0.0
 30
0.0
 70
   128
 71
    27
 72
   168
 73
   181
  0
VERTEX
  5
DC3
330
B4D
100
AcDbEntity
  8
0
 62
     7
100
AcDbFaceRecord
 10
0.0
 20
0.0
 30
0.0
 70
   128
 71
    54
 72
    56
 73
   190
  0
VERTEX
  5
DC4
330
B4D
100
AcDbEntity
  8
0
 62
     7
100
AcDbFaceRecord
 10
0.0
 20
0.0
 30
0.0
 70
   128
 71
   191
 72
   184
 73
   183
  0
VERTEX
  5
DC5
330
B4D
100
AcDbEntity
  8
0
 62
     7
100
AcDbFaceRecord
 10
0.0
 20
0.0
 30
0.0
 70
   128
 71
   191
 72
   185
 73
   184
  0
VERTEX
  5
DC6
330
B4D
100
AcDbEntity
  8
0
 62
     7
100
AcDbFaceRecord
 10
0.0
 20
0.0
 30
0.0
 70
   128
 71
   191
 72
   192
 73
   185
  0
VERTEX
  5
DC7
330
B4D
100
AcDbEntity
  8
0
 62
     7
100
AcDbFaceRecord
 10
0.0
 20
0.0
 30
0.0
 70
   128
 71
   191
 72
   193
 73
   192
  0
VERTEX
  5
DC8
330
B4D
100
AcDbEntity
  8
0
 62
     7
100
AcDbFaceRecord
 10
0.0
 20
0.0
 30
0.0
 70
   128
 71
   194
 72
   185
 73
   192
  0
VERTEX
  5
DC9
330
B4D
100
AcDbEntity
  8
0
 62
     7
100
AcDbFaceRecord
 10
0.0
 20
0.0
 30
0.0
 70
   128
 71
   194
 72
   186
 73
   185
  0
VERTEX
  5
DCA
330
B4D
100
AcDbEntity
  8
0
 62
     7
100
AcDbFaceRecord
 10
0.0
 20
0.0
 30
0.0
 70
   128
 71
   194
 72
   187
 73
   186
  0
VERTEX
  5
DCB
330
B4D
100
AcDbEntity
  8
0
 62
     7
100
AcDbFaceRecord
 10
0.0
 20
0.0
 30
0.0
 70
   128
 71
   195
 72
   194
 73
   192
  0
VERTEX
  5
DCC
330
B4D
100
AcDbEntity
  8
0
 62
     7
100
AcDbFaceRecord
 10
0.0
 20
0.0
 30
0.0
 70
   128
 71
   196
 72
   178
 73
   187
  0
VERTEX
  5
DCD
330
B4D
100
AcDbEntity
  8
0
 62
     7
100
AcDbFaceRecord
 10
0.0
 20
0.0
 30
0.0
 70
   128
 71
   196
 72
   188
 73
   178
  0
VERTEX
  5
DCE
330
B4D
100
AcDbEntity
  8
0
 62
     7
100
AcDbFaceRecord
 10
0.0
 20
0.0
 30
0.0
 70
   128
 71
   196
 72
   189
 73
   188
  0
VERTEX
  5
DCF
330
B4D
100
AcDbEntity
  8
0
 62
     7
100
AcDbFaceRecord
 10
0.0
 20
0.0
 30
0.0
 70
   128
 71
   197
 72
   196
 73
   187
  0
VERTEX
  5
DD0
330
B4D
100
AcDbEntity
  8
0
 62
     7
100
AcDbFaceRecord
 10
0.0
 20
0.0
 30
0.0
 70
   128
 71
   198
 72
   180
 73
   189
  0
VERTEX
  5
DD1
330
B4D
100
AcDbEntity
  8
0
 62
     7
100
AcDbFaceRecord
 10
0.0
 20
0.0
 30
0.0
 70
   128
 71
   198
 72
   182
 73
   180
  0
VERTEX
  5
DD2
330
B4D
100
AcDbEntity
  8
0
 62
     7
100
AcDbFaceRecord
 10
0.0
 20
0.0
 30
0.0
 70
   128
 71
   198
 72
   181
 73
   182
  0
VERTEX
  5
DD3
330
B4D
100
AcDbEntity
  8
0
 62
     7
100
AcDbFaceRecord
 10
0.0
 20
0.0
 30
0.0
 70
   128
 71
   199
 72
   198
 73
   189
  0
VERTEX
  5
DD4
330
B4D
100
AcDbEntity
  8
0
 62
     7
100
AcDbFaceRecord
 10
0.0
 20
0.0
 30
0.0
 70
   128
 71
   200
 72
   192
 73
   193
  0
VERTEX
  5
DD5
330
B4D
100
AcDbEntity
  8
0
 62
     7
100
AcDbFaceRecord
 10
0.0
 20
0.0
 30
0.0
 70
   128
 71
   200
 72
   195
 73
   192
  0
VERTEX
  5
DD6
330
B4D
100
AcDbEntity
  8
0
 62
     7
100
AcDbFaceRecord
 10
0.0
 20
0.0
 30
0.0
 70
   128
 71
   201
 72
   195
 73
   200
  0
VERTEX
  5
DD7
330
B4D
100
AcDbEntity
  8
0
 62
     7
100
AcDbFaceRecord
 10
0.0
 20
0.0
 30
0.0
 70
   128
 71
   202
 72
   194
 73
   195
  0
VERTEX
  5
DD8
330
B4D
100
AcDbEntity
  8
0
 62
     7
100
AcDbFaceRecord
 10
0.0
 20
0.0
 30
0.0
 70
   128
 71
   202
 72
   187
 73
   194
  0
VERTEX
  5
DD9
330
B4D
100
AcDbEntity
  8
0
 62
     7
100
AcDbFaceRecord
 10
0.0
 20
0.0
 30
0.0
 70
   128
 71
   202
 72
   197
 73
   187
  0
VERTEX
  5
DDA
330
B4D
100
AcDbEntity
  8
0
 62
     7
100
AcDbFaceRecord
 10
0.0
 20
0.0
 30
0.0
 70
   128
 71
   203
 72
   197
 73
   202
  0
VERTEX
  5
DDB
330
B4D
100
AcDbEntity
  8
0
 62
     7
100
AcDbFaceRecord
 10
0.0
 20
0.0
 30
0.0
 70
   128
 71
   204
 72
   196
 73
   197
  0
VERTEX
  5
DDC
330
B4D
100
AcDbEntity
  8
0
 62
     7
100
AcDbFaceRecord
 10
0.0
 20
0.0
 30
0.0
 70
   128
 71
   204
 72
   189
 73
   196
  0
VERTEX
  5
DDD
330
B4D
100
AcDbEntity
  8
0
 62
     7
100
AcDbFaceRecord
 10
0.0
 20
0.0
 30
0.0
 70
   128
 71
   204
 72
   199
 73
   189
  0
VERTEX
  5
DDE
330
B4D
100
AcDbEntity
  8
0
 62
     7
100
AcDbFaceRecord
 10
0.0
 20
0.0
 30
0.0
 70
   128
 71
   205
 72
   199
 73
   204
  0
VERTEX
  5
DDF
330
B4D
100
AcDbEntity
  8
0
 62
     7
100
AcDbFaceRecord
 10
0.0
 20
0.0
 30
0.0
 70
   128
 71
    55
 72
    50
 73
   206
  0
VERTEX
  5
DE0
330
B4D
100
AcDbEntity
  8
0
 62
     7
100
AcDbFaceRecord
 10
0.0
 20
0.0
 30
0.0
 70
   128
 71
    24
 72
   207
 73
    22
  0
VERTEX
  5
DE1
330
B4D
100
AcDbEntity
  8
0
 62
     7
100
AcDbFaceRecord
 10
0.0
 20
0.0
 30
0.0
 70
   128
 71
   208
 72
   206
 73
    50
  0
VERTEX
  5
DE2
330
B4D
100
AcDbEntity
  8
0
 62
     7
100
AcDbFaceRecord
 10
0.0
 20
0.0
 30
0.0
 70
   128
 71
   208
 72
   209
 73
   206
  0
VERTEX
  5
DE3
330
B4D
100
AcDbEntity
  8
0
 62
     7
100
AcDbFaceRecord
 10
0.0
 20
0.0
 30
0.0
 70
   128
 71
   210
 72
   201
 73
   200
  0
VERTEX
  5
DE4
330
B4D
100
AcDbEntity
  8
0
 62
     7
100
AcDbFaceRecord
 10
0.0
 20
0.0
 30
0.0
 70
   128
 71
   211
 72
   193
 73
   190
  0
VERTEX
  5
DE5
330
B4D
100
AcDbEntity
  8
0
 62
     7
100
AcDbFaceRecord
 10
0.0
 20
0.0
 30
0.0
 70
   128
 71
   211
 72
   200
 73
   193
  0
VERTEX
  5
DE6
330
B4D
100
AcDbEntity
  8
0
 62
     7
100
AcDbFaceRecord
 10
0.0
 20
0.0
 30
0.0
 70
   128
 71
   211
 72
   210
 73
   200
  0
VERTEX
  5
DE7
330
B4D
100
AcDbEntity
  8
0
 62
     7
100
AcDbFaceRecord
 10
0.0
 20
0.0
 30
0.0
 70
   128
 71
   211
 72
   212
 73
   210
  0
VERTEX
  5
DE8
330
B4D
100
AcDbEntity
  8
0
 62
     7
100
AcDbFaceRecord
 10
0.0
 20
0.0
 30
0.0
 70
   128
 71
   213
 72
   201
 73
   210
  0
VERTEX
  5
DE9
330
B4D
100
AcDbEntity
  8
0
 62
     7
100
AcDbFaceRecord
 10
0.0
 20
0.0
 30
0.0
 70
   128
 71
   214
 72
   195
 73
   201
  0
VERTEX
  5
DEA
330
B4D
100
AcDbEntity
  8
0
 62
     7
100
AcDbFaceRecord
 10
0.0
 20
0.0
 30
0.0
 70
   128
 71
   214
 72
   202
 73
   195
  0
VERTEX
  5
DEB
330
B4D
100
AcDbEntity
  8
0
 62
     7
100
AcDbFaceRecord
 10
0.0
 20
0.0
 30
0.0
 70
   128
 71
   214
 72
   203
 73
   202
  0
VERTEX
  5
DEC
330
B4D
100
AcDbEntity
  8
0
 62
     7
100
AcDbFaceRecord
 10
0.0
 20
0.0
 30
0.0
 70
   128
 71
   215
 72
   203
 73
   214
  0
VERTEX
  5
DED
330
B4D
100
AcDbEntity
  8
0
 62
     7
100
AcDbFaceRecord
 10
0.0
 20
0.0
 30
0.0
 70
   128
 71
   216
 72
   197
 73
   203
  0
VERTEX
  5
DEE
330
B4D
100
AcDbEntity
  8
0
 62
     7
100
AcDbFaceRecord
 10
0.0
 20
0.0
 30
0.0
 70
   128
 71
   216
 72
   204
 73
   197
  0
VERTEX
  5
DEF
330
B4D
100
AcDbEntity
  8
0
 62
     7
100
AcDbFaceRecord
 10
0.0
 20
0.0
 30
0.0
 70
   128
 71
   216
 72
   205
 73
   204
  0
VERTEX
  5
DF0
330
B4D
100
AcDbEntity
  8
0
 62
     7
100
AcDbFaceRecord
 10
0.0
 20
0.0
 30
0.0
 70
   128
 71
   207
 72
   199
 73
   205
  0
VERTEX
  5
DF1
330
B4D
100
AcDbEntity
  8
0
 62
     7
100
AcDbFaceRecord
 10
0.0
 20
0.0
 30
0.0
 70
   128
 71
   217
 72
   205
 73
   216
  0
VERTEX
  5
DF2
330
B4D
100
AcDbEntity
  8
0
 62
     7
100
AcDbFaceRecord
 10
0.0
 20
0.0
 30
0.0
 70
   128
 71
   218
 72
   219
 73
   220
  0
VERTEX
  5
DF3
330
B4D
100
AcDbEntity
  8
0
 62
     7
100
AcDbFaceRecord
 10
0.0
 20
0.0
 30
0.0
 70
   128
 71
   217
 72
   220
 73
   219
  0
VERTEX
  5
DF4
330
B4D
100
AcDbEntity
  8
0
 62
     7
100
AcDbFaceRecord
 10
0.0
 20
0.0
 30
0.0
 70
   128
 71
   217
 72
   221
 73
   220
  0
VERTEX
  5
DF5
330
B4D
100
AcDbEntity
  8
0
 62
     7
100
AcDbFaceRecord
 10
0.0
 20
0.0
 30
0.0
 70
   128
 71
   215
 72
   222
 73
   223
  0
VERTEX
  5
DF6
330
B4D
100
AcDbEntity
  8
0
 62
     7
100
AcDbFaceRecord
 10
0.0
 20
0.0
 30
0.0
 70
   128
 71
   213
 72
   224
 73
   225
  0
VERTEX
  5
DF7
330
B4D
100
AcDbEntity
  8
0
 62
     7
100
AcDbFaceRecord
 10
0.0
 20
0.0
 30
0.0
 70
   128
 71
   212
 72
   206
 73
   209
  0
VERTEX
  5
DF8
330
B4D
100
AcDbEntity
  8
0
 62
     7
100
AcDbFaceRecord
 10
0.0
 20
0.0
 30
0.0
 70
   128
 71
   224
 72
   212
 73
   209
  0
VERTEX
  5
DF9
330
B4D
100
AcDbEntity
  8
0
 62
     7
100
AcDbFaceRecord
 10
0.0
 20
0.0
 30
0.0
 70
   128
 71
   224
 72
   210
 73
   212
  0
VERTEX
  5
DFA
330
B4D
100
AcDbEntity
  8
0
 62
     7
100
AcDbFaceRecord
 10
0.0
 20
0.0
 30
0.0
 70
   128
 71
   224
 72
   213
 73
   210
  0
VERTEX
  5
DFB
330
B4D
100
AcDbEntity
  8
0
 62
     7
100
AcDbFaceRecord
 10
0.0
 20
0.0
 30
0.0
 70
   128
 71
   226
 72
   224
 73
   209
  0
VERTEX
  5
DFC
330
B4D
100
AcDbEntity
  8
0
 62
     7
100
AcDbFaceRecord
 10
0.0
 20
0.0
 30
0.0
 70
   128
 71
   226
 72
   225
 73
   224
  0
VERTEX
  5
DFD
330
B4D
100
AcDbEntity
  8
0
 62
     7
100
AcDbFaceRecord
 10
0.0
 20
0.0
 30
0.0
 70
   128
 71
   222
 72
   201
 73
   213
  0
VERTEX
  5
DFE
330
B4D
100
AcDbEntity
  8
0
 62
     7
100
AcDbFaceRecord
 10
0.0
 20
0.0
 30
0.0
 70
   128
 71
   222
 72
   214
 73
   201
  0
VERTEX
  5
DFF
330
B4D
100
AcDbEntity
  8
0
 62
     7
100
AcDbFaceRecord
 10
0.0
 20
0.0
 30
0.0
 70
   128
 71
   222
 72
   215
 73
   214
  0
VERTEX
  5
E00
330
B4D
100
AcDbEntity
  8
0
 62
     7
100
AcDbFaceRecord
 10
0.0
 20
0.0
 30
0.0
 70
   128
 71
   227
 72
   225
 73
   228
  0
VERTEX
  5
E01
330
B4D
100
AcDbEntity
  8
0
 62
     7
100
AcDbFaceRecord
 10
0.0
 20
0.0
 30
0.0
 70
   128
 71
   227
 72
   213
 73
   225
  0
VERTEX
  5
E02
330
B4D
100
AcDbEntity
  8
0
 62
     7
100
AcDbFaceRecord
 10
0.0
 20
0.0
 30
0.0
 70
   128
 71
   227
 72
   222
 73
   213
  0
VERTEX
  5
E03
330
B4D
100
AcDbEntity
  8
0
 62
     7
100
AcDbFaceRecord
 10
0.0
 20
0.0
 30
0.0
 70
   128
 71
   227
 72
   223
 73
   222
  0
VERTEX
  5
E04
330
B4D
100
AcDbEntity
  8
0
 62
     7
100
AcDbFaceRecord
 10
0.0
 20
0.0
 30
0.0
 70
   128
 71
   221
 72
   203
 73
   215
  0
VERTEX
  5
E05
330
B4D
100
AcDbEntity
  8
0
 62
     7
100
AcDbFaceRecord
 10
0.0
 20
0.0
 30
0.0
 70
   128
 71
   221
 72
   216
 73
   203
  0
VERTEX
  5
E06
330
B4D
100
AcDbEntity
  8
0
 62
     7
100
AcDbFaceRecord
 10
0.0
 20
0.0
 30
0.0
 70
   128
 71
   221
 72
   217
 73
   216
  0
VERTEX
  5
E07
330
B4D
100
AcDbEntity
  8
0
 62
     7
100
AcDbFaceRecord
 10
0.0
 20
0.0
 30
0.0
 70
   128
 71
   229
 72
   223
 73
   230
  0
VERTEX
  5
E08
330
B4D
100
AcDbEntity
  8
0
 62
     7
100
AcDbFaceRecord
 10
0.0
 20
0.0
 30
0.0
 70
   128
 71
   229
 72
   215
 73
   223
  0
VERTEX
  5
E09
330
B4D
100
AcDbEntity
  8
0
 62
     7
100
AcDbFaceRecord
 10
0.0
 20
0.0
 30
0.0
 70
   128
 71
   229
 72
   221
 73
   215
  0
VERTEX
  5
E0A
330
B4D
100
AcDbEntity
  8
0
 62
     7
100
AcDbFaceRecord
 10
0.0
 20
0.0
 30
0.0
 70
   128
 71
   229
 72
   220
 73
   221
  0
VERTEX
  5
E0B
330
B4D
100
AcDbEntity
  8
0
 62
     7
100
AcDbFaceRecord
 10
0.0
 20
0.0
 30
0.0
 70
   128
 71
   231
 72
   218
 73
   232
  0
VERTEX
  5
E0C
330
B4D
100
AcDbEntity
  8
0
 62
     7
100
AcDbFaceRecord
 10
0.0
 20
0.0
 30
0.0
 70
   128
 71
   208
 72
    52
 73
   233
  0
VERTEX
  5
E0D
330
B4D
100
AcDbEntity
  8
0
 62
     7
100
AcDbFaceRecord
 10
0.0
 20
0.0
 30
0.0
 70
   128
 71
   234
 72
   208
 73
   233
  0
VERTEX
  5
E0E
330
B4D
100
AcDbEntity
  8
0
 62
     7
100
AcDbFaceRecord
 10
0.0
 20
0.0
 30
0.0
 70
   128
 71
   234
 72
   209
 73
   208
  0
VERTEX
  5
E0F
330
B4D
100
AcDbEntity
  8
0
 62
     7
100
AcDbFaceRecord
 10
0.0
 20
0.0
 30
0.0
 70
   128
 71
   234
 72
   226
 73
   209
  0
VERTEX
  5
E10
330
B4D
100
AcDbEntity
  8
0
 62
     7
100
AcDbFaceRecord
 10
0.0
 20
0.0
 30
0.0
 70
   128
 71
   234
 72
   235
 73
   226
  0
VERTEX
  5
E11
330
B4D
100
AcDbEntity
  8
0
 62
     7
100
AcDbFaceRecord
 10
0.0
 20
0.0
 30
0.0
 70
   128
 71
   236
 72
   226
 73
   235
  0
VERTEX
  5
E12
330
B4D
100
AcDbEntity
  8
0
 62
     7
100
AcDbFaceRecord
 10
0.0
 20
0.0
 30
0.0
 70
   128
 71
   236
 72
   225
 73
   226
  0
VERTEX
  5
E13
330
B4D
100
AcDbEntity
  8
0
 62
     7
100
AcDbFaceRecord
 10
0.0
 20
0.0
 30
0.0
 70
   128
 71
   236
 72
   228
 73
   225
  0
VERTEX
  5
E14
330
B4D
100
AcDbEntity
  8
0
 62
     7
100
AcDbFaceRecord
 10
0.0
 20
0.0
 30
0.0
 70
   128
 71
   237
 72
   228
 73
   236
  0
VERTEX
  5
E15
330
B4D
100
AcDbEntity
  8
0
 62
     7
100
AcDbFaceRecord
 10
0.0
 20
0.0
 30
0.0
 70
   128
 71
   238
 72
   227
 73
   228
  0
VERTEX
  5
E16
330
B4D
100
AcDbEntity
  8
0
 62
     7
100
AcDbFaceRecord
 10
0.0
 20
0.0
 30
0.0
 70
   128
 71
   238
 72
   223
 73
   227
  0
VERTEX
  5
E17
330
B4D
100
AcDbEntity
  8
0
 62
     7
100
AcDbFaceRecord
 10
0.0
 20
0.0
 30
0.0
 70
   128
 71
   238
 72
   230
 73
   223
  0
VERTEX
  5
E18
330
B4D
100
AcDbEntity
  8
0
 62
     7
100
AcDbFaceRecord
 10
0.0
 20
0.0
 30
0.0
 70
   128
 71
   239
 72
   230
 73
   238
  0
VERTEX
  5
E19
330
B4D
100
AcDbEntity
  8
0
 62
     7
100
AcDbFaceRecord
 10
0.0
 20
0.0
 30
0.0
 70
   128
 71
   232
 72
   229
 73
   230
  0
VERTEX
  5
E1A
330
B4D
100
AcDbEntity
  8
0
 62
     7
100
AcDbFaceRecord
 10
0.0
 20
0.0
 30
0.0
 70
   128
 71
   232
 72
   220
 73
   229
  0
VERTEX
  5
E1B
330
B4D
100
AcDbEntity
  8
0
 62
     7
100
AcDbFaceRecord
 10
0.0
 20
0.0
 30
0.0
 70
   128
 71
   232
 72
   218
 73
   220
  0
VERTEX
  5
E1C
330
B4D
100
AcDbEntity
  8
0
 62
     7
100
AcDbFaceRecord
 10
0.0
 20
0.0
 30
0.0
 70
   128
 71
    18
 72
   231
 73
    16
  0
VERTEX
  5
E1D
330
B4D
100
AcDbEntity
  8
0
 62
     7
100
AcDbFaceRecord
 10
0.0
 20
0.0
 30
0.0
 70
   128
 71
    18
 72
   218
 73
   231
  0
VERTEX
  5
E1E
330
B4D
100
AcDbEntity
  8
0
 62
     7
100
AcDbFaceRecord
 10
0.0
 20
0.0
 30
0.0
 70
   128
 71
    46
 72
    48
 73
   240
  0
VERTEX
  5
E1F
330
B4D
100
AcDbEntity
  8
0
 62
     7
100
AcDbFaceRecord
 10
0.0
 20
0.0
 30
0.0
 70
   128
 71
   241
 72
   234
 73
   233
  0
VERTEX
  5
E20
330
B4D
100
AcDbEntity
  8
0
 62
     7
100
AcDbFaceRecord
 10
0.0
 20
0.0
 30
0.0
 70
   128
 71
   241
 72
   235
 73
   234
  0
VERTEX
  5
E21
330
B4D
100
AcDbEntity
  8
0
 62
     7
100
AcDbFaceRecord
 10
0.0
 20
0.0
 30
0.0
 70
   128
 71
   241
 72
   242
 73
   235
  0
VERTEX
  5
E22
330
B4D
100
AcDbEntity
  8
0
 62
     7
100
AcDbFaceRecord
 10
0.0
 20
0.0
 30
0.0
 70
   128
 71
   241
 72
   243
 73
   242
  0
VERTEX
  5
E23
330
B4D
100
AcDbEntity
  8
0
 62
     7
100
AcDbFaceRecord
 10
0.0
 20
0.0
 30
0.0
 70
   128
 71
   244
 72
   235
 73
   242
  0
VERTEX
  5
E24
330
B4D
100
AcDbEntity
  8
0
 62
     7
100
AcDbFaceRecord
 10
0.0
 20
0.0
 30
0.0
 70
   128
 71
   244
 72
   236
 73
   235
  0
VERTEX
  5
E25
330
B4D
100
AcDbEntity
  8
0
 62
     7
100
AcDbFaceRecord
 10
0.0
 20
0.0
 30
0.0
 70
   128
 71
   244
 72
   237
 73
   236
  0
VERTEX
  5
E26
330
B4D
100
AcDbEntity
  8
0
 62
     7
100
AcDbFaceRecord
 10
0.0
 20
0.0
 30
0.0
 70
   128
 71
   245
 72
   244
 73
   242
  0
VERTEX
  5
E27
330
B4D
100
AcDbEntity
  8
0
 62
     7
100
AcDbFaceRecord
 10
0.0
 20
0.0
 30
0.0
 70
   128
 71
   246
 72
   228
 73
   237
  0
VERTEX
  5
E28
330
B4D
100
AcDbEntity
  8
0
 62
     7
100
AcDbFaceRecord
 10
0.0
 20
0.0
 30
0.0
 70
   128
 71
   246
 72
   238
 73
   228
  0
VERTEX
  5
E29
330
B4D
100
AcDbEntity
  8
0
 62
     7
100
AcDbFaceRecord
 10
0.0
 20
0.0
 30
0.0
 70
   128
 71
   246
 72
   239
 73
   238
  0
VERTEX
  5
E2A
330
B4D
100
AcDbEntity
  8
0
 62
     7
100
AcDbFaceRecord
 10
0.0
 20
0.0
 30
0.0
 70
   128
 71
   247
 72
   246
 73
   237
  0
VERTEX
  5
E2B
330
B4D
100
AcDbEntity
  8
0
 62
     7
100
AcDbFaceRecord
 10
0.0
 20
0.0
 30
0.0
 70
   128
 71
   248
 72
   230
 73
   239
  0
VERTEX
  5
E2C
330
B4D
100
AcDbEntity
  8
0
 62
     7
100
AcDbFaceRecord
 10
0.0
 20
0.0
 30
0.0
 70
   128
 71
   248
 72
   232
 73
   230
  0
VERTEX
  5
E2D
330
B4D
100
AcDbEntity
  8
0
 62
     7
100
AcDbFaceRecord
 10
0.0
 20
0.0
 30
0.0
 70
   128
 71
   248
 72
   231
 73
   232
  0
VERTEX
  5
E2E
330
B4D
100
AcDbEntity
  8
0
 62
     7
100
AcDbFaceRecord
 10
0.0
 20
0.0
 30
0.0
 70
   128
 71
   249
 72
   248
 73
   239
  0
VERTEX
  5
E2F
330
B4D
100
AcDbEntity
  8
0
 62
     7
100
AcDbFaceRecord
 10
0.0
 20
0.0
 30
0.0
 70
   128
 71
   250
 72
   242
 73
   243
  0
VERTEX
  5
E30
330
B4D
100
AcDbEntity
  8
0
 62
     7
100
AcDbFaceRecord
 10
0.0
 20
0.0
 30
0.0
 70
   128
 71
   250
 72
   245
 73
   242
  0
VERTEX
  5
E31
330
B4D
100
AcDbEntity
  8
0
 62
     7
100
AcDbFaceRecord
 10
0.0
 20
0.0
 30
0.0
 70
   128
 71
   251
 72
   245
 73
   250
  0
VERTEX
  5
E32
330
B4D
100
AcDbEntity
  8
0
 62
     7
100
AcDbFaceRecord
 10
0.0
 20
0.0
 30
0.0
 70
   128
 71
   252
 72
   244
 73
   245
  0
VERTEX
  5
E33
330
B4D
100
AcDbEntity
  8
0
 62
     7
100
AcDbFaceRecord
 10
0.0
 20
0.0
 30
0.0
 70
   128
 71
   252
 72
   237
 73
   244
  0
VERTEX
  5
E34
330
B4D
100
AcDbEntity
  8
0
 62
     7
100
AcDbFaceRecord
 10
0.0
 20
0.0
 30
0.0
 70
   128
 71
   252
 72
   247
 73
   237
  0
VERTEX
  5
E35
330
B4D
100
AcDbEntity
  8
0
 62
     7
100
AcDbFaceRecord
 10
0.0
 20
0.0
 30
0.0
 70
   128
 71
   253
 72
   247
 73
   252
  0
VERTEX
  5
E36
330
B4D
100
AcDbEntity
  8
0
 62
     7
100
AcDbFaceRecord
 10
0.0
 20
0.0
 30
0.0
 70
   128
 71
   254
 72
   246
 73
   247
  0
VERTEX
  5
E37
330
B4D
100
AcDbEntity
  8
0
 62
     7
100
AcDbFaceRecord
 10
0.0
 20
0.0
 30
0.0
 70
   128
 71
   254
 72
   239
 73
   246
  0
VERTEX
  5
E38
330
B4D
100
AcDbEntity
  8
0
 62
     7
100
AcDbFaceRecord
 10
0.0
 20
0.0
 30
0.0
 70
   128
 71
   254
 72
   249
 73
   239
  0
VERTEX
  5
E39
330
B4D
100
AcDbEntity
  8
0
 62
     7
100
AcDbFaceRecord
 10
0.0
 20
0.0
 30
0.0
 70
   128
 71
   255
 72
   249
 73
   254
  0
VERTEX
  5
E3A
330
B4D
100
AcDbEntity
  8
0
 62
     7
100
AcDbFaceRecord
 10
0.0
 20
0.0
 30
0.0
 70
   128
 71
    42
 72
    44
 73
   256
  0
VERTEX
  5
E3B
330
B4D
100
AcDbEntity
  8
0
 62
     7
100
AcDbFaceRecord
 10
0.0
 20
0.0
 30
0.0
 70
   128
 71
    14
 72
   257
 73
    12
  0
VERTEX
  5
E3C
330
B4D
100
AcDbEntity
  8
0
 62
     7
100
AcDbFaceRecord
 10
0.0
 20
0.0
 30
0.0
 70
   128
 71
   258
 72
   256
 73
    44
  0
VERTEX
  5
E3D
330
B4D
100
AcDbEntity
  8
0
 62
     7
100
AcDbFaceRecord
 10
0.0
 20
0.0
 30
0.0
 70
   128
 71
   258
 72
   259
 73
   256
  0
VERTEX
  5
E3E
330
B4D
100
AcDbEntity
  8
0
 62
     7
100
AcDbFaceRecord
 10
0.0
 20
0.0
 30
0.0
 70
   128
 71
   260
 72
   251
 73
   250
  0
VERTEX
  5
E3F
330
B4D
100
AcDbEntity
  8
0
 62
     7
100
AcDbFaceRecord
 10
0.0
 20
0.0
 30
0.0
 70
   128
 71
   261
 72
   243
 73
   240
  0
VERTEX
  5
E40
330
B4D
100
AcDbEntity
  8
0
 62
     7
100
AcDbFaceRecord
 10
0.0
 20
0.0
 30
0.0
 70
   128
 71
   261
 72
   250
 73
   243
  0
VERTEX
  5
E41
330
B4D
100
AcDbEntity
  8
0
 62
     7
100
AcDbFaceRecord
 10
0.0
 20
0.0
 30
0.0
 70
   128
 71
   261
 72
   260
 73
   250
  0
VERTEX
  5
E42
330
B4D
100
AcDbEntity
  8
0
 62
     7
100
AcDbFaceRecord
 10
0.0
 20
0.0
 30
0.0
 70
   128
 71
   261
 72
   262
 73
   260
  0
VERTEX
  5
E43
330
B4D
100
AcDbEntity
  8
0
 62
     7
100
AcDbFaceRecord
 10
0.0
 20
0.0
 30
0.0
 70
   128
 71
   263
 72
   251
 73
   260
  0
VERTEX
  5
E44
330
B4D
100
AcDbEntity
  8
0
 62
     7
100
AcDbFaceRecord
 10
0.0
 20
0.0
 30
0.0
 70
   128
 71
   264
 72
   245
 73
   251
  0
VERTEX
  5
E45
330
B4D
100
AcDbEntity
  8
0
 62
     7
100
AcDbFaceRecord
 10
0.0
 20
0.0
 30
0.0
 70
   128
 71
   264
 72
   252
 73
   245
  0
VERTEX
  5
E46
330
B4D
100
AcDbEntity
  8
0
 62
     7
100
AcDbFaceRecord
 10
0.0
 20
0.0
 30
0.0
 70
   128
 71
   264
 72
   253
 73
   252
  0
VERTEX
  5
E47
330
B4D
100
AcDbEntity
  8
0
 62
     7
100
AcDbFaceRecord
 10
0.0
 20
0.0
 30
0.0
 70
   128
 71
   265
 72
   253
 73
   264
  0
VERTEX
  5
E48
330
B4D
100
AcDbEntity
  8
0
 62
     7
100
AcDbFaceRecord
 10
0.0
 20
0.0
 30
0.0
 70
   128
 71
   266
 72
   247
 73
   253
  0
VERTEX
  5
E49
330
B4D
100
AcDbEntity
  8
0
 62
     7
100
AcDbFaceRecord
 10
0.0
 20
0.0
 30
0.0
 70
   128
 71
   266
 72
   254
 73
   247
  0
VERTEX
  5
E4A
330
B4D
100
AcDbEntity
  8
0
 62
     7
100
AcDbFaceRecord
 10
0.0
 20
0.0
 30
0.0
 70
   128
 71
   266
 72
   255
 73
   254
  0
VERTEX
  5
E4B
330
B4D
100
AcDbEntity
  8
0
 62
     7
100
AcDbFaceRecord
 10
0.0
 20
0.0
 30
0.0
 70
   128
 71
   257
 72
   249
 73
   255
  0
VERTEX
  5
E4C
330
B4D
100
AcDbEntity
  8
0
 62
     7
100
AcDbFaceRecord
 10
0.0
 20
0.0
 30
0.0
 70
   128
 71
   267
 72
   255
 73
   266
  0
VERTEX
  5
E4D
330
B4D
100
AcDbEntity
  8
0
 62
     7
100
AcDbFaceRecord
 10
0.0
 20
0.0
 30
0.0
 70
   128
 71
   268
 72
   269
 73
   270
  0
VERTEX
  5
E4E
330
B4D
100
AcDbEntity
  8
0
 62
     7
100
AcDbFaceRecord
 10
0.0
 20
0.0
 30
0.0
 70
   128
 71
   267
 72
   270
 73
   269
  0
VERTEX
  5
E4F
330
B4D
100
AcDbEntity
  8
0
 62
     7
100
AcDbFaceRecord
 10
0.0
 20
0.0
 30
0.0
 70
   128
 71
   267
 72
   271
 73
   270
  0
VERTEX
  5
E50
330
B4D
100
AcDbEntity
  8
0
 62
     7
100
AcDbFaceRecord
 10
0.0
 20
0.0
 30
0.0
 70
   128
 71
   265
 72
   272
 73
   273
  0
VERTEX
  5
E51
330
B4D
100
AcDbEntity
  8
0
 62
     7
100
AcDbFaceRecord
 10
0.0
 20
0.0
 30
0.0
 70
   128
 71
   263
 72
   274
 73
   275
  0
VERTEX
  5
E52
330
B4D
100
AcDbEntity
  8
0
 62
     7
100
AcDbFaceRecord
 10
0.0
 20
0.0
 30
0.0
 70
   128
 71
   262
 72
   256
 73
   259
  0
VERTEX
  5
E53
330
B4D
100
AcDbEntity
  8
0
 62
     7
100
AcDbFaceRecord
 10
0.0
 20
0.0
 30
0.0
 70
   128
 71
   274
 72
   262
 73
   259
  0
VERTEX
  5
E54
330
B4D
100
AcDbEntity
  8
0
 62
     7
100
AcDbFaceRecord
 10
0.0
 20
0.0
 30
0.0
 70
   128
 71
   274
 72
   260
 73
   262
  0
VERTEX
  5
E55
330
B4D
100
AcDbEntity
  8
0
 62
     7
100
AcDbFaceRecord
 10
0.0
 20
0.0
 30
0.0
 70
   128
 71
   274
 72
   263
 73
   260
  0
VERTEX
  5
E56
330
B4D
100
AcDbEntity
  8
0
 62
     7
100
AcDbFaceRecord
 10
0.0
 20
0.0
 30
0.0
 70
   128
 71
   276
 72
   274
 73
   259
  0
VERTEX
  5
E57
330
B4D
100
AcDbEntity
  8
0
 62
     7
100
AcDbFaceRecord
 10
0.0
 20
0.0
 30
0.0
 70
   128
 71
   276
 72
   275
 73
   274
  0
VERTEX
  5
E58
330
B4D
100
AcDbEntity
  8
0
 62
     7
100
AcDbFaceRecord
 10
0.0
 20
0.0
 30
0.0
 70
   128
 71
   272
 72
   251
 73
   263
  0
VERTEX
  5
E59
330
B4D
100
AcDbEntity
  8
0
 62
     7
100
AcDbFaceRecord
 10
0.0
 20
0.0
 30
0.0
 70
   128
 71
   272
 72
   264
 73
   251
  0
VERTEX
  5
E5A
330
B4D
100
AcDbEntity
  8
0
 62
     7
100
AcDbFaceRecord
 10
0.0
 20
0.0
 30
0.0
 70
   128
 71
   272
 72
   265
 73
   264
  0
VERTEX
  5
E5B
330
B4D
100
AcDbEntity
  8
0
 62
     7
100
AcDbFaceRecord
 10
0.0
 20
0.0
 30
0.0
 70
   128
 71
   277
 72
   275
 73
   278
  0
VERTEX
  5
E5C
330
B4D
100
AcDbEntity
  8
0
 62
     7
100
AcDbFaceRecord
 10
0.0
 20
0.0
 30
0.0
 70
   128
 71
   277
 72
   263
 73
   275
  0
VERTEX
  5
E5D
330
B4D
100
AcDbEntity
  8
0
 62
     7
100
AcDbFaceRecord
 10
0.0
 20
0.0
 30
0.0
 70
   128
 71
   277
 72
   272
 73
   263
  0
VERTEX
  5
E5E
330
B4D
100
AcDbEntity
  8
0
 62
     7
100
AcDbFaceRecord
 10
0.0
 20
0.0
 30
0.0
 70
   128
 71
   277
 72
   273
 73
   272
  0
VERTEX
  5
E5F
330
B4D
100
AcDbEntity
  8
0
 62
     7
100
AcDbFaceRecord
 10
0.0
 20
0.0
 30
0.0
 70
   128
 71
   271
 72
   253
 73
   265
  0
VERTEX
  5
E60
330
B4D
100
AcDbEntity
  8
0
 62
     7
100
AcDbFaceRecord
 10
0.0
 20
0.0
 30
0.0
 70
   128
 71
   271
 72
   266
 73
   253
  0
VERTEX
  5
E61
330
B4D
100
AcDbEntity
  8
0
 62
     7
100
AcDbFaceRecord
 10
0.0
 20
0.0
 30
0.0
 70
   128
 71
   271
 72
   267
 73
   266
  0
VERTEX
  5
E62
330
B4D
100
AcDbEntity
  8
0
 62
     7
100
AcDbFaceRecord
 10
0.0
 20
0.0
 30
0.0
 70
   128
 71
   279
 72
   273
 73
   280
  0
VERTEX
  5
E63
330
B4D
100
AcDbEntity
  8
0
 62
     7
100
AcDbFaceRecord
 10
0.0
 20
0.0
 30
0.0
 70
   128
 71
   279
 72
   265
 73
   273
  0
VERTEX
  5
E64
330
B4D
100
AcDbEntity
  8
0
 62
     7
100
AcDbFaceRecord
 10
0.0
 20
0.0
 30
0.0
 70
   128
 71
   279
 72
   271
 73
   265
  0
VERTEX
  5
E65
330
B4D
100
AcDbEntity
  8
0
 62
     7
100
AcDbFaceRecord
 10
0.0
 20
0.0
 30
0.0
 70
   128
 71
   279
 72
   270
 73
   271
  0
VERTEX
  5
E66
330
B4D
100
AcDbEntity
  8
0
 62
     7
100
AcDbFaceRecord
 10
0.0
 20
0.0
 30
0.0
 70
   128
 71
   281
 72
   268
 73
   282
  0
VERTEX
  5
E67
330
B4D
100
AcDbEntity
  8
0
 62
     7
100
AcDbFaceRecord
 10
0.0
 20
0.0
 30
0.0
 70
   128
 71
   283
 72
   258
 73
   284
  0
VERTEX
  5
E68
330
B4D
100
AcDbEntity
  8
0
 62
     7
100
AcDbFaceRecord
 10
0.0
 20
0.0
 30
0.0
 70
   128
 71
   283
 72
   259
 73
   258
  0
VERTEX
  5
E69
330
B4D
100
AcDbEntity
  8
0
 62
     7
100
AcDbFaceRecord
 10
0.0
 20
0.0
 30
0.0
 70
   128
 71
   283
 72
   276
 73
   259
  0
VERTEX
  5
E6A
330
B4D
100
AcDbEntity
  8
0
 62
     7
100
AcDbFaceRecord
 10
0.0
 20
0.0
 30
0.0
 70
   128
 71
   283
 72
   285
 73
   276
  0
VERTEX
  5
E6B
330
B4D
100
AcDbEntity
  8
0
 62
     7
100
AcDbFaceRecord
 10
0.0
 20
0.0
 30
0.0
 70
   128
 71
   286
 72
   276
 73
   285
  0
VERTEX
  5
E6C
330
B4D
100
AcDbEntity
  8
0
 62
     7
100
AcDbFaceRecord
 10
0.0
 20
0.0
 30
0.0
 70
   128
 71
   286
 72
   275
 73
   276
  0
VERTEX
  5
E6D
330
B4D
100
AcDbEntity
  8
0
 62
     7
100
AcDbFaceRecord
 10
0.0
 20
0.0
 30
0.0
 70
   128
 71
   286
 72
   278
 73
   275
  0
VERTEX
  5
E6E
330
B4D
100
AcDbEntity
  8
0
 62
     7
100
AcDbFaceRecord
 10
0.0
 20
0.0
 30
0.0
 70
   128
 71
   287
 72
   278
 73
   286
  0
VERTEX
  5
E6F
330
B4D
100
AcDbEntity
  8
0
 62
     7
100
AcDbFaceRecord
 10
0.0
 20
0.0
 30
0.0
 70
   128
 71
   288
 72
   277
 73
   278
  0
VERTEX
  5
E70
330
B4D
100
AcDbEntity
  8
0
 62
     7
100
AcDbFaceRecord
 10
0.0
 20
0.0
 30
0.0
 70
   128
 71
   288
 72
   273
 73
   277
  0
VERTEX
  5
E71
330
B4D
100
AcDbEntity
  8
0
 62
     7
100
AcDbFaceRecord
 10
0.0
 20
0.0
 30
0.0
 70
   128
 71
   288
 72
   280
 73
   273
  0
VERTEX
  5
E72
330
B4D
100
AcDbEntity
  8
0
 62
     7
100
AcDbFaceRecord
 10
0.0
 20
0.0
 30
0.0
 70
   128
 71
   289
 72
   280
 73
   288
  0
VERTEX
  5
E73
330
B4D
100
AcDbEntity
  8
0
 62
     7
100
AcDbFaceRecord
 10
0.0
 20
0.0
 30
0.0
 70
   128
 71
   282
 72
   279
 73
   280
  0
VERTEX
  5
E74
330
B4D
100
AcDbEntity
  8
0
 62
     7
100
AcDbFaceRecord
 10
0.0
 20
0.0
 30
0.0
 70
   128
 71
   282
 72
   270
 73
   279
  0
VERTEX
  5
E75
330
B4D
100
AcDbEntity
  8
0
 62
     7
100
AcDbFaceRecord
 10
0.0
 20
0.0
 30
0.0
 70
   128
 71
   282
 72
   268
 73
   270
  0
VERTEX
  5
E76
330
B4D
100
AcDbEntity
  8
0
 62
     7
100
AcDbFaceRecord
 10
0.0
 20
0.0
 30
0.0
 70
   128
 71
     8
 72
   281
 73
     6
  0
VERTEX
  5
E77
330
B4D
100
AcDbEntity
  8
0
 62
     7
100
AcDbFaceRecord
 10
0.0
 20
0.0
 30
0.0
 70
   128
 71
     8
 72
   268
 73
   281
  0
VERTEX
  5
E78
330
B4D
100
AcDbEntity
  8
0
 62
     7
100
AcDbFaceRecord
 10
0.0
 20
0.0
 30
0.0
 70
   128
 71
    40
 72
    34
 73
   290
  0
VERTEX
  5
E79
330
B4D
100
AcDbEntity
  8
0
 62
     7
100
AcDbFaceRecord
 10
0.0
 20
0.0
 30
0.0
 70
   128
 71
   291
 72
   283
 73
   284
  0
VERTEX
  5
E7A
330
B4D
100
AcDbEntity
  8
0
 62
     7
100
AcDbFaceRecord
 10
0.0
 20
0.0
 30
0.0
 70
   128
 71
   291
 72
   285
 73
   283
  0
VERTEX
  5
E7B
330
B4D
100
AcDbEntity
  8
0
 62
     7
100
AcDbFaceRecord
 10
0.0
 20
0.0
 30
0.0
 70
   128
 71
   291
 72
   292
 73
   285
  0
VERTEX
  5
E7C
330
B4D
100
AcDbEntity
  8
0
 62
     7
100
AcDbFaceRecord
 10
0.0
 20
0.0
 30
0.0
 70
   128
 71
   291
 72
   293
 73
   292
  0
VERTEX
  5
E7D
330
B4D
100
AcDbEntity
  8
0
 62
     7
100
AcDbFaceRecord
 10
0.0
 20
0.0
 30
0.0
 70
   128
 71
   294
 72
   285
 73
   292
  0
VERTEX
  5
E7E
330
B4D
100
AcDbEntity
  8
0
 62
     7
100
AcDbFaceRecord
 10
0.0
 20
0.0
 30
0.0
 70
   128
 71
   294
 72
   286
 73
   285
  0
VERTEX
  5
E7F
330
B4D
100
AcDbEntity
  8
0
 62
     7
100
AcDbFaceRecord
 10
0.0
 20
0.0
 30
0.0
 70
   128
 71
   294
 72
   287
 73
   286
  0
VERTEX
  5
E80
330
B4D
100
AcDbEntity
  8
0
 62
     7
100
AcDbFaceRecord
 10
0.0
 20
0.0
 30
0.0
 70
   128
 71
   295
 72
   294
 73
   292
  0
VERTEX
  5
E81
330
B4D
100
AcDbEntity
  8
0
 62
     7
100
AcDbFaceRecord
 10
0.0
 20
0.0
 30
0.0
 70
   128
 71
   296
 72
   278
 73
   287
  0
VERTEX
  5
E82
330
B4D
100
AcDbEntity
  8
0
 62
     7
100
AcDbFaceRecord
 10
0.0
 20
0.0
 30
0.0
 70
   128
 71
   296
 72
   288
 73
   278
  0
VERTEX
  5
E83
330
B4D
100
AcDbEntity
  8
0
 62
     7
100
AcDbFaceRecord
 10
0.0
 20
0.0
 30
0.0
 70
   128
 71
   296
 72
   289
 73
   288
  0
VERTEX
  5
E84
330
B4D
100
AcDbEntity
  8
0
 62
     7
100
AcDbFaceRecord
 10
0.0
 20
0.0
 30
0.0
 70
   128
 71
   297
 72
   296
 73
   287
  0
VERTEX
  5
E85
330
B4D
100
AcDbEntity
  8
0
 62
     7
100
AcDbFaceRecord
 10
0.0
 20
0.0
 30
0.0
 70
   128
 71
   298
 72
   280
 73
   289
  0
VERTEX
  5
E86
330
B4D
100
AcDbEntity
  8
0
 62
     7
100
AcDbFaceRecord
 10
0.0
 20
0.0
 30
0.0
 70
   128
 71
   298
 72
   282
 73
   280
  0
VERTEX
  5
E87
330
B4D
100
AcDbEntity
  8
0
 62
     7
100
AcDbFaceRecord
 10
0.0
 20
0.0
 30
0.0
 70
   128
 71
   298
 72
   281
 73
   282
  0
VERTEX
  5
E88
330
B4D
100
AcDbEntity
  8
0
 62
     7
100
AcDbFaceRecord
 10
0.0
 20
0.0
 30
0.0
 70
   128
 71
   299
 72
   298
 73
   289
  0
VERTEX
  5
E89
330
B4D
100
AcDbEntity
  8
0
 62
     7
100
AcDbFaceRecord
 10
0.0
 20
0.0
 30
0.0
 70
   128
 71
   300
 72
   292
 73
   293
  0
VERTEX
  5
E8A
330
B4D
100
AcDbEntity
  8
0
 62
     7
100
AcDbFaceRecord
 10
0.0
 20
0.0
 30
0.0
 70
   128
 71
   300
 72
   295
 73
   292
  0
VERTEX
  5
E8B
330
B4D
100
AcDbEntity
  8
0
 62
     7
100
AcDbFaceRecord
 10
0.0
 20
0.0
 30
0.0
 70
   128
 71
   301
 72
   295
 73
   300
  0
VERTEX
  5
E8C
330
B4D
100
AcDbEntity
  8
0
 62
     7
100
AcDbFaceRecord
 10
0.0
 20
0.0
 30
0.0
 70
   128
 71
   302
 72
   294
 73
   295
  0
VERTEX
  5
E8D
330
B4D
100
AcDbEntity
  8
0
 62
     7
100
AcDbFaceRecord
 10
0.0
 20
0.0
 30
0.0
 70
   128
 71
   302
 72
   287
 73
   294
  0
VERTEX
  5
E8E
330
B4D
100
AcDbEntity
  8
0
 62
     7
100
AcDbFaceRecord
 10
0.0
 20
0.0
 30
0.0
 70
   128
 71
   302
 72
   297
 73
   287
  0
VERTEX
  5
E8F
330
B4D
100
AcDbEntity
  8
0
 62
     7
100
AcDbFaceRecord
 10
0.0
 20
0.0
 30
0.0
 70
   128
 71
   303
 72
   297
 73
   302
  0
VERTEX
  5
E90
330
B4D
100
AcDbEntity
  8
0
 62
     7
100
AcDbFaceRecord
 10
0.0
 20
0.0
 30
0.0
 70
   128
 71
   304
 72
   296
 73
   297
  0
VERTEX
  5
E91
330
B4D
100
AcDbEntity
  8
0
 62
     7
100
AcDbFaceRecord
 10
0.0
 20
0.0
 30
0.0
 70
   128
 71
   304
 72
   289
 73
   296
  0
VERTEX
  5
E92
330
B4D
100
AcDbEntity
  8
0
 62
     7
100
AcDbFaceRecord
 10
0.0
 20
0.0
 30
0.0
 70
   128
 71
   304
 72
   299
 73
   289
  0
VERTEX
  5
E93
330
B4D
100
AcDbEntity
  8
0
 62
     7
100
AcDbFaceRecord
 10
0.0
 20
0.0
 30
0.0
 70
   128
 71
   305
 72
   299
 73
   304
  0
VERTEX
  5
E94
330
B4D
100
AcDbEntity
  8
0
 62
     7
100
AcDbFaceRecord
 10
0.0
 20
0.0
 30
0.0
 70
   128
 71
    36
 72
    30
 73
   306
  0
VERTEX
  5
E95
330
B4D
100
AcDbEntity
  8
0
 62
     7
100
AcDbFaceRecord
 10
0.0
 20
0.0
 30
0.0
 70
   128
 71
     4
 72
   307
 73
     2
  0
VERTEX
  5
E96
330
B4D
100
AcDbEntity
  8
0
 62
     7
100
AcDbFaceRecord
 10
0.0
 20
0.0
 30
0.0
 70
   128
 71
   308
 72
   309
 73
   310
  0
VERTEX
  5
E97
330
B4D
100
AcDbEntity
  8
0
 62
     7
100
AcDbFaceRecord
 10
0.0
 20
0.0
 30
0.0
 70
   128
 71
   311
 72
   312
 73
   313
  0
VERTEX
  5
E98
330
B4D
100
AcDbEntity
  8
0
 62
     7
100
AcDbFaceRecord
 10
0.0
 20
0.0
 30
0.0
 70
   128
 71
   312
 72
   301
 73
   300
  0
VERTEX
  5
E99
330
B4D
100
AcDbEntity
  8
0
 62
     7
100
AcDbFaceRecord
 10
0.0
 20
0.0
 30
0.0
 70
   128
 71
   314
 72
   293
 73
   290
  0
VERTEX
  5
E9A
330
B4D
100
AcDbEntity
  8
0
 62
     7
100
AcDbFaceRecord
 10
0.0
 20
0.0
 30
0.0
 70
   128
 71
   314
 72
   300
 73
   293
  0
VERTEX
  5
E9B
330
B4D
100
AcDbEntity
  8
0
 62
     7
100
AcDbFaceRecord
 10
0.0
 20
0.0
 30
0.0
 70
   128
 71
   314
 72
   312
 73
   300
  0
VERTEX
  5
E9C
330
B4D
100
AcDbEntity
  8
0
 62
     7
100
AcDbFaceRecord
 10
0.0
 20
0.0
 30
0.0
 70
   128
 71
   314
 72
   313
 73
   312
  0
VERTEX
  5
E9D
330
B4D
100
AcDbEntity
  8
0
 62
     7
100
AcDbFaceRecord
 10
0.0
 20
0.0
 30
0.0
 70
   128
 71
   315
 72
   301
 73
   316
  0
VERTEX
  5
E9E
330
B4D
100
AcDbEntity
  8
0
 62
     7
100
AcDbFaceRecord
 10
0.0
 20
0.0
 30
0.0
 70
   128
 71
   315
 72
   295
 73
   301
  0
VERTEX
  5
E9F
330
B4D
100
AcDbEntity
  8
0
 62
     7
100
AcDbFaceRecord
 10
0.0
 20
0.0
 30
0.0
 70
   128
 71
   315
 72
   302
 73
   295
  0
VERTEX
  5
EA0
330
B4D
100
AcDbEntity
  8
0
 62
     7
100
AcDbFaceRecord
 10
0.0
 20
0.0
 30
0.0
 70
   128
 71
   315
 72
   303
 73
   302
  0
VERTEX
  5
EA1
330
B4D
100
AcDbEntity
  8
0
 62
     7
100
AcDbFaceRecord
 10
0.0
 20
0.0
 30
0.0
 70
   128
 71
   317
 72
   311
 73
   318
  0
VERTEX
  5
EA2
330
B4D
100
AcDbEntity
  8
0
 62
     7
100
AcDbFaceRecord
 10
0.0
 20
0.0
 30
0.0
 70
   128
 71
   317
 72
   312
 73
   311
  0
VERTEX
  5
EA3
330
B4D
100
AcDbEntity
  8
0
 62
     7
100
AcDbFaceRecord
 10
0.0
 20
0.0
 30
0.0
 70
   128
 71
   317
 72
   301
 73
   312
  0
VERTEX
  5
EA4
330
B4D
100
AcDbEntity
  8
0
 62
     7
100
AcDbFaceRecord
 10
0.0
 20
0.0
 30
0.0
 70
   128
 71
   317
 72
   316
 73
   301
  0
VERTEX
  5
EA5
330
B4D
100
AcDbEntity
  8
0
 62
     7
100
AcDbFaceRecord
 10
0.0
 20
0.0
 30
0.0
 70
   128
 71
   319
 72
   310
 73
   309
  0
VERTEX
  5
EA6
330
B4D
100
AcDbEntity
  8
0
 62
     7
100
AcDbFaceRecord
 10
0.0
 20
0.0
 30
0.0
 70
   128
 71
   319
 72
   303
 73
   310
  0
VERTEX
  5
EA7
330
B4D
100
AcDbEntity
  8
0
 62
     7
100
AcDbFaceRecord
 10
0.0
 20
0.0
 30
0.0
 70
   128
 71
   319
 72
   297
 73
   303
  0
VERTEX
  5
EA8
330
B4D
100
AcDbEntity
  8
0
 62
     7
100
AcDbFaceRecord
 10
0.0
 20
0.0
 30
0.0
 70
   128
 71
   319
 72
   304
 73
   297
  0
VERTEX
  5
EA9
330
B4D
100
AcDbEntity
  8
0
 62
     7
100
AcDbFaceRecord
 10
0.0
 20
0.0
 30
0.0
 70
   128
 71
   319
 72
   305
 73
   304
  0
VERTEX
  5
EAA
330
B4D
100
AcDbEntity
  8
0
 62
     7
100
AcDbFaceRecord
 10
0.0
 20
0.0
 30
0.0
 70
   128
 71
   320
 72
   316
 73
   321
  0
VERTEX
  5
EAB
330
B4D
100
AcDbEntity
  8
0
 62
     7
100
AcDbFaceRecord
 10
0.0
 20
0.0
 30
0.0
 70
   128
 71
   320
 72
   315
 73
   316
  0
VERTEX
  5
EAC
330
B4D
100
AcDbEntity
  8
0
 62
     7
100
AcDbFaceRecord
 10
0.0
 20
0.0
 30
0.0
 70
   128
 71
   320
 72
   303
 73
   315
  0
VERTEX
  5
EAD
330
B4D
100
AcDbEntity
  8
0
 62
     7
100
AcDbFaceRecord
 10
0.0
 20
0.0
 30
0.0
 70
   128
 71
   320
 72
   310
 73
   303
  0
VERTEX
  5
EAE
330
B4D
100
AcDbEntity
  8
0
 62
     7
100
AcDbFaceRecord
 10
0.0
 20
0.0
 30
0.0
 70
   128
 71
   307
 72
   299
 73
   305
  0
VERTEX
  5
EAF
330
B4D
100
AcDbEntity
  8
0
 62
     7
100
AcDbFaceRecord
 10
0.0
 20
0.0
 30
0.0
 70
   128
 71
   305
 72
   319
 73
   309
  0
VERTEX
  5
EB0
330
B4D
100
AcDbEntity
  8
0
 62
     7
100
AcDbFaceRecord
 10
0.0
 20
0.0
 30
0.0
 70
   128
 71
   322
 72
   323
 73
   324
  0
VERTEX
  5
EB1
330
B4D
100
AcDbEntity
  8
0
 62
     7
100
AcDbFaceRecord
 10
0.0
 20
0.0
 30
0.0
 70
   128
 71
   323
 72
   318
 73
   311
  0
VERTEX
  5
EB2
330
B4D
100
AcDbEntity
  8
0
 62
     7
100
AcDbFaceRecord
 10
0.0
 20
0.0
 30
0.0
 70
   128
 71
   325
 72
   313
 73
   306
  0
VERTEX
  5
EB3
330
B4D
100
AcDbEntity
  8
0
 62
     7
100
AcDbFaceRecord
 10
0.0
 20
0.0
 30
0.0
 70
   128
 71
   325
 72
   311
 73
   313
  0
VERTEX
  5
EB4
330
B4D
100
AcDbEntity
  8
0
 62
     7
100
AcDbFaceRecord
 10
0.0
 20
0.0
 30
0.0
 70
   128
 71
   325
 72
   323
 73
   311
  0
VERTEX
  5
EB5
330
B4D
100
AcDbEntity
  8
0
 62
     7
100
AcDbFaceRecord
 10
0.0
 20
0.0
 30
0.0
 70
   128
 71
   325
 72
   324
 73
   323
  0
VERTEX
  5
EB6
330
B4D
100
AcDbEntity
  8
0
 62
     7
100
AcDbFaceRecord
 10
0.0
 20
0.0
 30
0.0
 70
   128
 71
   326
 72
   317
 73
   318
  0
VERTEX
  5
EB7
330
B4D
100
AcDbEntity
  8
0
 62
     7
100
AcDbFaceRecord
 10
0.0
 20
0.0
 30
0.0
 70
   128
 71
   326
 72
   316
 73
   317
  0
VERTEX
  5
EB8
330
B4D
100
AcDbEntity
  8
0
 62
     7
100
AcDbFaceRecord
 10
0.0
 20
0.0
 30
0.0
 70
   128
 71
   326
 72
   321
 73
   316
  0
VERTEX
  5
EB9
330
B4D
100
AcDbEntity
  8
0
 62
     7
100
AcDbFaceRecord
 10
0.0
 20
0.0
 30
0.0
 70
   128
 71
   327
 72
   326
 73
   318
  0
VERTEX
  5
EBA
330
B4D
100
AcDbEntity
  8
0
 62
     7
100
AcDbFaceRecord
 10
0.0
 20
0.0
 30
0.0
 70
   128
 71
   328
 72
   320
 73
   321
  0
VERTEX
  5
EBB
330
B4D
100
AcDbEntity
  8
0
 62
     7
100
AcDbFaceRecord
 10
0.0
 20
0.0
 30
0.0
 70
   128
 71
   328
 72
   310
 73
   320
  0
VERTEX
  5
EBC
330
B4D
100
AcDbEntity
  8
0
 62
     7
100
AcDbFaceRecord
 10
0.0
 20
0.0
 30
0.0
 70
   128
 71
   328
 72
   308
 73
   310
  0
VERTEX
  5
EBD
330
B4D
100
AcDbEntity
  8
0
 62
     7
100
AcDbFaceRecord
 10
0.0
 20
0.0
 30
0.0
 70
   128
 71
   329
 72
   328
 73
   321
  0
VERTEX
  5
EBE
330
B4D
100
AcDbEntity
  8
0
 62
     7
100
AcDbFaceRecord
 10
0.0
 20
0.0
 30
0.0
 70
   128
 71
   330
 72
   308
 73
   331
  0
VERTEX
  5
EBF
330
B4D
100
AcDbEntity
  8
0
 62
     7
100
AcDbFaceRecord
 10
0.0
 20
0.0
 30
0.0
 70
   128
 71
   330
 72
   309
 73
   308
  0
VERTEX
  5
EC0
330
B4D
100
AcDbEntity
  8
0
 62
     7
100
AcDbFaceRecord
 10
0.0
 20
0.0
 30
0.0
 70
   128
 71
    28
 72
   330
 73
   331
  0
VERTEX
  5
EC1
330
B4D
100
AcDbEntity
  8
0
 62
     7
100
AcDbFaceRecord
 10
0.0
 20
0.0
 30
0.0
 70
   128
 71
     3
 72
    29
 73
   332
  0
VERTEX
  5
EC2
330
B4D
100
AcDbEntity
  8
0
 62
     7
100
AcDbFaceRecord
 10
0.0
 20
0.0
 30
0.0
 70
   128
 71
   331
 72
   332
 73
    29
  0
VERTEX
  5
EC3
330
B4D
100
AcDbEntity
  8
0
 62
     7
100
AcDbFaceRecord
 10
0.0
 20
0.0
 30
0.0
 70
   128
 71
   331
 72
   333
 73
   332
  0
VERTEX
  5
EC4
330
B4D
100
AcDbEntity
  8
0
 62
     7
100
AcDbFaceRecord
 10
0.0
 20
0.0
 30
0.0
 70
   128
 71
   334
 72
    66
 73
    83
  0
VERTEX
  5
EC5
330
B4D
100
AcDbEntity
  8
0
 62
     7
100
AcDbFaceRecord
 10
0.0
 20
0.0
 30
0.0
 70
   128
 71
   334
 72
    64
 73
    66
  0
VERTEX
  5
EC6
330
B4D
100
AcDbEntity
  8
0
 62
     7
100
AcDbFaceRecord
 10
0.0
 20
0.0
 30
0.0
 70
   128
 71
   335
 72
    65
 73
    64
  0
VERTEX
  5
EC7
330
B4D
100
AcDbEntity
  8
0
 62
     7
100
AcDbFaceRecord
 10
0.0
 20
0.0
 30
0.0
 70
   128
 71
   335
 72
    61
 73
    65
  0
VERTEX
  5
EC8
330
B4D
100
AcDbEntity
  8
0
 62
     7
100
AcDbFaceRecord
 10
0.0
 20
0.0
 30
0.0
 70
   128
 71
   335
 72
    63
 73
    61
  0
VERTEX
  5
EC9
330
B4D
100
AcDbEntity
  8
0
 62
     7
100
AcDbFaceRecord
 10
0.0
 20
0.0
 30
0.0
 70
   128
 71
   336
 72
    74
 73
    62
  0
VERTEX
  5
ECA
330
B4D
100
AcDbEntity
  8
0
 62
     7
100
AcDbFaceRecord
 10
0.0
 20
0.0
 30
0.0
 70
   128
 71
   336
 72
    77
 73
    74
  0
VERTEX
  5
ECB
330
B4D
100
AcDbEntity
  8
0
 62
     7
100
AcDbFaceRecord
 10
0.0
 20
0.0
 30
0.0
 70
   128
 71
   336
 72
    78
 73
    77
  0
VERTEX
  5
ECC
330
B4D
100
AcDbEntity
  8
0
 62
     7
100
AcDbFaceRecord
 10
0.0
 20
0.0
 30
0.0
 70
   128
 71
   336
 72
   337
 73
    78
  0
VERTEX
  5
ECD
330
B4D
100
AcDbEntity
  8
0
 62
     7
100
AcDbFaceRecord
 10
0.0
 20
0.0
 30
0.0
 70
   128
 71
    32
 72
   338
 73
   339
  0
VERTEX
  5
ECE
330
B4D
100
AcDbEntity
  8
0
 62
     7
100
AcDbFaceRecord
 10
0.0
 20
0.0
 30
0.0
 70
   128
 71
   340
 72
   338
 73
   337
  0
VERTEX
  5
ECF
330
B4D
100
AcDbEntity
  8
0
 62
     7
100
AcDbFaceRecord
 10
0.0
 20
0.0
 30
0.0
 70
   128
 71
   340
 72
   339
 73
   338
  0
VERTEX
  5
ED0
330
B4D
100
AcDbEntity
  8
0
 62
     7
100
AcDbFaceRecord
 10
0.0
 20
0.0
 30
0.0
 70
   128
 71
   340
 72
   324
 73
   339
  0
VERTEX
  5
ED1
330
B4D
100
AcDbEntity
  8
0
 62
     7
100
AcDbFaceRecord
 10
0.0
 20
0.0
 30
0.0
 70
   128
 71
   340
 72
   322
 73
   324
  0
VERTEX
  5
ED2
330
B4D
100
AcDbEntity
  8
0
 62
     7
100
AcDbFaceRecord
 10
0.0
 20
0.0
 30
0.0
 70
   128
 71
   341
 72
    62
 73
    63
  0
VERTEX
  5
ED3
330
B4D
100
AcDbEntity
  8
0
 62
     7
100
AcDbFaceRecord
 10
0.0
 20
0.0
 30
0.0
 70
   128
 71
   341
 72
   336
 73
    62
  0
VERTEX
  5
ED4
330
B4D
100
AcDbEntity
  8
0
 62
     7
100
AcDbFaceRecord
 10
0.0
 20
0.0
 30
0.0
 70
   128
 71
   341
 72
   337
 73
   336
  0
VERTEX
  5
ED5
330
B4D
100
AcDbEntity
  8
0
 62
     7
100
AcDbFaceRecord
 10
0.0
 20
0.0
 30
0.0
 70
   128
 71
   341
 72
   340
 73
   337
  0
VERTEX
  5
ED6
330
B4D
100
AcDbEntity
  8
0
 62
     7
100
AcDbFaceRecord
 10
0.0
 20
0.0
 30
0.0
 70
   128
 71
   322
 72
   341
 73
    63
  0
VERTEX
  5
ED7
330
B4D
100
AcDbEntity
  8
0
 62
     7
100
AcDbFaceRecord
 10
0.0
 20
0.0
 30
0.0
 70
   128
 71
   322
 72
   340
 73
   341
  0
VERTEX
  5
ED8
330
B4D
100
AcDbEntity
  8
0
 62
     7
100
AcDbFaceRecord
 10
0.0
 20
0.0
 30
0.0
 70
   128
 71
   342
 72
   323
 73
   322
  0
VERTEX
  5
ED9
330
B4D
100
AcDbEntity
  8
0
 62
     7
100
AcDbFaceRecord
 10
0.0
 20
0.0
 30
0.0
 70
   128
 71
   342
 72
   318
 73
   323
  0
VERTEX
  5
EDA
330
B4D
100
AcDbEntity
  8
0
 62
     7
100
AcDbFaceRecord
 10
0.0
 20
0.0
 30
0.0
 70
   128
 71
   342
 72
   327
 73
   318
  0
VERTEX
  5
EDB
330
B4D
100
AcDbEntity
  8
0
 62
     7
100
AcDbFaceRecord
 10
0.0
 20
0.0
 30
0.0
 70
   128
 71
   342
 72
    63
 73
   335
  0
VERTEX
  5
EDC
330
B4D
100
AcDbEntity
  8
0
 62
     7
100
AcDbFaceRecord
 10
0.0
 20
0.0
 30
0.0
 70
   128
 71
   342
 72
   322
 73
    63
  0
VERTEX
  5
EDD
330
B4D
100
AcDbEntity
  8
0
 62
     7
100
AcDbFaceRecord
 10
0.0
 20
0.0
 30
0.0
 70
   128
 71
   327
 72
   335
 73
    64
  0
VERTEX
  5
EDE
330
B4D
100
AcDbEntity
  8
0
 62
     7
100
AcDbFaceRecord
 10
0.0
 20
0.0
 30
0.0
 70
   128
 71
   327
 72
   342
 73
   335
  0
VERTEX
  5
EDF
330
B4D
100
AcDbEntity
  8
0
 62
     7
100
AcDbFaceRecord
 10
0.0
 20
0.0
 30
0.0
 70
   128
 71
   343
 72
   326
 73
   327
  0
VERTEX
  5
EE0
330
B4D
100
AcDbEntity
  8
0
 62
     7
100
AcDbFaceRecord
 10
0.0
 20
0.0
 30
0.0
 70
   128
 71
   343
 72
   321
 73
   326
  0
VERTEX
  5
EE1
330
B4D
100
AcDbEntity
  8
0
 62
     7
100
AcDbFaceRecord
 10
0.0
 20
0.0
 30
0.0
 70
   128
 71
   343
 72
   329
 73
   321
  0
VERTEX
  5
EE2
330
B4D
100
AcDbEntity
  8
0
 62
     7
100
AcDbFaceRecord
 10
0.0
 20
0.0
 30
0.0
 70
   128
 71
   343
 72
    64
 73
   334
  0
VERTEX
  5
EE3
330
B4D
100
AcDbEntity
  8
0
 62
     7
100
AcDbFaceRecord
 10
0.0
 20
0.0
 30
0.0
 70
   128
 71
   343
 72
   327
 73
    64
  0
VERTEX
  5
EE4
330
B4D
100
AcDbEntity
  8
0
 62
     7
100
AcDbFaceRecord
 10
0.0
 20
0.0
 30
0.0
 70
   128
 71
   329
 72
   343
 73
   334
  0
VERTEX
  5
EE5
330
B4D
100
AcDbEntity
  8
0
 62
     7
100
AcDbFaceRecord
 10
0.0
 20
0.0
 30
0.0
 70
   128
 71
   333
 72
   328
 73
   329
  0
VERTEX
  5
EE6
330
B4D
100
AcDbEntity
  8
0
 62
     7
100
AcDbFaceRecord
 10
0.0
 20
0.0
 30
0.0
 70
   128
 71
   333
 72
   308
 73
   328
  0
VERTEX
  5
EE7
330
B4D
100
AcDbEntity
  8
0
 62
     7
100
AcDbFaceRecord
 10
0.0
 20
0.0
 30
0.0
 70
   128
 71
   333
 72
   331
 73
   308
  0
VERTEX
  5
EE8
330
B4D
100
AcDbEntity
  8
0
 62
     7
100
AcDbFaceRecord
 10
0.0
 20
0.0
 30
0.0
 70
   128
 71
   344
 72
   334
 73
    83
  0
VERTEX
  5
EE9
330
B4D
100
AcDbEntity
  8
0
 62
     7
100
AcDbFaceRecord
 10
0.0
 20
0.0
 30
0.0
 70
   128
 71
   344
 72
   329
 73
   334
  0
VERTEX
  5
EEA
330
B4D
100
AcDbEntity
  8
0
 62
     7
100
AcDbFaceRecord
 10
0.0
 20
0.0
 30
0.0
 70
   128
 71
   344
 72
   333
 73
   329
  0
VERTEX
  5
EEB
330
B4D
100
AcDbEntity
  8
0
 62
     7
100
AcDbFaceRecord
 10
0.0
 20
0.0
 30
0.0
 70
   128
 71
   344
 72
   332
 73
   333
  0
VERTEX
  5
EEC
330
B4D
100
AcDbEntity
  8
0
 62
     7
100
AcDbFaceRecord
 10
0.0
 20
0.0
 30
0.0
 70
   128
 71
    35
 72
    94
 73
    33
  0
VERTEX
  5
EED
330
B4D
100
AcDbEntity
  8
0
 62
     7
100
AcDbFaceRecord
 10
0.0
 20
0.0
 30
0.0
 70
   128
 71
    35
 72
    95
 73
    94
  0
VERTEX
  5
EEE
330
B4D
100
AcDbEntity
  8
0
 62
     7
100
AcDbFaceRecord
 10
0.0
 20
0.0
 30
0.0
 70
   128
 71
   345
 72
   306
 73
    30
  0
VERTEX
  5
EEF
330
B4D
100
AcDbEntity
  8
0
 62
     7
100
AcDbFaceRecord
 10
0.0
 20
0.0
 30
0.0
 70
   128
 71
   345
 72
   325
 73
   306
  0
VERTEX
  5
EF0
330
B4D
100
AcDbEntity
  8
0
 62
     7
100
AcDbFaceRecord
 10
0.0
 20
0.0
 30
0.0
 70
   128
 71
   345
 72
   324
 73
   325
  0
VERTEX
  5
EF1
330
B4D
100
AcDbEntity
  8
0
 62
     7
100
AcDbFaceRecord
 10
0.0
 20
0.0
 30
0.0
 70
   128
 71
   345
 72
   339
 73
   324
  0
VERTEX
  5
EF2
330
B4D
100
AcDbEntity
  8
0
 62
     7
100
AcDbFaceRecord
 10
0.0
 20
0.0
 30
0.0
 70
   128
 71
   345
 72
    32
 73
   339
  0
VERTEX
  5
EF3
330
B4D
100
AcDbEntity
  8
0
 62
     7
100
AcDbFaceRecord
 10
0.0
 20
0.0
 30
0.0
 70
   128
 71
    38
 72
   284
 73
   258
  0
VERTEX
  5
EF4
330
B4D
100
AcDbEntity
  8
0
 62
     7
100
AcDbFaceRecord
 10
0.0
 20
0.0
 30
0.0
 70
   128
 71
    10
 72
   269
 73
   268
  0
VERTEX
  5
EF5
330
B4D
100
AcDbEntity
  8
0
 62
     7
100
AcDbFaceRecord
 10
0.0
 20
0.0
 30
0.0
 70
   128
 71
    20
 72
   219
 73
   218
  0
VERTEX
  5
EF6
330
B4D
100
AcDbEntity
  8
0
 62
     7
100
AcDbFaceRecord
 10
0.0
 20
0.0
 30
0.0
 70
   128
 71
    26
 72
   169
 73
   168
  0
VERTEX
  5
EF7
330
B4D
100
AcDbEntity
  8
0
 62
     7
100
AcDbFaceRecord
 10
0.0
 20
0.0
 30
0.0
 70
   128
 71
    13
 72
   139
 73
   124
  0
VERTEX
  5
EF8
330
B4D
100
AcDbEntity
  8
0
 62
     7
100
AcDbFaceRecord
 10
0.0
 20
0.0
 30
0.0
 70
   128
 71
   346
 72
   122
 73
   126
  0
VERTEX
  5
EF9
330
B4D
100
AcDbEntity
  8
0
 62
     7
100
AcDbFaceRecord
 10
0.0
 20
0.0
 30
0.0
 70
   128
 71
   346
 72
   120
 73
   122
  0
VERTEX
  5
EFA
330
B4D
100
AcDbEntity
  8
0
 62
     7
100
AcDbFaceRecord
 10
0.0
 20
0.0
 30
0.0
 70
   128
 71
   347
 72
   113
 73
   346
  0
VERTEX
  5
EFB
330
B4D
100
AcDbEntity
  8
0
 62
     7
100
AcDbFaceRecord
 10
0.0
 20
0.0
 30
0.0
 70
   128
 71
   347
 72
   114
 73
   113
  0
VERTEX
  5
EFC
330
B4D
100
AcDbEntity
  8
0
 62
     7
100
AcDbFaceRecord
 10
0.0
 20
0.0
 30
0.0
 70
   128
 71
   347
 72
   115
 73
   114
  0
VERTEX
  5
EFD
330
B4D
100
AcDbEntity
  8
0
 62
     7
100
AcDbFaceRecord
 10
0.0
 20
0.0
 30
0.0
 70
   128
 71
   347
 72
   126
 73
   129
  0
VERTEX
  5
EFE
330
B4D
100
AcDbEntity
  8
0
 62
     7
100
AcDbFaceRecord
 10
0.0
 20
0.0
 30
0.0
 70
   128
 71
   347
 72
   346
 73
   126
  0
VERTEX
  5
EFF
330
B4D
100
AcDbEntity
  8
0
 62
     7
100
AcDbFaceRecord
 10
0.0
 20
0.0
 30
0.0
 70
   128
 71
   115
 72
   129
 73
   131
  0
VERTEX
  5
F00
330
B4D
100
AcDbEntity
  8
0
 62
     7
100
AcDbFaceRecord
 10
0.0
 20
0.0
 30
0.0
 70
   128
 71
   115
 72
   347
 73
   129
  0
VERTEX
  5
F01
330
B4D
100
AcDbEntity
  8
0
 62
     7
100
AcDbFaceRecord
 10
0.0
 20
0.0
 30
0.0
 70
   128
 71
   348
 72
   107
 73
   115
  0
VERTEX
  5
F02
330
B4D
100
AcDbEntity
  8
0
 62
     7
100
AcDbFaceRecord
 10
0.0
 20
0.0
 30
0.0
 70
   128
 71
   348
 72
   116
 73
   107
  0
VERTEX
  5
F03
330
B4D
100
AcDbEntity
  8
0
 62
     7
100
AcDbFaceRecord
 10
0.0
 20
0.0
 30
0.0
 70
   128
 71
   348
 72
   117
 73
   116
  0
VERTEX
  5
F04
330
B4D
100
AcDbEntity
  8
0
 62
     7
100
AcDbFaceRecord
 10
0.0
 20
0.0
 30
0.0
 70
   128
 71
   348
 72
   131
 73
   133
  0
VERTEX
  5
F05
330
B4D
100
AcDbEntity
  8
0
 62
     7
100
AcDbFaceRecord
 10
0.0
 20
0.0
 30
0.0
 70
   128
 71
   348
 72
   115
 73
   131
  0
VERTEX
  5
F06
330
B4D
100
AcDbEntity
  8
0
 62
     7
100
AcDbFaceRecord
 10
0.0
 20
0.0
 30
0.0
 70
   128
 71
   117
 72
   133
 73
   136
  0
VERTEX
  5
F07
330
B4D
100
AcDbEntity
  8
0
 62
     7
100
AcDbFaceRecord
 10
0.0
 20
0.0
 30
0.0
 70
   128
 71
   117
 72
   348
 73
   133
  0
VERTEX
  5
F08
330
B4D
100
AcDbEntity
  8
0
 62
     7
100
AcDbFaceRecord
 10
0.0
 20
0.0
 30
0.0
 70
   128
 71
   349
 72
   109
 73
   117
  0
VERTEX
  5
F09
330
B4D
100
AcDbEntity
  8
0
 62
     7
100
AcDbFaceRecord
 10
0.0
 20
0.0
 30
0.0
 70
   128
 71
   349
 72
   118
 73
   109
  0
VERTEX
  5
F0A
330
B4D
100
AcDbEntity
  8
0
 62
     7
100
AcDbFaceRecord
 10
0.0
 20
0.0
 30
0.0
 70
   128
 71
   349
 72
   119
 73
   118
  0
VERTEX
  5
F0B
330
B4D
100
AcDbEntity
  8
0
 62
     7
100
AcDbFaceRecord
 10
0.0
 20
0.0
 30
0.0
 70
   128
 71
   349
 72
   136
 73
   137
  0
VERTEX
  5
F0C
330
B4D
100
AcDbEntity
  8
0
 62
     7
100
AcDbFaceRecord
 10
0.0
 20
0.0
 30
0.0
 70
   128
 71
   349
 72
   117
 73
   136
  0
VERTEX
  5
F0D
330
B4D
100
AcDbEntity
  8
0
 62
     7
100
AcDbFaceRecord
 10
0.0
 20
0.0
 30
0.0
 70
   128
 71
   119
 72
   137
 73
   139
  0
VERTEX
  5
F0E
330
B4D
100
AcDbEntity
  8
0
 62
     7
100
AcDbFaceRecord
 10
0.0
 20
0.0
 30
0.0
 70
   128
 71
   119
 72
   349
 73
   137
  0
VERTEX
  5
F0F
330
B4D
100
AcDbEntity
  8
0
 62
     7
100
AcDbFaceRecord
 10
0.0
 20
0.0
 30
0.0
 70
   128
 71
    58
 72
   338
 73
    32
  0
VERTEX
  5
F10
330
B4D
100
AcDbEntity
  8
0
 62
     7
100
AcDbFaceRecord
 10
0.0
 20
0.0
 30
0.0
 70
   128
 71
    32
 72
   345
 73
    30
  0
VERTEX
  5
F11
330
B4D
100
AcDbEntity
  8
0
 62
     7
100
AcDbFaceRecord
 10
0.0
 20
0.0
 30
0.0
 70
   128
 71
   350
 72
   290
 73
    34
  0
VERTEX
  5
F12
330
B4D
100
AcDbEntity
  8
0
 62
     7
100
AcDbFaceRecord
 10
0.0
 20
0.0
 30
0.0
 70
   128
 71
   350
 72
   314
 73
   290
  0
VERTEX
  5
F13
330
B4D
100
AcDbEntity
  8
0
 62
     7
100
AcDbFaceRecord
 10
0.0
 20
0.0
 30
0.0
 70
   128
 71
   350
 72
   313
 73
   314
  0
VERTEX
  5
F14
330
B4D
100
AcDbEntity
  8
0
 62
     7
100
AcDbFaceRecord
 10
0.0
 20
0.0
 30
0.0
 70
   128
 71
   350
 72
   306
 73
   313
  0
VERTEX
  5
F15
330
B4D
100
AcDbEntity
  8
0
 62
     7
100
AcDbFaceRecord
 10
0.0
 20
0.0
 30
0.0
 70
   128
 71
   350
 72
    36
 73
   306
  0
VERTEX
  5
F16
330
B4D
100
AcDbEntity
  8
0
 62
     7
100
AcDbFaceRecord
 10
0.0
 20
0.0
 30
0.0
 70
   128
 71
    36
 72
   350
 73
    34
  0
VERTEX
  5
F17
330
B4D
100
AcDbEntity
  8
0
 62
     7
100
AcDbFaceRecord
 10
0.0
 20
0.0
 30
0.0
 70
   128
 71
   351
 72
   284
 73
    38
  0
VERTEX
  5
F18
330
B4D
100
AcDbEntity
  8
0
 62
     7
100
AcDbFaceRecord
 10
0.0
 20
0.0
 30
0.0
 70
   128
 71
   351
 72
   291
 73
   284
  0
VERTEX
  5
F19
330
B4D
100
AcDbEntity
  8
0
 62
     7
100
AcDbFaceRecord
 10
0.0
 20
0.0
 30
0.0
 70
   128
 71
   351
 72
   293
 73
   291
  0
VERTEX
  5
F1A
330
B4D
100
AcDbEntity
  8
0
 62
     7
100
AcDbFaceRecord
 10
0.0
 20
0.0
 30
0.0
 70
   128
 71
   351
 72
   290
 73
   293
  0
VERTEX
  5
F1B
330
B4D
100
AcDbEntity
  8
0
 62
     7
100
AcDbFaceRecord
 10
0.0
 20
0.0
 30
0.0
 70
   128
 71
   351
 72
    40
 73
   290
  0
VERTEX
  5
F1C
330
B4D
100
AcDbEntity
  8
0
 62
     7
100
AcDbFaceRecord
 10
0.0
 20
0.0
 30
0.0
 70
   128
 71
    40
 72
   351
 73
    38
  0
VERTEX
  5
F1D
330
B4D
100
AcDbEntity
  8
0
 62
     7
100
AcDbFaceRecord
 10
0.0
 20
0.0
 30
0.0
 70
   128
 71
    38
 72
   258
 73
    44
  0
VERTEX
  5
F1E
330
B4D
100
AcDbEntity
  8
0
 62
     7
100
AcDbFaceRecord
 10
0.0
 20
0.0
 30
0.0
 70
   128
 71
   352
 72
   240
 73
    48
  0
VERTEX
  5
F1F
330
B4D
100
AcDbEntity
  8
0
 62
     7
100
AcDbFaceRecord
 10
0.0
 20
0.0
 30
0.0
 70
   128
 71
   352
 72
   261
 73
   240
  0
VERTEX
  5
F20
330
B4D
100
AcDbEntity
  8
0
 62
     7
100
AcDbFaceRecord
 10
0.0
 20
0.0
 30
0.0
 70
   128
 71
   352
 72
   262
 73
   261
  0
VERTEX
  5
F21
330
B4D
100
AcDbEntity
  8
0
 62
     7
100
AcDbFaceRecord
 10
0.0
 20
0.0
 30
0.0
 70
   128
 71
   352
 72
   256
 73
   262
  0
VERTEX
  5
F22
330
B4D
100
AcDbEntity
  8
0
 62
     7
100
AcDbFaceRecord
 10
0.0
 20
0.0
 30
0.0
 70
   128
 71
   352
 72
    42
 73
   256
  0
VERTEX
  5
F23
330
B4D
100
AcDbEntity
  8
0
 62
     7
100
AcDbFaceRecord
 10
0.0
 20
0.0
 30
0.0
 70
   128
 71
    42
 72
   352
 73
    48
  0
VERTEX
  5
F24
330
B4D
100
AcDbEntity
  8
0
 62
     7
100
AcDbFaceRecord
 10
0.0
 20
0.0
 30
0.0
 70
   128
 71
   353
 72
   233
 73
    52
  0
VERTEX
  5
F25
330
B4D
100
AcDbEntity
  8
0
 62
     7
100
AcDbFaceRecord
 10
0.0
 20
0.0
 30
0.0
 70
   128
 71
   353
 72
   241
 73
   233
  0
VERTEX
  5
F26
330
B4D
100
AcDbEntity
  8
0
 62
     7
100
AcDbFaceRecord
 10
0.0
 20
0.0
 30
0.0
 70
   128
 71
   353
 72
   243
 73
   241
  0
VERTEX
  5
F27
330
B4D
100
AcDbEntity
  8
0
 62
     7
100
AcDbFaceRecord
 10
0.0
 20
0.0
 30
0.0
 70
   128
 71
   353
 72
   240
 73
   243
  0
VERTEX
  5
F28
330
B4D
100
AcDbEntity
  8
0
 62
     7
100
AcDbFaceRecord
 10
0.0
 20
0.0
 30
0.0
 70
   128
 71
   353
 72
    46
 73
   240
  0
VERTEX
  5
F29
330
B4D
100
AcDbEntity
  8
0
 62
     7
100
AcDbFaceRecord
 10
0.0
 20
0.0
 30
0.0
 70
   128
 71
    46
 72
   353
 73
    52
  0
VERTEX
  5
F2A
330
B4D
100
AcDbEntity
  8
0
 62
     7
100
AcDbFaceRecord
 10
0.0
 20
0.0
 30
0.0
 70
   128
 71
    52
 72
   208
 73
    50
  0
VERTEX
  5
F2B
330
B4D
100
AcDbEntity
  8
0
 62
     7
100
AcDbFaceRecord
 10
0.0
 20
0.0
 30
0.0
 70
   128
 71
   354
 72
   190
 73
    56
  0
VERTEX
  5
F2C
330
B4D
100
AcDbEntity
  8
0
 62
     7
100
AcDbFaceRecord
 10
0.0
 20
0.0
 30
0.0
 70
   128
 71
   354
 72
   211
 73
   190
  0
VERTEX
  5
F2D
330
B4D
100
AcDbEntity
  8
0
 62
     7
100
AcDbFaceRecord
 10
0.0
 20
0.0
 30
0.0
 70
   128
 71
   354
 72
   212
 73
   211
  0
VERTEX
  5
F2E
330
B4D
100
AcDbEntity
  8
0
 62
     7
100
AcDbFaceRecord
 10
0.0
 20
0.0
 30
0.0
 70
   128
 71
   354
 72
   206
 73
   212
  0
VERTEX
  5
F2F
330
B4D
100
AcDbEntity
  8
0
 62
     7
100
AcDbFaceRecord
 10
0.0
 20
0.0
 30
0.0
 70
   128
 71
   354
 72
    55
 73
   206
  0
VERTEX
  5
F30
330
B4D
100
AcDbEntity
  8
0
 62
     7
100
AcDbFaceRecord
 10
0.0
 20
0.0
 30
0.0
 70
   128
 71
    55
 72
   354
 73
    56
  0
VERTEX
  5
F31
330
B4D
100
AcDbEntity
  8
0
 62
     7
100
AcDbFaceRecord
 10
0.0
 20
0.0
 30
0.0
 70
   128
 71
   355
 72
   183
 73
    53
  0
VERTEX
  5
F32
330
B4D
100
AcDbEntity
  8
0
 62
     7
100
AcDbFaceRecord
 10
0.0
 20
0.0
 30
0.0
 70
   128
 71
   355
 72
   191
 73
   183
  0
VERTEX
  5
F33
330
B4D
100
AcDbEntity
  8
0
 62
     7
100
AcDbFaceRecord
 10
0.0
 20
0.0
 30
0.0
 70
   128
 71
   355
 72
   193
 73
   191
  0
VERTEX
  5
F34
330
B4D
100
AcDbEntity
  8
0
 62
     7
100
AcDbFaceRecord
 10
0.0
 20
0.0
 30
0.0
 70
   128
 71
   355
 72
   190
 73
   193
  0
VERTEX
  5
F35
330
B4D
100
AcDbEntity
  8
0
 62
     7
100
AcDbFaceRecord
 10
0.0
 20
0.0
 30
0.0
 70
   128
 71
   355
 72
    54
 73
   190
  0
VERTEX
  5
F36
330
B4D
100
AcDbEntity
  8
0
 62
     7
100
AcDbFaceRecord
 10
0.0
 20
0.0
 30
0.0
 70
   128
 71
    54
 72
   355
 73
    53
  0
VERTEX
  5
F37
330
B4D
100
AcDbEntity
  8
0
 62
     7
100
AcDbFaceRecord
 10
0.0
 20
0.0
 30
0.0
 70
   128
 71
    53
 72
   158
 73
    51
  0
VERTEX
  5
F38
330
B4D
100
AcDbEntity
  8
0
 62
     7
100
AcDbFaceRecord
 10
0.0
 20
0.0
 30
0.0
 70
   128
 71
   356
 72
   140
 73
    47
  0
VERTEX
  5
F39
330
B4D
100
AcDbEntity
  8
0
 62
     7
100
AcDbFaceRecord
 10
0.0
 20
0.0
 30
0.0
 70
   128
 71
   356
 72
   161
 73
   140
  0
VERTEX
  5
F3A
330
B4D
100
AcDbEntity
  8
0
 62
     7
100
AcDbFaceRecord
 10
0.0
 20
0.0
 30
0.0
 70
   128
 71
   356
 72
   162
 73
   161
  0
VERTEX
  5
F3B
330
B4D
100
AcDbEntity
  8
0
 62
     7
100
AcDbFaceRecord
 10
0.0
 20
0.0
 30
0.0
 70
   128
 71
   356
 72
   156
 73
   162
  0
VERTEX
  5
F3C
330
B4D
100
AcDbEntity
  8
0
 62
     7
100
AcDbFaceRecord
 10
0.0
 20
0.0
 30
0.0
 70
   128
 71
   356
 72
    49
 73
   156
  0
VERTEX
  5
F3D
330
B4D
100
AcDbEntity
  8
0
 62
     7
100
AcDbFaceRecord
 10
0.0
 20
0.0
 30
0.0
 70
   128
 71
    49
 72
   356
 73
    47
  0
VERTEX
  5
F3E
330
B4D
100
AcDbEntity
  8
0
 62
     7
100
AcDbFaceRecord
 10
0.0
 20
0.0
 30
0.0
 70
   128
 71
   357
 72
   121
 73
    43
  0
VERTEX
  5
F3F
330
B4D
100
AcDbEntity
  8
0
 62
     7
100
AcDbFaceRecord
 10
0.0
 20
0.0
 30
0.0
 70
   128
 71
   357
 72
   141
 73
   121
  0
VERTEX
  5
F40
330
B4D
100
AcDbEntity
  8
0
 62
     7
100
AcDbFaceRecord
 10
0.0
 20
0.0
 30
0.0
 70
   128
 71
   357
 72
   143
 73
   141
  0
VERTEX
  5
F41
330
B4D
100
AcDbEntity
  8
0
 62
     7
100
AcDbFaceRecord
 10
0.0
 20
0.0
 30
0.0
 70
   128
 71
   357
 72
   140
 73
   143
  0
VERTEX
  5
F42
330
B4D
100
AcDbEntity
  8
0
 62
     7
100
AcDbFaceRecord
 10
0.0
 20
0.0
 30
0.0
 70
   128
 71
   357
 72
    45
 73
   140
  0
VERTEX
  5
F43
330
B4D
100
AcDbEntity
  8
0
 62
     7
100
AcDbFaceRecord
 10
0.0
 20
0.0
 30
0.0
 70
   128
 71
    45
 72
   357
 73
    43
  0
VERTEX
  5
F44
330
B4D
100
AcDbEntity
  8
0
 62
     7
100
AcDbFaceRecord
 10
0.0
 20
0.0
 30
0.0
 70
   128
 71
   358
 72
   103
 73
    39
  0
VERTEX
  5
F45
330
B4D
100
AcDbEntity
  8
0
 62
     7
100
AcDbFaceRecord
 10
0.0
 20
0.0
 30
0.0
 70
   128
 71
   358
 72
   113
 73
   103
  0
VERTEX
  5
F46
330
B4D
100
AcDbEntity
  8
0
 62
     7
100
AcDbFaceRecord
 10
0.0
 20
0.0
 30
0.0
 70
   128
 71
   358
 72
   346
 73
   113
  0
VERTEX
  5
F47
330
B4D
100
AcDbEntity
  8
0
 62
     7
100
AcDbFaceRecord
 10
0.0
 20
0.0
 30
0.0
 70
   128
 71
   358
 72
   120
 73
   346
  0
VERTEX
  5
F48
330
B4D
100
AcDbEntity
  8
0
 62
     7
100
AcDbFaceRecord
 10
0.0
 20
0.0
 30
0.0
 70
   128
 71
   358
 72
    41
 73
   120
  0
VERTEX
  5
F49
330
B4D
100
AcDbEntity
  8
0
 62
     7
100
AcDbFaceRecord
 10
0.0
 20
0.0
 30
0.0
 70
   128
 71
    41
 72
   358
 73
    39
  0
VERTEX
  5
F4A
330
B4D
100
AcDbEntity
  8
0
 62
     7
100
AcDbFaceRecord
 10
0.0
 20
0.0
 30
0.0
 70
   128
 71
   359
 72
    95
 73
    35
  0
VERTEX
  5
F4B
330
B4D
100
AcDbEntity
  8
0
 62
     7
100
AcDbFaceRecord
 10
0.0
 20
0.0
 30
0.0
 70
   128
 71
   359
 72
   105
 73
    95
  0
VERTEX
  5
F4C
330
B4D
100
AcDbEntity
  8
0
 62
     7
100
AcDbFaceRecord
 10
0.0
 20
0.0
 30
0.0
 70
   128
 71
   359
 72
   106
 73
   105
  0
VERTEX
  5
F4D
330
B4D
100
AcDbEntity
  8
0
 62
     7
100
AcDbFaceRecord
 10
0.0
 20
0.0
 30
0.0
 70
   128
 71
   359
 72
   103
 73
   106
  0
VERTEX
  5
F4E
330
B4D
100
AcDbEntity
  8
0
 62
     7
100
AcDbFaceRecord
 10
0.0
 20
0.0
 30
0.0
 70
   128
 71
   359
 72
    37
 73
   103
  0
VERTEX
  5
F4F
330
B4D
100
AcDbEntity
  8
0
 62
     7
100
AcDbFaceRecord
 10
0.0
 20
0.0
 30
0.0
 70
   128
 71
    37
 72
   359
 73
    35
  0
VERTEX
  5
F50
330
B4D
100
AcDbEntity
  8
0
 62
     7
100
AcDbFaceRecord
 10
0.0
 20
0.0
 30
0.0
 70
   128
 71
   360
 72
    59
 73
    31
  0
VERTEX
  5
F51
330
B4D
100
AcDbEntity
  8
0
 62
     7
100
AcDbFaceRecord
 10
0.0
 20
0.0
 30
0.0
 70
   128
 71
   360
 72
    76
 73
    59
  0
VERTEX
  5
F52
330
B4D
100
AcDbEntity
  8
0
 62
     7
100
AcDbFaceRecord
 10
0.0
 20
0.0
 30
0.0
 70
   128
 71
   360
 72
    80
 73
    76
  0
VERTEX
  5
F53
330
B4D
100
AcDbEntity
  8
0
 62
     7
100
AcDbFaceRecord
 10
0.0
 20
0.0
 30
0.0
 70
   128
 71
   360
 72
    94
 73
    80
  0
VERTEX
  5
F54
330
B4D
100
AcDbEntity
  8
0
 62
     7
100
AcDbFaceRecord
 10
0.0
 20
0.0
 30
0.0
 70
   128
 71
   360
 72
    33
 73
    94
  0
VERTEX
  5
F55
330
B4D
100
AcDbEntity
  8
0
 62
     7
100
AcDbFaceRecord
 10
0.0
 20
0.0
 30
0.0
 70
   128
 71
    33
 72
   360
 73
    31
  0
VERTEX
  5
F56
330
B4D
100
AcDbEntity
  8
0
 62
     7
100
AcDbFaceRecord
 10
0.0
 20
0.0
 30
0.0
 70
   128
 71
   361
 72
   338
 73
    58
  0
VERTEX
  5
F57
330
B4D
100
AcDbEntity
  8
0
 62
     7
100
AcDbFaceRecord
 10
0.0
 20
0.0
 30
0.0
 70
   128
 71
   361
 72
   337
 73
   338
  0
VERTEX
  5
F58
330
B4D
100
AcDbEntity
  8
0
 62
     7
100
AcDbFaceRecord
 10
0.0
 20
0.0
 30
0.0
 70
   128
 71
   361
 72
    78
 73
   337
  0
VERTEX
  5
F59
330
B4D
100
AcDbEntity
  8
0
 62
     7
100
AcDbFaceRecord
 10
0.0
 20
0.0
 30
0.0
 70
   128
 71
   361
 72
    59
 73
    78
  0
VERTEX
  5
F5A
330
B4D
100
AcDbEntity
  8
0
 62
     7
100
AcDbFaceRecord
 10
0.0
 20
0.0
 30
0.0
 70
   128
 71
   361
 72
    57
 73
    59
  0
VERTEX
  5
F5B
330
B4D
100
AcDbEntity
  8
0
 62
     7
100
AcDbFaceRecord
 10
0.0
 20
0.0
 30
0.0
 70
   128
 71
    57
 72
   361
 73
    58
  0
VERTEX
  5
F5C
330
B4D
100
AcDbEntity
  8
0
 62
     7
100
AcDbFaceRecord
 10
0.0
 20
0.0
 30
0.0
 70
   128
 71
   362
 72
    69
 73
     1
  0
VERTEX
  5
F5D
330
B4D
100
AcDbEntity
  8
0
 62
     7
100
AcDbFaceRecord
 10
0.0
 20
0.0
 30
0.0
 70
   128
 71
   362
 72
    83
 73
    69
  0
VERTEX
  5
F5E
330
B4D
100
AcDbEntity
  8
0
 62
     7
100
AcDbFaceRecord
 10
0.0
 20
0.0
 30
0.0
 70
   128
 71
   362
 72
   344
 73
    83
  0
VERTEX
  5
F5F
330
B4D
100
AcDbEntity
  8
0
 62
     7
100
AcDbFaceRecord
 10
0.0
 20
0.0
 30
0.0
 70
   128
 71
   362
 72
   332
 73
   344
  0
VERTEX
  5
F60
330
B4D
100
AcDbEntity
  8
0
 62
     7
100
AcDbFaceRecord
 10
0.0
 20
0.0
 30
0.0
 70
   128
 71
   362
 72
     3
 73
   332
  0
VERTEX
  5
F61
330
B4D
100
AcDbEntity
  8
0
 62
     7
100
AcDbFaceRecord
 10
0.0
 20
0.0
 30
0.0
 70
   128
 71
     3
 72
   362
 73
     1
  0
VERTEX
  5
F62
330
B4D
100
AcDbEntity
  8
0
 62
     7
100
AcDbFaceRecord
 10
0.0
 20
0.0
 30
0.0
 70
   128
 71
   363
 72
    91
 73
     5
  0
VERTEX
  5
F63
330
B4D
100
AcDbEntity
  8
0
 62
     7
100
AcDbFaceRecord
 10
0.0
 20
0.0
 30
0.0
 70
   128
 71
   363
 72
    71
 73
    91
  0
VERTEX
  5
F64
330
B4D
100
AcDbEntity
  8
0
 62
     7
100
AcDbFaceRecord
 10
0.0
 20
0.0
 30
0.0
 70
   128
 71
   363
 72
    68
 73
    71
  0
VERTEX
  5
F65
330
B4D
100
AcDbEntity
  8
0
 62
     7
100
AcDbFaceRecord
 10
0.0
 20
0.0
 30
0.0
 70
   128
 71
   363
 72
    69
 73
    68
  0
VERTEX
  5
F66
330
B4D
100
AcDbEntity
  8
0
 62
     7
100
AcDbFaceRecord
 10
0.0
 20
0.0
 30
0.0
 70
   128
 71
   363
 72
     7
 73
    69
  0
VERTEX
  5
F67
330
B4D
100
AcDbEntity
  8
0
 62
     7
100
AcDbFaceRecord
 10
0.0
 20
0.0
 30
0.0
 70
   128
 71
     7
 72
   363
 73
     5
  0
VERTEX
  5
F68
330
B4D
100
AcDbEntity
  8
0
 62
     7
100
AcDbFaceRecord
 10
0.0
 20
0.0
 30
0.0
 70
   128
 71
   364
 72
   112
 73
     9
  0
VERTEX
  5
F69
330
B4D
100
AcDbEntity
  8
0
 62
     7
100
AcDbFaceRecord
 10
0.0
 20
0.0
 30
0.0
 70
   128
 71
   364
 72
   102
 73
   112
  0
VERTEX
  5
F6A
330
B4D
100
AcDbEntity
  8
0
 62
     7
100
AcDbFaceRecord
 10
0.0
 20
0.0
 30
0.0
 70
   128
 71
   364
 72
   101
 73
   102
  0
VERTEX
  5
F6B
330
B4D
100
AcDbEntity
  8
0
 62
     7
100
AcDbFaceRecord
 10
0.0
 20
0.0
 30
0.0
 70
   128
 71
   364
 72
    92
 73
   101
  0
VERTEX
  5
F6C
330
B4D
100
AcDbEntity
  8
0
 62
     7
100
AcDbFaceRecord
 10
0.0
 20
0.0
 30
0.0
 70
   128
 71
   364
 72
    11
 73
    92
  0
VERTEX
  5
F6D
330
B4D
100
AcDbEntity
  8
0
 62
     7
100
AcDbFaceRecord
 10
0.0
 20
0.0
 30
0.0
 70
   128
 71
    11
 72
   364
 73
     9
  0
VERTEX
  5
F6E
330
B4D
100
AcDbEntity
  8
0
 62
     7
100
AcDbFaceRecord
 10
0.0
 20
0.0
 30
0.0
 70
   128
 71
   365
 72
   139
 73
    13
  0
VERTEX
  5
F6F
330
B4D
100
AcDbEntity
  8
0
 62
     7
100
AcDbFaceRecord
 10
0.0
 20
0.0
 30
0.0
 70
   128
 71
   365
 72
   119
 73
   139
  0
VERTEX
  5
F70
330
B4D
100
AcDbEntity
  8
0
 62
     7
100
AcDbFaceRecord
 10
0.0
 20
0.0
 30
0.0
 70
   128
 71
   365
 72
   111
 73
   119
  0
VERTEX
  5
F71
330
B4D
100
AcDbEntity
  8
0
 62
     7
100
AcDbFaceRecord
 10
0.0
 20
0.0
 30
0.0
 70
   128
 71
   365
 72
   112
 73
   111
  0
VERTEX
  5
F72
330
B4D
100
AcDbEntity
  8
0
 62
     7
100
AcDbFaceRecord
 10
0.0
 20
0.0
 30
0.0
 70
   128
 71
   365
 72
    15
 73
   112
  0
VERTEX
  5
F73
330
B4D
100
AcDbEntity
  8
0
 62
     7
100
AcDbFaceRecord
 10
0.0
 20
0.0
 30
0.0
 70
   128
 71
    15
 72
   365
 73
    13
  0
VERTEX
  5
F74
330
B4D
100
AcDbEntity
  8
0
 62
     7
100
AcDbFaceRecord
 10
0.0
 20
0.0
 30
0.0
 70
   128
 71
    13
 72
   124
 73
    19
  0
VERTEX
  5
F75
330
B4D
100
AcDbEntity
  8
0
 62
     7
100
AcDbFaceRecord
 10
0.0
 20
0.0
 30
0.0
 70
   128
 71
   366
 72
   157
 73
    23
  0
VERTEX
  5
F76
330
B4D
100
AcDbEntity
  8
0
 62
     7
100
AcDbFaceRecord
 10
0.0
 20
0.0
 30
0.0
 70
   128
 71
   366
 72
   149
 73
   157
  0
VERTEX
  5
F77
330
B4D
100
AcDbEntity
  8
0
 62
     7
100
AcDbFaceRecord
 10
0.0
 20
0.0
 30
0.0
 70
   128
 71
   366
 72
   148
 73
   149
  0
VERTEX
  5
F78
330
B4D
100
AcDbEntity
  8
0
 62
     7
100
AcDbFaceRecord
 10
0.0
 20
0.0
 30
0.0
 70
   128
 71
   366
 72
   123
 73
   148
  0
VERTEX
  5
F79
330
B4D
100
AcDbEntity
  8
0
 62
     7
100
AcDbFaceRecord
 10
0.0
 20
0.0
 30
0.0
 70
   128
 71
   366
 72
    17
 73
   123
  0
VERTEX
  5
F7A
330
B4D
100
AcDbEntity
  8
0
 62
     7
100
AcDbFaceRecord
 10
0.0
 20
0.0
 30
0.0
 70
   128
 71
    17
 72
   366
 73
    23
  0
VERTEX
  5
F7B
330
B4D
100
AcDbEntity
  8
0
 62
     7
100
AcDbFaceRecord
 10
0.0
 20
0.0
 30
0.0
 70
   128
 71
   367
 72
   169
 73
    26
  0
VERTEX
  5
F7C
330
B4D
100
AcDbEntity
  8
0
 62
     7
100
AcDbFaceRecord
 10
0.0
 20
0.0
 30
0.0
 70
   128
 71
   367
 72
   167
 73
   169
  0
VERTEX
  5
F7D
330
B4D
100
AcDbEntity
  8
0
 62
     7
100
AcDbFaceRecord
 10
0.0
 20
0.0
 30
0.0
 70
   128
 71
   367
 72
   155
 73
   167
  0
VERTEX
  5
F7E
330
B4D
100
AcDbEntity
  8
0
 62
     7
100
AcDbFaceRecord
 10
0.0
 20
0.0
 30
0.0
 70
   128
 71
   367
 72
   157
 73
   155
  0
VERTEX
  5
F7F
330
B4D
100
AcDbEntity
  8
0
 62
     7
100
AcDbFaceRecord
 10
0.0
 20
0.0
 30
0.0
 70
   128
 71
   367
 72
    21
 73
   157
  0
VERTEX
  5
F80
330
B4D
100
AcDbEntity
  8
0
 62
     7
100
AcDbFaceRecord
 10
0.0
 20
0.0
 30
0.0
 70
   128
 71
    21
 72
   367
 73
    26
  0
VERTEX
  5
F81
330
B4D
100
AcDbEntity
  8
0
 62
     7
100
AcDbFaceRecord
 10
0.0
 20
0.0
 30
0.0
 70
   128
 71
    26
 72
   168
 73
    27
  0
VERTEX
  5
F82
330
B4D
100
AcDbEntity
  8
0
 62
     7
100
AcDbFaceRecord
 10
0.0
 20
0.0
 30
0.0
 70
   128
 71
   368
 72
   207
 73
    24
  0
VERTEX
  5
F83
330
B4D
100
AcDbEntity
  8
0
 62
     7
100
AcDbFaceRecord
 10
0.0
 20
0.0
 30
0.0
 70
   128
 71
   368
 72
   199
 73
   207
  0
VERTEX
  5
F84
330
B4D
100
AcDbEntity
  8
0
 62
     7
100
AcDbFaceRecord
 10
0.0
 20
0.0
 30
0.0
 70
   128
 71
   368
 72
   198
 73
   199
  0
VERTEX
  5
F85
330
B4D
100
AcDbEntity
  8
0
 62
     7
100
AcDbFaceRecord
 10
0.0
 20
0.0
 30
0.0
 70
   128
 71
   368
 72
   181
 73
   198
  0
VERTEX
  5
F86
330
B4D
100
AcDbEntity
  8
0
 62
     7
100
AcDbFaceRecord
 10
0.0
 20
0.0
 30
0.0
 70
   128
 71
   368
 72
    25
 73
   181
  0
VERTEX
  5
F87
330
B4D
100
AcDbEntity
  8
0
 62
     7
100
AcDbFaceRecord
 10
0.0
 20
0.0
 30
0.0
 70
   128
 71
    25
 72
   368
 73
    24
  0
VERTEX
  5
F88
330
B4D
100
AcDbEntity
  8
0
 62
     7
100
AcDbFaceRecord
 10
0.0
 20
0.0
 30
0.0
 70
   128
 71
   369
 72
   219
 73
    20
  0
VERTEX
  5
F89
330
B4D
100
AcDbEntity
  8
0
 62
     7
100
AcDbFaceRecord
 10
0.0
 20
0.0
 30
0.0
 70
   128
 71
   369
 72
   217
 73
   219
  0
VERTEX
  5
F8A
330
B4D
100
AcDbEntity
  8
0
 62
     7
100
AcDbFaceRecord
 10
0.0
 20
0.0
 30
0.0
 70
   128
 71
   369
 72
   205
 73
   217
  0
VERTEX
  5
F8B
330
B4D
100
AcDbEntity
  8
0
 62
     7
100
AcDbFaceRecord
 10
0.0
 20
0.0
 30
0.0
 70
   128
 71
   369
 72
   207
 73
   205
  0
VERTEX
  5
F8C
330
B4D
100
AcDbEntity
  8
0
 62
     7
100
AcDbFaceRecord
 10
0.0
 20
0.0
 30
0.0
 70
   128
 71
   369
 72
    22
 73
   207
  0
VERTEX
  5
F8D
330
B4D
100
AcDbEntity
  8
0
 62
     7
100
AcDbFaceRecord
 10
0.0
 20
0.0
 30
0.0
 70
   128
 71
    22
 72
   369
 73
    20
  0
VERTEX
  5
F8E
330
B4D
100
AcDbEntity
  8
0
 62
     7
100
AcDbFaceRecord
 10
0.0
 20
0.0
 30
0.0
 70
   128
 71
    20
 72
   218
 73
    18
  0
VERTEX
  5
F8F
330
B4D
100
AcDbEntity
  8
0
 62
     7
100
AcDbFaceRecord
 10
0.0
 20
0.0
 30
0.0
 70
   128
 71
   370
 72
   257
 73
    14
  0
VERTEX
  5
F90
330
B4D
100
AcDbEntity
  8
0
 62
     7
100
AcDbFaceRecord
 10
0.0
 20
0.0
 30
0.0
 70
   128
 71
   370
 72
   249
 73
   257
  0
VERTEX
  5
F91
330
B4D
100
AcDbEntity
  8
0
 62
     7
100
AcDbFaceRecord
 10
0.0
 20
0.0
 30
0.0
 70
   128
 71
   370
 72
   248
 73
   249
  0
VERTEX
  5
F92
330
B4D
100
AcDbEntity
  8
0
 62
     7
100
AcDbFaceRecord
 10
0.0
 20
0.0
 30
0.0
 70
   128
 71
   370
 72
   231
 73
   248
  0
VERTEX
  5
F93
330
B4D
100
AcDbEntity
  8
0
 62
     7
100
AcDbFaceRecord
 10
0.0
 20
0.0
 30
0.0
 70
   128
 71
   370
 72
    16
 73
   231
  0
VERTEX
  5
F94
330
B4D
100
AcDbEntity
  8
0
 62
     7
100
AcDbFaceRecord
 10
0.0
 20
0.0
 30
0.0
 70
   128
 71
    16
 72
   370
 73
    14
  0
VERTEX
  5
F95
330
B4D
100
AcDbEntity
  8
0
 62
     7
100
AcDbFaceRecord
 10
0.0
 20
0.0
 30
0.0
 70
   128
 71
   371
 72
   269
 73
    10
  0
VERTEX
  5
F96
330
B4D
100
AcDbEntity
  8
0
 62
     7
100
AcDbFaceRecord
 10
0.0
 20
0.0
 30
0.0
 70
   128
 71
   371
 72
   267
 73
   269
  0
VERTEX
  5
F97
330
B4D
100
AcDbEntity
  8
0
 62
     7
100
AcDbFaceRecord
 10
0.0
 20
0.0
 30
0.0
 70
   128
 71
   371
 72
   255
 73
   267
  0
VERTEX
  5
F98
330
B4D
100
AcDbEntity
  8
0
 62
     7
100
AcDbFaceRecord
 10
0.0
 20
0.0
 30
0.0
 70
   128
 71
   371
 72
   257
 73
   255
  0
VERTEX
  5
F99
330
B4D
100
AcDbEntity
  8
0
 62
     7
100
AcDbFaceRecord
 10
0.0
 20
0.0
 30
0.0
 70
   128
 71
   371
 72
    12
 73
   257
  0
VERTEX
  5
F9A
330
B4D
100
AcDbEntity
  8
0
 62
     7
100
AcDbFaceRecord
 10
0.0
 20
0.0
 30
0.0
 70
   128
 71
    12
 72
   371
 73
    10
  0
VERTEX
  5
F9B
330
B4D
100
AcDbEntity
  8
0
 62
     7
100
AcDbFaceRecord
 10
0.0
 20
0.0
 30
0.0
 70
   128
 71
    10
 72
   268
 73
     8
  0
VERTEX
  5
F9C
330
B4D
100
AcDbEntity
  8
0
 62
     7
100
AcDbFaceRecord
 10
0.0
 20
0.0
 30
0.0
 70
   128
 71
   372
 72
   307
 73
     4
  0
VERTEX
  5
F9D
330
B4D
100
AcDbEntity
  8
0
 62
     7
100
AcDbFaceRecord
 10
0.0
 20
0.0
 30
0.0
 70
   128
 71
   372
 72
   299
 73
   307
  0
VERTEX
  5
F9E
330
B4D
100
AcDbEntity
  8
0
 62
     7
100
AcDbFaceRecord
 10
0.0
 20
0.0
 30
0.0
 70
   128
 71
   372
 72
   298
 73
   299
  0
VERTEX
  5
F9F
330
B4D
100
AcDbEntity
  8
0
 62
     7
100
AcDbFaceRecord
 10
0.0
 20
0.0
 30
0.0
 70
   128
 71
   372
 72
   281
 73
   298
  0
VERTEX
  5
FA0
330
B4D
100
AcDbEntity
  8
0
 62
     7
100
AcDbFaceRecord
 10
0.0
 20
0.0
 30
0.0
 70
   128
 71
   372
 72
     6
 73
   281
  0
VERTEX
  5
FA1
330
B4D
100
AcDbEntity
  8
0
 62
     7
100
AcDbFaceRecord
 10
0.0
 20
0.0
 30
0.0
 70
   128
 71
     6
 72
   372
 73
     4
  0
VERTEX
  5
FA2
330
B4D
100
AcDbEntity
  8
0
 62
     7
100
AcDbFaceRecord
 10
0.0
 20
0.0
 30
0.0
 70
   128
 71
   373
 72
   330
 73
    28
  0
VERTEX
  5
FA3
330
B4D
100
AcDbEntity
  8
0
 62
     7
100
AcDbFaceRecord
 10
0.0
 20
0.0
 30
0.0
 70
   128
 71
   373
 72
   309
 73
   330
  0
VERTEX
  5
FA4
330
B4D
100
AcDbEntity
  8
0
 62
     7
100
AcDbFaceRecord
 10
0.0
 20
0.0
 30
0.0
 70
   128
 71
   373
 72
   305
 73
   309
  0
VERTEX
  5
FA5
330
B4D
100
AcDbEntity
  8
0
 62
     7
100
AcDbFaceRecord
 10
0.0
 20
0.0
 30
0.0
 70
   128
 71
   373
 72
   307
 73
   305
  0
VERTEX
  5
FA6
330
B4D
100
AcDbEntity
  8
0
 62
     7
100
AcDbFaceRecord
 10
0.0
 20
0.0
 30
0.0
 70
   128
 71
   373
 72
     2
 73
   307
  0
VERTEX
  5
FA7
330
B4D
100
AcDbEntity
  8
0
 62
     7
100
AcDbFaceRecord
 10
0.0
 20
0.0
 30
0.0
 70
   128
 71
     2
 72
   373
 73
    28
  0
VERTEX
  5
FA8
330
B4D
100
AcDbEntity
  8
0
 62
     7
100
AcDbFaceRecord
 10
0.0
 20
0.0
 30
0.0
 70
   128
 71
    28
 72
   331
 73
    29
  0
SEQEND
  5
FA9
330
B4D
100
AcDbEntity
  8
0
 62
     7
  0
INSERT
  5
FAA
330
1F
100
AcDbEntity
  8
0
100
AcDbBlockReference
 66
     1
  2
RM_SDB
 10
-6.803040494363683
 20
0.0
 30
-0.0000000008281642
1001
AVE_MATERIAL
1002
{
1000
*GLOBAL*01
1000
2
1000

1002
{
1002
}
1002
{
1070
    39
1002
{
1002
{
1010
1.428571462631224
1020
1.428571462631224
1030
1.428571462631224
1002
}
1040
0.6999999880790711
1000

1040
0.0
1002
{
1002
}
1040
0.0
1002
{
1002
}
1040
0.0
1002
}
1002
{
1002
{
1010
1.0
1020
1.0
1030
1.0
1002
}
1040
1.0
1000

1040
0.0
1002
{
1002
}
1040
0.0
1002
{
1002
}
1040
0.0
1002
}
1002
{
1002
{
1010
5.0
1020
5.0
1030
5.0
1002
}
1040
0.2000000029802322
1000

1040
0.0
1002
{
1002
}
1040
0.0
1002
{
1002
}
1040
0.0
1002
}
1002
{
1070
     0
1002
{
1070
     1
1002
{
1040
1.0
1040
1.0
1000

1040
0.0
1002
{
1002
}
1040
0.0
1002
{
1002
}
1040
0.0
1002
}
1002
}
1040
0.0
1040
0.0
1040
0.0
1002
}
1002
{
1040
0.0
1040
0.0
1000

1040
0.0
1002
{
1002
}
1040
0.0
1002
{
1002
}
1040
0.0
1002
}
1002
{
1040
0.5
1040
1.0
1000

1040
0.0
1002
{
1002
}
1040
0.0
1002
{
1002
}
1040
0.0
1002
}
1002
{
1070
     0
1040
0.0
1002
{
1002
}
1040
0.0
1002
{
1002
}
1040
0.0
1002
}
1002
{
1040
0.0
1002
{
1002
{
1010
0.0
1020
0.0
1030
0.0
1002
}
1040
0.0
1000

1040
0.0
1002
{
1002
}
1040
0.0
1002
{
1002
}
1040
0.0
1002
}
1002
}
1002
{
1002
{
1070
     1
1002
{
1040
0.0
1040
1.0
1000

1040
0.0
1002
{
1002
}
1040
0.0
1002
{
1002
}
1040
0.0
1002
}
1002
}
1040
0.0
1002
{
1002
}
1010
0.0
1020
0.0
1030
0.0
1010
0.0
1020
0.0
1030
0.0
1010
0.0
1020
0.0
1030
0.0
1070
     0
1002
}
1002
{
1002
{
1040
0.0
1040
0.0
1002
{
1070
     0
1002
}
1002
}
1070
     0
1040
0.0
1002
{
1002
}
1002
}
1002
{
1002
}
1002
}
1002
{
1071
        3
1070
     3
1070
     0
1002
{
1070
     2
1070
     1
1070
     0
1040
0.0
1002
}
1070
     0
1070
     2
1002
{
1002
}
1002
}
1002
{
1040
8030.0
1040
190.3000030517578
1040
0.3050000071525574
1040
228.0
1040
545.0
1040
14.0
1040
17.39999961853027
1040
0.4560000002384186
1002
}
1000
6AE
1002
}
  0
ATTRIB
  5
FAB
330
FAA
100
AcDbEntity
  8
0
100
AcDbText
 10
-6.803040494363683
 20
0.0
 30
-0.0000000008281642
 40
0.2
  1
*GLOBAL*01
100
AcDbAttribute
  2
NAME
 70
     1
  0
ATTRIB
  5
FAC
330
FAA
100
AcDbEntity
  8
0
100
AcDbText
 10
-6.803040494363683
 20
0.0
 30
-0.0000000008281642
 40
0.2
  1

100
AcDbAttribute
  2
ACADCOLOR
 70
     1
  0
ATTRIB
  5
FAD
330
FAA
100
AcDbEntity
  8
0
100
AcDbText
 10
-6.803040494363683
 20
0.0
 30
-0.0000000008281642
 40
0.2
  1
1.0000,1.0000,1.0000
100
AcDbAttribute
  2
COLOR
 70
     1
  0
ATTRIB
  5
FAE
330
FAA
100
AcDbEntity
  8
0
100
AcDbText
 10
-6.803040494363683
 20
0.0
 30
-0.0000000008281642
 40
0.2
  1
1.0,1.0,1.0
100
AcDbAttribute
  2
OPACITY
 70
     1
  0
ATTRIB
  5
FAF
330
FAA
100
AcDbEntity
  8
0
100
AcDbText
 10
-6.803040494363683
 20
0.0
 30
-0.0000000008281642
 40
0.2
  1
("nullsurf" "")
100
AcDbAttribute
  2
SURFACE
 70
     1
  0
ATTRIB
  5
FB0
330
FAA
100
AcDbEntity
  8
0
100
AcDbText
 10
-6.803040494363683
 20
0.0
 30
-0.0000000008281642
 40
0.2
  1
(11 "Ka" "0.7")(11 "Kd" "1")(11 "Ks" "0.2")(11 "roughness" "0.5")
100
AcDbAttribute
  2
SURF1
 70
     1
  0
ATTRIB
  5
FB1
330
FAA
100
AcDbEntity
  8
0
100
AcDbText
 10
-6.803040494363683
 20
0.0
 30
-0.0000000008281642
 40
0.2
  1

100
AcDbAttribute
  2
SURF2
 70
     1
  0
ATTRIB
  5
FB2
330
FAA
100
AcDbEntity
  8
0
100
AcDbText
 10
-6.803040494363683
 20
0.0
 30
-0.0000000008281642
 40
0.2
  1

100
AcDbAttribute
  2
SURF3
 70
     1
  0
ATTRIB
  5
FB3
330
FAA
100
AcDbEntity
  8
0
100
AcDbText
 10
-6.803040494363683
 20
0.0
 30
-0.0000000008281642
 40
0.2
  1

100
AcDbAttribute
  2
SURF4
 70
     1
  0
ATTRIB
  5
FB4
330
FAA
100
AcDbEntity
  8
0
100
AcDbText
 10
-6.803040494363683
 20
0.0
 30
-0.0000000008281642
 40
0.2
  1
-1.0
100
AcDbAttribute
  2
SHADINGRATE
 70
     1
  0
ATTRIB
  5
FB5
330
FAA
100
AcDbEntity
  8
0
100
AcDbText
 10
-6.803040494363683
 20
0.0
 30
-0.0000000008281642
 40
0.2
  1
("nulldisp" "")
100
AcDbAttribute
  2
DISPLACEMENT
 70
     1
  0
ATTRIB
  5
FB6
330
FAA
100
AcDbEntity
  8
0
100
AcDbText
 10
-6.803040494363683
 20
0.0
 30
-0.0000000008281642
 40
0.2
  1

100
AcDbAttribute
  2
DISP1
 70
     1
  0
ATTRIB
  5
FB7
330
FAA
100
AcDbEntity
  8
0
100
AcDbText
 10
-6.803040494363683
 20
0.0
 30
-0.0000000008281642
 40
0.2
  1

100
AcDbAttribute
  2
DISP2
 70
     1
  0
ATTRIB
  5
FB8
330
FAA
100
AcDbEntity
  8
0
100
AcDbText
 10
-6.803040494363683
 20
0.0
 30
-0.0000000008281642
 40
0.2
  1

100
AcDbAttribute
  2
DISP3
 70
     1
  0
ATTRIB
  5
FB9
330
FAA
100
AcDbEntity
  8
0
100
AcDbText
 10
-6.803040494363683
 20
0.0
 30
-0.0000000008281642
 40
0.2
  1

100
AcDbAttribute
  2
DISP4
 70
     1
  0
ATTRIB
  5
FBA
330
FAA
100
AcDbEntity
  8
0
100
AcDbText
 10
-6.803040494363683
 20
0.0
 30
-0.0000000008281642
 40
0.2
  1
0.0
100
AcDbAttribute
  2
DBOUND
 70
     1
  0
ATTRIB
  5
FBB
330
FAA
100
AcDbEntity
  8
0
100
AcDbText
 10
-6.803040494363683
 20
0.0
 30
-0.0000000008281642
 40
0.2
  1
0
100
AcDbAttribute
  2
SMOOTH
 70
     1
  0
ATTRIB
  5
FBC
330
FAA
100
AcDbEntity
  8
0
100
AcDbText
 10
-6.803040494363683
 20
0.0
 30
-0.0000000008281642
 40
0.2
  1
("" "")
100
AcDbAttribute
  2
ATMOSHPERE
 70
     1
  0
ATTRIB
  5
FBD
330
FAA
100
AcDbEntity
  8
0
100
AcDbText
 10
-6.803040494363683
 20
0.0
 30
-0.0000000008281642
 40
0.2
  1

100
AcDbAttribute
  2
ATMO1
 70
     1
  0
ATTRIB
  5
FBE
330
FAA
100
AcDbEntity
  8
0
100
AcDbText
 10
-6.803040494363683
 20
0.0
 30
-0.0000000008281642
 40
0.2
  1

100
AcDbAttribute
  2
ATMO2
 70
     1
  0
ATTRIB
  5
FBF
330
FAA
100
AcDbEntity
  8
0
100
AcDbText
 10
-6.803040494363683
 20
0.0
 30
-0.0000000008281642
 40
0.2
  1

100
AcDbAttribute
  2
ATMO3
 70
     1
  0
ATTRIB
  5
FC0
330
FAA
100
AcDbEntity
  8
0
100
AcDbText
 10
-6.803040494363683
 20
0.0
 30
-0.0000000008281642
 40
0.2
  1

100
AcDbAttribute
  2
ATMO4
 70
     1
  0
ATTRIB
  5
FC1
330
FAA
100
AcDbEntity
  8
0
100
AcDbText
 10
-6.803040494363683
 20
0.0
 30
-0.0000000008281642
 40
0.2
  1
0.0 0.0 1.0 0.0 0.0 1.0 1.0 1.0
100
AcDbAttribute
  2
TCCORD
 70
     1
  0
SEQEND
  5
FC2
330
FAA
100
AcDbEntity
  8
0
  0
ENDSEC
  0
SECTION
  2
OBJECTS
  0
DICTIONARY
  5
C
330
0
100
AcDbDictionary
281
     1
  3
ACAD_COLOR
350
C8
  3
ACAD_GROUP
350
D
  3
ACAD_LAYOUT
350
1A
  3
ACAD_MATERIAL
350
C7
  3
ACAD_MLEADERSTYLE
350
1F9
  3
ACAD_MLINESTYLE
350
17
  3
ACAD_PLOTSETTINGS
350
19
  3
ACAD_PLOTSTYLENAME
350
E
  3
ACAD_SCALELIST
350
1D7
  3
ACAD_TABLESTYLE
350
C9
  3
ACAD_VISUALSTYLE
350
1C6
  3
ACDB_RECOMPOSE_DATA
350
6C2
  3
AcDbVariableDictionary
350
C3
  3
ASE_INDEX_DICTIONARY
350
197
  3
AVE_ACITABLE
350
209
  3
DWGPROPS
350
FC4
  0
DICTIONARY
  5
6B6
330
10
100
AcDbDictionary
280
     1
281
     1
  3
ADSK_XREC_LAYER_RECONCILED
360
6B7
  0
DICTIONARY
  5
6B8
330
AB
100
AcDbDictionary
280
     1
281
     1
  3
ADSK_XREC_LAYER_RECONCILED
360
6B9
  0
DICTIONARY
  5
6BA
330
204
100
AcDbDictionary
280
     1
281
     1
  3
ADSK_XREC_LAYER_RECONCILED
360
6BB
  0
DICTIONARY
  5
C8
102
{ACAD_REACTORS
330
C
102
}
330
C
100
AcDbDictionary
281
     1
  0
DICTIONARY
  5
D
102
{ACAD_REACTORS
330
C
102
}
330
C
100
AcDbDictionary
281
     1
  0
DICTIONARY
  5
1A
102
{ACAD_REACTORS
330
C
102
}
330
C
100
AcDbDictionary
281
     1
  3
Layout1
350
1E
  3
Layout2
350
26
  3
Model
350
22
  0
DICTIONARY
  5
C7
102
{ACAD_REACTORS
330
C
102
}
330
C
100
AcDbDictionary
281
     1
  3
_GLOBAL_01
350
6AE
  3
ByBlock
350
1B6
  3
ByLayer
350
1AE
  3
Global
350
1BE
  0
DICTIONARY
  5
1F9
102
{ACAD_REACTORS
330
C
102
}
330
C
100
AcDbDictionary
281
     1
  3
Standard
350
1FA
  0
DICTIONARY
  5
17
102
{ACAD_REACTORS
330
C
102
}
330
C
100
AcDbDictionary
281
     1
  3
Standard
350
18
  0
DICTIONARY
  5
19
102
{ACAD_REACTORS
330
C
102
}
330
C
100
AcDbDictionary
281
     1
  0
ACDBDICTIONARYWDFLT
  5
E
102
{ACAD_REACTORS
330
C
102
}
330
C
100
AcDbDictionary
281
     1
  3
Normal
350
F
100
AcDbDictionaryWithDefault
340
F
  0
DICTIONARY
  5
1D7
102
{ACAD_REACTORS
330
C
102
}
330
C
100
AcDbDictionary
281
     1
  3
A0
350
1D8
  3
A1
350
1D9
  3
A2
350
1DA
  3
A3
350
1DB
  3
A4
350
1DC
  3
A5
350
1DD
  3
A6
350
1DE
  3
A7
350
1DF
  3
A8
350
1E0
  3
A9
350
1E1
  3
B0
350
1E2
  3
B1
350
1E3
  3
B2
350
1E4
  3
B3
350
1E5
  3
B4
350
1E6
  3
B5
350
1E7
  3
B6
350
1E8
  3
B7
350
1E9
  3
B8
350
1EA
  3
B9
350
1EB
  3
C0
350
1EC
  3
C1
350
1ED
  3
C2
350
1EE
  3
C3
350
1EF
  3
C4
350
1F0
  3
C5
350
1F1
  3
C6
350
1F2
  3
C7
350
1F3
  3
C8
350
1F4
  3
C9
350
1F5
  3
D0
350
1F6
  3
D1
350
1F7
  3
D2
350
1F8
  0
DICTIONARY
  5
C9
102
{ACAD_REACTORS
330
C
102
}
330
C
100
AcDbDictionary
281
     1
  3
Standard
350
CA
  0
DICTIONARY
  5
1C6
102
{ACAD_REACTORS
330
C
102
}
330
C
100
AcDbDictionary
281
     1
  3
2dWireframe
350
1CC
  3
3D Hidden
350
1CE
  3
3dWireframe
350
1CD
  3
Basic
350
1CB
  3
Brighten
350
1D2
  3
ColorChange
350
1D6
  3
Conceptual
350
1CF
  3
Dim
350
1D1
  3
Facepattern
350
1D5
  3
Flat
350
1C7
  3
FlatWithEdges
350
1C8
  3
Gouraud
350
1C9
  3
GouraudWithEdges
350
1CA
  3
Linepattern
350
1D4
  3
Realistic
350
1D0
  3
Thicken
350
1D3
  0
XRECORD
  5
6C2
102
{ACAD_REACTORS
330
C
102
}
330
C
100
AcDbXrecord
280
     1
 90
        1
330
CA
  0
DICTIONARY
  5
C3
102
{ACAD_REACTORS
330
C
102
}
330
C
100
AcDbDictionary
281
     1
  3
CANNOSCALE
350
6BD
  3
CMLEADERSTYLE
350
6BC
  3
CTABLESTYLE
350
F4
  3
DIMASSOC
350
C4
  3
HIDETEXT
350
1A2
  3
INDEXCTL
350
6BF
  3
SORTENTS
350
6BE
  0
DICTIONARY
  5
197
102
{ACAD_REACTORS
330
C
102
}
330
C
100
AcDbDictionary
281
     1
  3
ASEBlockHierarchyIndexRecord
350
199
1001
DCO15
1040
1570547234.747
  0
DICTIONARY
  5
209
102
{ACAD_REACTORS
330
C
102
}
330
C
100
AcDbDictionary
281
     1
  0
XRECORD
  5
FC4
102
{ACAD_REACTORS
330
C
102
}
330
C
100
AcDbXrecord
280
     1
  1
DWGPROPS COOKIE
  2

  3

  4

  6

  7

  8
Christian
  9

300
=
301
=
302
=
303
=
304
=
305
=
306
=
307
=
308
=
309
=
 40
0.0069470949074074
 41
2452804.636453623
 42
2454459.437385648
  1

 90
        0
  0
XRECORD
  5
6B7
102
{ACAD_REACTORS
330
6B6
102
}
330
6B6
100
AcDbXrecord
280
     1
290
     1
  0
XRECORD
  5
6B9
102
{ACAD_REACTORS
330
6B8
102
}
330
6B8
100
AcDbXrecord
280
     1
290
     1
  0
XRECORD
  5
6BB
102
{ACAD_REACTORS
330
6BA
102
}
330
6BA
100
AcDbXrecord
280
     1
290
     1
  0
LAYOUT
  5
1E
102
{ACAD_XDICTIONARY
360
FC5
102
}
102
{ACAD_REACTORS
330
1A
102
}
330
1A
100
AcDbPlotSettings
  1

  2

  4

  6

 40
0.0
 41
0.0
 42
0.0
 43
0.0
 44
0.0
 45
0.0
 46
0.0
 47
0.0
 48
0.0
 49
0.0
140
0.0
141
0.0
142
1.0
143
1.0
 70
   688
 72
     0
 73
     0
 74
     5
  7

 75
    16
147
1.0
148
0.0
149
0.0
100
AcDbLayout
  1
Layout1
 70
     1
 71
     1
 10
0.0
 20
0.0
 11
12.0
 21
9.0
 12
0.0
 22
0.0
 32
0.0
 14
1.000000000000000E+20
 24
1.000000000000000E+20
 34
1.000000000000000E+20
 15
-1.000000000000000E+20
 25
-1.000000000000000E+20
 35
-1.000000000000000E+20
146
0.0
 13
0.0
 23
0.0
 33
0.0
 16
1.0
 26
0.0
 36
0.0
 17
0.0
 27
1.0
 37
0.0
 76
     0
330
1B
  0
LAYOUT
  5
26
102
{ACAD_XDICTIONARY
360
FC9
102
}
102
{ACAD_REACTORS
330
1A
102
}
330
1A
100
AcDbPlotSettings
  1

  2

  4

  6

 40
0.0
 41
0.0
 42
0.0
 43
0.0
 44
0.0
 45
0.0
 46
0.0
 47
0.0
 48
0.0
 49
0.0
140
0.0
141
0.0
142
1.0
143
1.0
 70
   688
 72
     0
 73
     0
 74
     5
  7

 75
    16
147
1.0
148
0.0
149
0.0
100
AcDbLayout
  1
Layout2
 70
     1
 71
     2
 10
0.0
 20
0.0
 11
12.0
 21
9.0
 12
0.0
 22
0.0
 32
0.0
 14
0.0
 24
0.0
 34
0.0
 15
0.0
 25
0.0
 35
0.0
146
0.0
 13
0.0
 23
0.0
 33
0.0
 16
1.0
 26
0.0
 36
0.0
 17
0.0
 27
1.0
 37
0.0
 76
     0
330
23
  0
LAYOUT
  5
22
102
{ACAD_XDICTIONARY
360
FC7
102
}
102
{ACAD_REACTORS
330
1A
102
}
330
1A
100
AcDbPlotSettings
  1

  2
none_device
  4
Letter_(8.50_x_11.00_Inches)
  6

 40
6.349999904632567
 41
6.349999904632567
 42
6.350006103515625
 43
6.350006103515625
 44
215.8999938964844
 45
279.3999938964844
 46
0.0
 47
0.0
 48
0.0
 49
0.0
140
0.0
141
0.0
142
1.0
143
2.226775158968398
 70
 11952
 72
     0
 73
     1
 74
     0
  7

 75
     0
147
0.4490799153980463
148
113.8230585544796
149
74.60542579477759
100
AcDbLayout
  1
Model
 70
     1
 71
     0
 10
0.0
 20
0.0
 11
12.0
 21
9.0
 12
0.0
 22
0.0
 32
0.0
 14
0.0
 24
0.0
 34
0.0
 15
0.0
 25
0.0
 35
0.0
146
0.0
 13
0.0
 23
0.0
 33
0.0
 16
1.0
 26
0.0
 36
0.0
 17
0.0
 27
1.0
 37
0.0
 76
     0
330
1F
331
19F
1001
ACAD_PSEXT
1000
None
1000
None
1000
Not applicable
1000
The layout will not be plotted unless a new plotter configuration name is selected.
1070
     0
  0
MATERIAL
  5
6AE
102
{ACAD_XDICTIONARY
360
6AF
102
}
102
{ACAD_REACTORS
330
C7
102
}
330
C7
100
AcDbMaterial
  1
_GLOBAL_01
 70
     1
 40
0.6999999880790711
 90
-1033081748
 71
     1
 91
-1023410177
 72
     0
 76
     1
 45
0.2000000029802322
 92
-1023673349
 77
     0
171
     0
175
     0
179
     0
  0
MATERIAL
  5
1B6
102
{ACAD_XDICTIONARY
360
1B7
102
}
102
{ACAD_REACTORS
330
C7
102
}
330
C7
100
AcDbMaterial
  1
ByBlock
 72
     0
 43
0.0208333333333333
 43
0.0
 43
0.0
 43
0.0
 43
0.0
 43
0.0208333333333333
 43
0.0
 43
0.0
 43
0.0
 43
0.0
 43
1.0
 43
0.0
 43
0.0
 43
0.0
 43
0.0
 43
1.0
 77
     0
 47
0.0208333333333333
 47
0.0
 47
0.0
 47
0.0
 47
0.0
 47
0.0208333333333333
 47
0.0
 47
0.0
 47
0.0
 47
0.0
 47
1.0
 47
0.0
 47
0.0
 47
0.0
 47
0.0
 47
1.0
171
     0
 49
0.0208333333333333
 49
0.0
 49
0.0
 49
0.0
 49
0.0
 49
0.0208333333333333
 49
0.0
 49
0.0
 49
0.0
 49
0.0
 49
1.0
 49
0.0
 49
0.0
 49
0.0
 49
0.0
 49
1.0
175
     0
142
0.0208333333333333
142
0.0
142
0.0
142
0.0
142
0.0
142
0.0208333333333333
142
0.0
142
0.0
142
0.0
142
0.0
142
1.0
142
0.0
142
0.0
142
0.0
142
0.0
142
1.0
179
     0
144
0.0208333333333333
144
0.0
144
0.0
144
0.0
144
0.0
144
0.0208333333333333
144
0.0
144
0.0
144
0.0
144
0.0
144
1.0
144
0.0
144
0.0
144
0.0
144
0.0
144
1.0
147
0.0208333333333333
147
0.0
147
0.0
147
0.0
147
0.0
147
0.0208333333333333
147
0.0
147
0.0
147
0.0
147
0.0
147
1.0
147
0.0
147
0.0
147
0.0
147
0.0
147
1.0
  0
MATERIAL
  5
1AE
102
{ACAD_XDICTIONARY
360
1AF
102
}
102
{ACAD_REACTORS
330
C7
102
}
330
C7
100
AcDbMaterial
  1
ByLayer
 72
     0
 43
0.0208333333333333
 43
0.0
 43
0.0
 43
0.0
 43
0.0
 43
0.0208333333333333
 43
0.0
 43
0.0
 43
0.0
 43
0.0
 43
1.0
 43
0.0
 43
0.0
 43
0.0
 43
0.0
 43
1.0
 77
     0
 47
0.0208333333333333
 47
0.0
 47
0.0
 47
0.0
 47
0.0
 47
0.0208333333333333
 47
0.0
 47
0.0
 47
0.0
 47
0.0
 47
1.0
 47
0.0
 47
0.0
 47
0.0
 47
0.0
 47
1.0
171
     0
 49
0.0208333333333333
 49
0.0
 49
0.0
 49
0.0
 49
0.0
 49
0.0208333333333333
 49
0.0
 49
0.0
 49
0.0
 49
0.0
 49
1.0
 49
0.0
 49
0.0
 49
0.0
 49
0.0
 49
1.0
175
     0
142
0.0208333333333333
142
0.0
142
0.0
142
0.0
142
0.0
142
0.0208333333333333
142
0.0
142
0.0
142
0.0
142
0.0
142
1.0
142
0.0
142
0.0
142
0.0
142
0.0
142
1.0
179
     0
144
0.0208333333333333
144
0.0
144
0.0
144
0.0
144
0.0
144
0.0208333333333333
144
0.0
144
0.0
144
0.0
144
0.0
144
1.0
144
0.0
144
0.0
144
0.0
144
0.0
144
1.0
147
0.0208333333333333
147
0.0
147
0.0
147
0.0
147
0.0
147
0.0208333333333333
147
0.0
147
0.0
147
0.0
147
0.0
147
1.0
147
0.0
147
0.0
147
0.0
147
0.0
147
1.0
  0
MATERIAL
  5
1BE
102
{ACAD_XDICTIONARY
360
1BF
102
}
102
{ACAD_REACTORS
330
C7
102
}
330
C7
100
AcDbMaterial
  1
Global
 72
     0
 43
0.0208333333333333
 43
0.0
 43
0.0
 43
0.0
 43
0.0
 43
0.0208333333333333
 43
0.0
 43
0.0
 43
0.0
 43
0.0
 43
1.0
 43
0.0
 43
0.0
 43
0.0
 43
0.0
 43
1.0
 77
     0
 47
0.0208333333333333
 47
0.0
 47
0.0
 47
0.0
 47
0.0
 47
0.0208333333333333
 47
0.0
 47
0.0
 47
0.0
 47
0.0
 47
1.0
 47
0.0
 47
0.0
 47
0.0
 47
0.0
 47
1.0
171
     0
 49
0.0208333333333333
 49
0.0
 49
0.0
 49
0.0
 49
0.0
 49
0.0208333333333333
 49
0.0
 49
0.0
 49
0.0
 49
0.0
 49
1.0
 49
0.0
 49
0.0
 49
0.0
 49
0.0
 49
1.0
175
     0
142
0.0208333333333333
142
0.0
142
0.0
142
0.0
142
0.0
142
0.0208333333333333
142
0.0
142
0.0
142
0.0
142
0.0
142
1.0
142
0.0
142
0.0
142
0.0
142
0.0
142
1.0
179
     0
144
0.0208333333333333
144
0.0
144
0.0
144
0.0
144
0.0
144
0.0208333333333333
144
0.0
144
0.0
144
0.0
144
0.0
144
1.0
144
0.0
144
0.0
144
0.0
144
0.0
144
1.0
147
0.0208333333333333
147
0.0
147
0.0
147
0.0
147
0.0
147
0.0208333333333333
147
0.0
147
0.0
147
0.0
147
0.0
147
1.0
147
0.0
147
0.0
147
0.0
147
0.0
147
1.0
  0
MLEADERSTYLE
  5
1FA
102
{ACAD_REACTORS
330
1F9
102
}
330
1F9
100
AcDbMLeaderStyle
170
     2
171
     1
172
     0
 90
        2
 40
0.0
 41
0.0
173
     1
 91
-1056964608
340
14
 92
       -2
290
     1
 42
0.09
291
     1
 43
0.36
  3
Standard
 44
0.18
300

342
11
174
     1
178
     6
175
     1
176
     0
 93
-1056964608
 45
0.18
292
     0
297
     0
 46
0.18
 94
-1056964608
 47
1.0
 49
1.0
140
1.0
293
     1
141
0.0
294
     1
177
     0
142
1.0
295
     0
296
     0
143
0.125
1001
ACAD_MLEADERVER
1070
     2
  0
MLINESTYLE
  5
18
102
{ACAD_REACTORS
330
17
102
}
330
17
100
AcDbMlineStyle
  2
STANDARD
 70
     0
  3

 62
   256
 51
90.0
 52
90.0
 71
     2
 49
0.5
 62
   256
  6
BYLAYER
 49
-0.5
 62
   256
  6
BYLAYER
  0
ACDBPLACEHOLDER
  5
F
102
{ACAD_REACTORS
330
E
102
}
330
E
  0
SCALE
  5
1D8
102
{ACAD_REACTORS
330
1D7
102
}
330
1D7
100
AcDbScale
 70
     0
300
1:1
140
1.0
141
1.0
290
     1
  0
SCALE
  5
1D9
102
{ACAD_REACTORS
330
1D7
102
}
330
1D7
100
AcDbScale
 70
     0
300
1:2
140
1.0
141
2.0
290
     0
  0
SCALE
  5
1DA
102
{ACAD_REACTORS
330
1D7
102
}
330
1D7
100
AcDbScale
 70
     0
300
1:4
140
1.0
141
4.0
290
     0
  0
SCALE
  5
1DB
102
{ACAD_REACTORS
330
1D7
102
}
330
1D7
100
AcDbScale
 70
     0
300
1:5
140
1.0
141
5.0
290
     0
  0
SCALE
  5
1DC
102
{ACAD_REACTORS
330
1D7
102
}
330
1D7
100
AcDbScale
 70
     0
300
1:8
140
1.0
141
8.0
290
     0
  0
SCALE
  5
1DD
102
{ACAD_REACTORS
330
1D7
102
}
330
1D7
100
AcDbScale
 70
     0
300
1:10
140
1.0
141
10.0
290
     0
  0
SCALE
  5
1DE
102
{ACAD_REACTORS
330
1D7
102
}
330
1D7
100
AcDbScale
 70
     0
300
1:16
140
1.0
141
16.0
290
     0
  0
SCALE
  5
1DF
102
{ACAD_REACTORS
330
1D7
102
}
330
1D7
100
AcDbScale
 70
     0
300
1:20
140
1.0
141
20.0
290
     0
  0
SCALE
  5
1E0
102
{ACAD_REACTORS
330
1D7
102
}
330
1D7
100
AcDbScale
 70
     0
300
1:30
140
1.0
141
30.0
290
     0
  0
SCALE
  5
1E1
102
{ACAD_REACTORS
330
1D7
102
}
330
1D7
100
AcDbScale
 70
     0
300
1:40
140
1.0
141
40.0
290
     0
  0
SCALE
  5
1E2
102
{ACAD_REACTORS
330
1D7
102
}
330
1D7
100
AcDbScale
 70
     0
300
1:50
140
1.0
141
50.0
290
     0
  0
SCALE
  5
1E3
102
{ACAD_REACTORS
330
1D7
102
}
330
1D7
100
AcDbScale
 70
     0
300
1:100
140
1.0
141
100.0
290
     0
  0
SCALE
  5
1E4
102
{ACAD_REACTORS
330
1D7
102
}
330
1D7
100
AcDbScale
 70
     0
300
2:1
140
2.0
141
1.0
290
     0
  0
SCALE
  5
1E5
102
{ACAD_REACTORS
330
1D7
102
}
330
1D7
100
AcDbScale
 70
     0
300
4:1
140
4.0
141
1.0
290
     0
  0
SCALE
  5
1E6
102
{ACAD_REACTORS
330
1D7
102
}
330
1D7
100
AcDbScale
 70
     0
300
8:1
140
8.0
141
1.0
290
     0
  0
SCALE
  5
1E7
102
{ACAD_REACTORS
330
1D7
102
}
330
1D7
100
AcDbScale
 70
     0
300
10:1
140
10.0
141
1.0
290
     0
  0
SCALE
  5
1E8
102
{ACAD_REACTORS
330
1D7
102
}
330
1D7
100
AcDbScale
 70
     0
300
100:1
140
100.0
141
1.0
290
     0
  0
SCALE
  5
1E9
102
{ACAD_REACTORS
330
1D7
102
}
330
1D7
100
AcDbScale
 70
     0
300
1/128" = 1'-0"
140
0.0078125
141
12.0
290
     0
  0
SCALE
  5
1EA
102
{ACAD_REACTORS
330
1D7
102
}
330
1D7
100
AcDbScale
 70
     0
300
1/64" = 1'-0"
140
0.015625
141
12.0
290
     0
  0
SCALE
  5
1EB
102
{ACAD_REACTORS
330
1D7
102
}
330
1D7
100
AcDbScale
 70
     0
300
1/32" = 1'-0"
140
0.03125
141
12.0
290
     0
  0
SCALE
  5
1EC
102
{ACAD_REACTORS
330
1D7
102
}
330
1D7
100
AcDbScale
 70
     0
300
1/16" = 1'-0"
140
0.0625
141
12.0
290
     0
  0
SCALE
  5
1ED
102
{ACAD_REACTORS
330
1D7
102
}
330
1D7
100
AcDbScale
 70
     0
300
3/32" = 1'-0"
140
0.09375
141
12.0
290
     0
  0
SCALE
  5
1EE
102
{ACAD_REACTORS
330
1D7
102
}
330
1D7
100
AcDbScale
 70
     0
300
1/8" = 1'-0"
140
0.125
141
12.0
290
     0
  0
SCALE
  5
1EF
102
{ACAD_REACTORS
330
1D7
102
}
330
1D7
100
AcDbScale
 70
     0
300
3/16" = 1'-0"
140
0.1875
141
12.0
290
     0
  0
SCALE
  5
1F0
102
{ACAD_REACTORS
330
1D7
102
}
330
1D7
100
AcDbScale
 70
     0
300
1/4" = 1'-0"
140
0.25
141
12.0
290
     0
  0
SCALE
  5
1F1
102
{ACAD_REACTORS
330
1D7
102
}
330
1D7
100
AcDbScale
 70
     0
300
3/8" = 1'-0"
140
0.375
141
12.0
290
     0
  0
SCALE
  5
1F2
102
{ACAD_REACTORS
330
1D7
102
}
330
1D7
100
AcDbScale
 70
     0
300
1/2" = 1'-0"
140
0.5
141
12.0
290
     0
  0
SCALE
  5
1F3
102
{ACAD_REACTORS
330
1D7
102
}
330
1D7
100
AcDbScale
 70
     0
300
3/4" = 1'-0"
140
0.75
141
12.0
290
     0
  0
SCALE
  5
1F4
102
{ACAD_REACTORS
330
1D7
102
}
330
1D7
100
AcDbScale
 70
     0
300
1" = 1'-0"
140
1.0
141
12.0
290
     0
  0
SCALE
  5
1F5
102
{ACAD_REACTORS
330
1D7
102
}
330
1D7
100
AcDbScale
 70
     0
300
1-1/2" = 1'-0"
140
1.5
141
12.0
290
     0
  0
SCALE
  5
1F6
102
{ACAD_REACTORS
330
1D7
102
}
330
1D7
100
AcDbScale
 70
     0
300
3" = 1'-0"
140
3.0
141
12.0
290
     0
  0
SCALE
  5
1F7
102
{ACAD_REACTORS
330
1D7
102
}
330
1D7
100
AcDbScale
 70
     0
300
6" = 1'-0"
140
6.0
141
12.0
290
     0
  0
SCALE
  5
1F8
102
{ACAD_REACTORS
330
1D7
102
}
330
1D7
100
AcDbScale
 70
     0
300
1'-0" = 1'-0"
140
12.0
141
12.0
290
     0
  0
TABLESTYLE
  5
CA
102
{ACAD_XDICTIONARY
360
6C0
102
}
102
{ACAD_REACTORS
330
C9
102
}
330
C9
100
AcDbTableStyle
  3
Standard
 70
     0
 71
     0
 40
0.06
 41
0.06
280
     0
281
     0
  7
Standard
140
0.18
170
     2
 62
     0
 63
     7
283
     0
274
    -2
284
     1
 64
     0
275
    -2
285
     1
 65
     0
276
    -2
286
     1
 66
     0
277
    -2
287
     1
 67
     0
278
    -2
288
     1
 68
     0
279
    -2
289
     1
 69
     0
  7
Standard
140
0.25
170
     5
 62
     0
 63
     7
283
     0
274
    -2
284
     1
 64
     0
275
    -2
285
     1
 65
     0
276
    -2
286
     1
 66
     0
277
    -2
287
     1
 67
     0
278
    -2
288
     1
 68
     0
279
    -2
289
     1
 69
     0
  7
Standard
140
0.18
170
     5
 62
     0
 63
     7
283
     0
274
    -2
284
     1
 64
     0
275
    -2
285
     1
 65
     0
276
    -2
286
     1
 66
     0
277
    -2
287
     1
 67
     0
278
    -2
288
     1
 68
     0
279
    -2
289
     1
 69
     0
  0
VISUALSTYLE
  5
1CC
102
{ACAD_REACTORS
330
1C6
102
}
330
1C6
100
AcDbVisualStyle
  2
2dWireframe
 70
     4
 71
     0
 72
     2
 73
     0
 90
        0
 40
-0.6
 41
-30.0
 62
     5
 63
     7
 74
     1
 91
        4
 64
     7
 65
   257
 75
     1
175
     1
 42
1.0
 92
        0
 66
   257
 43
1.0
 76
     1
 77
     6
 78
     2
 67
     7
 79
     5
170
     0
171
     0
290
     0
174
     0
 93
        1
 44
0.0
173
     0
291
     0
 45
0.0
1001
ACAD
1000
AcDbSavedByObjectVersion
1070
     0
1000
AcDbSavedByObjectVersion
1070
     0
  0
VISUALSTYLE
  5
1CE
102
{ACAD_REACTORS
330
1C6
102
}
330
1C6
100
AcDbVisualStyle
  2
3D Hidden
 70
     6
 71
     1
 72
     2
 73
     2
 90
        0
 40
-0.6
 41
-30.0
 62
     5
 63
     7
 74
     2
 91
        2
 64
     7
 65
   257
 75
     2
175
     1
 42
40.0
 92
        0
 66
   257
 43
1.0
 76
     1
 77
     6
 78
     2
 67
     7
 79
     3
170
     0
171
     0
290
     0
174
     0
 93
        1
 44
0.0
173
     0
291
     0
 45
0.0
1001
ACAD
1000
AcDbSavedByObjectVersion
1070
     0
1000
AcDbSavedByObjectVersion
1070
     0
  0
VISUALSTYLE
  5
1CD
102
{ACAD_REACTORS
330
1C6
102
}
330
1C6
100
AcDbVisualStyle
  2
3dWireframe
 70
     5
 71
     0
 72
     2
 73
     0
 90
        0
 40
-0.6
 41
-30.0
 62
     5
 63
     7
 74
     1
 91
        4
 64
     7
 65
   257
 75
     1
175
     1
 42
1.0
 92
        0
 66
   257
 43
1.0
 76
     1
 77
     6
 78
     2
 67
     7
 79
     5
170
     0
171
     0
290
     0
174
     0
 93
        1
 44
0.0
173
     0
291
     0
 45
0.0
1001
ACAD
1000
AcDbSavedByObjectVersion
1070
     0
1000
AcDbSavedByObjectVersion
1070
     0
  0
VISUALSTYLE
  5
1CB
102
{ACAD_REACTORS
330
1C6
102
}
330
1C6
100
AcDbVisualStyle
  2
Basic
 70
     7
 71
     1
 72
     0
 73
     1
 90
        0
 40
-0.6
 41
-30.0
 62
     5
 63
     7
 74
     0
 91
        4
 64
     7
 65
   257
 75
     1
175
     1
 42
1.0
 92
        8
 66
     7
 43
1.0
 76
     1
 77
     6
 78
     2
 67
     7
 79
     5
170
     0
171
     0
290
     0
174
     0
 93
        1
 44
0.0
173
     0
291
     1
 45
0.0
1001
ACAD
1000
AcDbSavedByObjectVersion
1070
     0
1000
AcDbSavedByObjectVersion
1070
     0
  0
VISUALSTYLE
  5
1D2
102
{ACAD_REACTORS
330
1C6
102
}
330
1C6
100
AcDbVisualStyle
  2
Brighten
 70
    12
 71
     2
 72
     2
 73
     0
 90
        0
 40
-0.6
 41
-30.0
 62
     5
 63
     7
 74
     1
 91
        4
 64
     7
 65
   257
 75
     1
175
     1
 42
1.0
 92
        8
 66
     7
 43
1.0
 76
     1
 77
     6
 78
     2
 67
     7
 79
     5
170
     0
171
     0
290
     0
174
     0
 93
        1
 44
50.0
173
     0
291
     1
 45
0.0
1001
ACAD
1000
AcDbSavedByObjectVersion
1070
     0
1000
AcDbSavedByObjectVersion
1070
     0
  0
VISUALSTYLE
  5
1D6
102
{ACAD_REACTORS
330
1C6
102
}
330
1C6
100
AcDbVisualStyle
  2
ColorChange
 70
    16
 71
     2
 72
     2
 73
     3
 90
        0
 40
-0.6
 41
-30.0
 62
     5
 63
     8
 74
     1
 91
        4
 64
     7
 65
   257
 75
     1
175
     1
 42
1.0
 92
        8
 66
     8
 43
1.0
 76
     1
 77
     6
 78
     2
 67
     7
 79
     5
170
     0
171
     0
290
     0
174
     0
 93
        1
 44
0.0
173
     0
291
     1
 45
0.0
1001
ACAD
1000
AcDbSavedByObjectVersion
1070
     0
1000
AcDbSavedByObjectVersion
1070
     0
  0
VISUALSTYLE
  5
1CF
102
{ACAD_REACTORS
330
1C6
102
}
330
1C6
100
AcDbVisualStyle
  2
Conceptual
 70
     9
 71
     3
 72
     2
 73
     0
 90
        0
 40
-0.6
 41
-30.0
 62
     5
 63
     7
 74
     2
 91
        2
 64
     7
 65
   257
 75
     1
175
     1
 42
40.0
 92
        8
 66
     7
 43
1.0
 76
     1
 77
     6
 78
     2
 67
     7
 79
     3
170
     0
171
     0
290
     0
174
     0
 93
        1
 44
0.0
173
     0
291
     0
 45
0.0
1001
ACAD
1000
AcDbSavedByObjectVersion
1070
     0
1000
AcDbSavedByObjectVersion
1070
     0
  0
VISUALSTYLE
  5
1D1
102
{ACAD_REACTORS
330
1C6
102
}
330
1C6
100
AcDbVisualStyle
  2
Dim
 70
    11
 71
     2
 72
     2
 73
     0
 90
        0
 40
-0.6
 41
-30.0
 62
     5
 63
     7
 74
     1
 91
        4
 64
     7
 65
   257
 75
     1
175
     1
 42
1.0
 92
        8
 66
     7
 43
1.0
 76
     1
 77
     6
 78
     2
 67
     7
 79
     5
170
     0
171
     0
290
     0
174
     0
 93
        1
 44
-50.0
173
     0
291
     1
 45
0.0
1001
ACAD
1000
AcDbSavedByObjectVersion
1070
     0
1000
AcDbSavedByObjectVersion
1070
     0
  0
VISUALSTYLE
  5
1D5
102
{ACAD_REACTORS
330
1C6
102
}
330
1C6
100
AcDbVisualStyle
  2
Facepattern
 70
    15
 71
     2
 72
     2
 73
     0
 90
        0
 40
-0.6
 41
-30.0
 62
     5
 63
     7
 74
     1
 91
        4
 64
     7
 65
   257
 75
     1
175
     1
 42
1.0
 92
        8
 66
     7
 43
1.0
 76
     1
 77
     6
 78
     2
 67
     7
 79
     5
170
     0
171
     0
290
     0
174
     0
 93
        1
 44
0.0
173
     0
291
     1
 45
0.0
1001
ACAD
1000
AcDbSavedByObjectVersion
1070
     0
1000
AcDbSavedByObjectVersion
1070
     0
  0
VISUALSTYLE
  5
1C7
102
{ACAD_REACTORS
330
1C6
102
}
330
1C6
100
AcDbVisualStyle
  2
Flat
 70
     0
 71
     2
 72
     1
 73
     1
 90
        2
 40
-0.6
 41
30.0
 62
     5
 63
     7
 74
     0
 91
        4
 64
     7
 65
   257
 75
     1
175
     1
 42
1.0
 92
        8
 66
     7
 43
1.0
 76
     1
 77
     6
 78
     2
 67
     7
 79
     5
170
     0
171
     0
290
     0
174
     0
 93
       13
 44
0.0
173
     0
291
     1
 45
0.0
1001
ACAD
1000
AcDbSavedByObjectVersion
1070
     0
1000
AcDbSavedByObjectVersion
1070
     0
  0
VISUALSTYLE
  5
1C8
102
{ACAD_REACTORS
330
1C6
102
}
330
1C6
100
AcDbVisualStyle
  2
FlatWithEdges
 70
     1
 71
     2
 72
     1
 73
     1
 90
        2
 40
-0.6
 41
30.0
 62
     5
 63
     7
 74
     1
 91
        4
 64
     7
 65
   257
 75
     1
175
     1
 42
1.0
 92
        0
 66
   257
 43
1.0
 76
     1
 77
     6
 78
     2
 67
     7
 79
     5
170
     0
171
     0
290
     0
174
     0
 93
       13
 44
0.0
173
     0
291
     1
 45
0.0
1001
ACAD
1000
AcDbSavedByObjectVersion
1070
     0
1000
AcDbSavedByObjectVersion
1070
     0
  0
VISUALSTYLE
  5
1C9
102
{ACAD_REACTORS
330
1C6
102
}
330
1C6
100
AcDbVisualStyle
  2
Gouraud
 70
     2
 71
     2
 72
     2
 73
     1
 90
        2
 40
-0.6
 41
30.0
 62
     5
 63
     7
 74
     0
 91
        4
 64
     7
 65
   257
 75
     1
175
     1
 42
1.0
 92
        0
 66
     7
 43
1.0
 76
     1
 77
     6
 78
     2
 67
     7
 79
     5
170
     0
171
     0
290
     0
174
     0
 93
       13
 44
0.0
173
     0
291
     1
 45
0.0
1001
ACAD
1000
AcDbSavedByObjectVersion
1070
     0
1000
AcDbSavedByObjectVersion
1070
     0
  0
VISUALSTYLE
  5
1CA
102
{ACAD_REACTORS
330
1C6
102
}
330
1C6
100
AcDbVisualStyle
  2
GouraudWithEdges
 70
     3
 71
     2
 72
     2
 73
     1
 90
        2
 40
-0.6
 41
30.0
 62
     5
 63
     7
 74
     1
 91
        4
 64
     7
 65
   257
 75
     1
175
     1
 42
1.0
 92
        0
 66
   257
 43
1.0
 76
     1
 77
     6
 78
     2
 67
     7
 79
     5
170
     0
171
     0
290
     0
174
     0
 93
       13
 44
0.0
173
     0
291
     1
 45
0.0
1001
ACAD
1000
AcDbSavedByObjectVersion
1070
     0
1000
AcDbSavedByObjectVersion
1070
     0
  0
VISUALSTYLE
  5
1D4
102
{ACAD_REACTORS
330
1C6
102
}
330
1C6
100
AcDbVisualStyle
  2
Linepattern
 70
    14
 71
     2
 72
     2
 73
     0
 90
        0
 40
-0.6
 41
-30.0
 62
     5
 63
     7
 74
     1
 91
        4
 64
     7
 65
   257
 75
     7
175
     7
 42
1.0
 92
        8
 66
     7
 43
1.0
 76
     1
 77
     6
 78
     2
 67
     7
 79
     5
170
     0
171
     0
290
     0
174
     0
 93
        1
 44
0.0
173
     0
291
     1
 45
0.0
1001
ACAD
1000
AcDbSavedByObjectVersion
1070
     0
1000
AcDbSavedByObjectVersion
1070
     0
  0
VISUALSTYLE
  5
1D0
102
{ACAD_REACTORS
330
1C6
102
}
330
1C6
100
AcDbVisualStyle
  2
Realistic
 70
     8
 71
     2
 72
     2
 73
     0
 90
        0
 40
-0.6
 41
-30.0
 62
     5
 63
     7
 74
     1
 91
        0
 64
     7
 65
   257
 75
     1
175
     1
 42
1.0
 92
        8
 66
     8
 43
1.0
 76
     1
 77
     6
 78
     2
 67
     7
 79
     5
170
     0
171
     0
290
     0
174
     0
 93
       13
 44
0.0
173
     0
291
     0
 45
0.0
1001
ACAD
1000
AcDbSavedByObjectVersion
1070
     0
1000
AcDbSavedByObjectVersion
1070
     0
  0
VISUALSTYLE
  5
1D3
102
{ACAD_REACTORS
330
1C6
102
}
330
1C6
100
AcDbVisualStyle
  2
Thicken
 70
    13
 71
     2
 72
     2
 73
     0
 90
        0
 40
-0.6
 41
-30.0
 62
     5
 63
     7
 74
     1
 91
        4
 64
     7
 65
   257
 75
     1
175
     1
 42
1.0
 92
       12
 66
     7
 43
1.0
 76
     1
 77
     6
 78
     2
 67
     7
 79
     5
170
     0
171
     0
290
     0
174
     0
 93
        1
 44
0.0
173
     0
291
     1
 45
0.0
1001
ACAD
1000
AcDbSavedByObjectVersion
1070
     0
1000
AcDbSavedByObjectVersion
1070
     0
  0
DICTIONARYVAR
  5
6BD
102
{ACAD_REACTORS
330
C3
102
}
330
C3
100
DictionaryVariables
280
     0
  1
1:1
  0
DICTIONARYVAR
  5
6BC
102
{ACAD_REACTORS
330
C3
102
}
330
C3
100
DictionaryVariables
280
     0
  1
STANDARD
  0
DICTIONARYVAR
  5
F4
102
{ACAD_REACTORS
330
C3
102
}
330
C3
100
DictionaryVariables
280
     0
  1
STANDARD
  0
DICTIONARYVAR
  5
C4
102
{ACAD_REACTORS
330
C3
102
}
330
C3
100
DictionaryVariables
280
     0
  1
1
  0
DICTIONARYVAR
  5
1A2
102
{ACAD_REACTORS
330
C3
102
}
330
C3
100
DictionaryVariables
280
     0
  1
0
  0
DICTIONARYVAR
  5
6BF
102
{ACAD_REACTORS
330
C3
102
}
330
C3
100
DictionaryVariables
280
     0
  1
0
  0
DICTIONARYVAR
  5
6BE
102
{ACAD_REACTORS
330
C3
102
}
330
C3
100
DictionaryVariables
280
     0
  1
127
  0
XRECORD
  5
199
102
{ACAD_REACTORS
330
197
102
}
330
197
100
AcDbXrecord
280
     1
330
0
330
0
330
0
330
0
330
0
330
0
  0
DICTIONARY
  5
FC5
330
1E
100
AcDbDictionary
280
     1
281
     1
  3
ACAD_XREC_ROUNDTRIP
360
FC6
  0
DICTIONARY
  5
FC9
330
26
100
AcDbDictionary
280
     1
281
     1
  3
ACAD_XREC_ROUNDTRIP
360
FCA
  0
DICTIONARY
  5
FC7
330
22
100
AcDbDictionary
280
     1
281
     1
  3
ACAD_XREC_ROUNDTRIP
360
FC8
  0
DICTIONARY
  5
6AF
330
6AE
100
AcDbDictionary
280
     1
281
     1
  3
ACAD_XREC_ROUNDTRIP
360
6CE
  3
BUMPTILE
360
6B4
  3
DIFFUSETILE
360
6B0
  3
OPACITYTILE
360
6B3
  3
REFLECTIONTILE
360
6B2
  3
REFRACTIONTILE
360
6B5
  3
SPECULARTILE
360
6B1
  0
DICTIONARY
  5
1B7
330
1B6
100
AcDbDictionary
280
     1
281
     1
  3
ACAD_XREC_ROUNDTRIP
360
6CC
  3
BUMPTILE
360
1B9
  3
DIFFUSETILE
360
1B8
  3
OPACITYTILE
360
1BC
  3
REFLECTIONTILE
360
1BB
  3
REFRACTIONTILE
360
1BD
  3
SPECULARTILE
360
1BA
  0
DICTIONARY
  5
1AF
330
1AE
100
AcDbDictionary
280
     1
281
     1
  3
ACAD_XREC_ROUNDTRIP
360
6CB
  3
BUMPTILE
360
1B1
  3
DIFFUSETILE
360
1B0
  3
OPACITYTILE
360
1B4
  3
REFLECTIONTILE
360
1B3
  3
REFRACTIONTILE
360
1B5
  3
SPECULARTILE
360
1B2
  0
DICTIONARY
  5
1BF
330
1BE
100
AcDbDictionary
280
     1
281
     1
  3
ACAD_XREC_ROUNDTRIP
360
6CD
  3
BUMPTILE
360
1C1
  3
DIFFUSETILE
360
1C0
  3
OPACITYTILE
360
1C4
  3
REFLECTIONTILE
360
1C3
  3
REFRACTIONTILE
360
1C5
  3
SPECULARTILE
360
1C2
  0
DICTIONARY
  5
6C0
330
CA
100
AcDbDictionary
280
     1
281
     1
  3
ACAD_ROUNDTRIP_2008_TABLESTYLE_CELLSTYLEMAP
360
FC3
  3
ACAD_XREC_ROUNDTRIP
360
FCB
  0
XRECORD
  5
FC6
102
{ACAD_REACTORS
330
FC5
102
}
330
FC5
100
AcDbXrecord
280
     1
102
SHADEPLOT
 70
     0
102
SHADEPLOTRESLEVEL
 70
     2
102
SHADEPLOTCUSTOMDPI
 70
   300
  0
XRECORD
  5
FCA
102
{ACAD_REACTORS
330
FC9
102
}
330
FC9
100
AcDbXrecord
280
     1
102
SHADEPLOT
 70
     0
102
SHADEPLOTRESLEVEL
 70
     2
102
SHADEPLOTCUSTOMDPI
 70
   300
  0
XRECORD
  5
FC8
102
{ACAD_REACTORS
330
FC7
102
}
330
FC7
100
AcDbXrecord
280
     1
102
SHADEPLOT
 70
     0
102
SHADEPLOTRESLEVEL
 70
     2
102
SHADEPLOTCUSTOMDPI
 70
   300
  0
XRECORD
  5
6CE
102
{ACAD_REACTORS
330
6AF
102
}
330
6AF
100
AcDbXrecord
280
     1
102
MATERIAL
148
0.0
149
0.0
149
0.0
 93
        0
 94
      127
282
     0
 72
     0
 77
     0
171
     0
175
     0
179
     0
273
     0
  0
XRECORD
  5
6B4
102
{ACAD_REACTORS
330
6AF
102
}
330
6AF
100
AcDbXrecord
280
     1
270
     1
271
     1
  0
XRECORD
  5
6B0
102
{ACAD_REACTORS
330
6AF
102
}
330
6AF
100
AcDbXrecord
280
     1
270
     1
271
     1
  0
XRECORD
  5
6B3
102
{ACAD_REACTORS
330
6AF
102
}
330
6AF
100
AcDbXrecord
280
     1
270
     1
271
     1
  0
XRECORD
  5
6B2
102
{ACAD_REACTORS
330
6AF
102
}
330
6AF
100
AcDbXrecord
280
     1
270
     1
271
     1
  0
XRECORD
  5
6B5
102
{ACAD_REACTORS
330
6AF
102
}
330
6AF
100
AcDbXrecord
280
     1
270
     1
271
     1
  0
XRECORD
  5
6B1
102
{ACAD_REACTORS
330
6AF
102
}
330
6AF
100
AcDbXrecord
280
     1
270
     1
271
     1
  0
XRECORD
  5
6CC
102
{ACAD_REACTORS
330
1B7
102
}
330
1B7
100
AcDbXrecord
280
     1
102
MATERIAL
148
0.0
149
0.0
149
0.0
 93
        0
 94
      127
282
     0
 72
     0
 77
     0
171
     0
175
     0
179
     0
273
     0
  0
XRECORD
  5
1B9
102
{ACAD_REACTORS
330
1B7
102
}
330
1B7
100
AcDbXrecord
280
     1
270
     1
271
     1
  0
XRECORD
  5
1B8
102
{ACAD_REACTORS
330
1B7
102
}
330
1B7
100
AcDbXrecord
280
     1
270
     1
271
     1
  0
XRECORD
  5
1BC
102
{ACAD_REACTORS
330
1B7
102
}
330
1B7
100
AcDbXrecord
280
     1
270
     1
271
     1
  0
XRECORD
  5
1BB
102
{ACAD_REACTORS
330
1B7
102
}
330
1B7
100
AcDbXrecord
280
     1
270
     1
271
     1
  0
XRECORD
  5
1BD
102
{ACAD_REACTORS
330
1B7
102
}
330
1B7
100
AcDbXrecord
280
     1
270
     1
271
     1
  0
XRECORD
  5
1BA
102
{ACAD_REACTORS
330
1B7
102
}
330
1B7
100
AcDbXrecord
280
     1
270
     1
271
     1
  0
XRECORD
  5
6CB
102
{ACAD_REACTORS
330
1AF
102
}
330
1AF
100
AcDbXrecord
280
     1
102
MATERIAL
148
0.0
149
0.0
149
0.0
 93
        0
 94
      127
282
     0
 72
     0
 77
     0
171
     0
175
     0
179
     0
273
     0
  0
XRECORD
  5
1B1
102
{ACAD_REACTORS
330
1AF
102
}
330
1AF
100
AcDbXrecord
280
     1
270
     1
271
     1
  0
XRECORD
  5
1B0
102
{ACAD_REACTORS
330
1AF
102
}
330
1AF
100
AcDbXrecord
280
     1
270
     1
271
     1
  0
XRECORD
  5
1B4
102
{ACAD_REACTORS
330
1AF
102
}
330
1AF
100
AcDbXrecord
280
     1
270
     1
271
     1
  0
XRECORD
  5
1B3
102
{ACAD_REACTORS
330
1AF
102
}
330
1AF
100
AcDbXrecord
280
     1
270
     1
271
     1
  0
XRECORD
  5
1B5
102
{ACAD_REACTORS
330
1AF
102
}
330
1AF
100
AcDbXrecord
280
     1
270
     1
271
     1
  0
XRECORD
  5
1B2
102
{ACAD_REACTORS
330
1AF
102
}
330
1AF
100
AcDbXrecord
280
     1
270
     1
271
     1
  0
XRECORD
  5
6CD
102
{ACAD_REACTORS
330
1BF
102
}
330
1BF
100
AcDbXrecord
280
     1
102
MATERIAL
148
0.0
149
0.0
149
0.0
 93
        0
 94
      127
282
     0
 72
     0
 77
     0
171
     0
175
     0
179
     0
273
     0
  0
XRECORD
  5
1C1
102
{ACAD_REACTORS
330
1BF
102
}
330
1BF
100
AcDbXrecord
280
     1
270
     1
271
     1
  0
XRECORD
  5
1C0
102
{ACAD_REACTORS
330
1BF
102
}
330
1BF
100
AcDbXrecord
280
     1
270
     1
271
     1
  0
XRECORD
  5
1C4
102
{ACAD_REACTORS
330
1BF
102
}
330
1BF
100
AcDbXrecord
280
     1
270
     1
271
     1
  0
XRECORD
  5
1C3
102
{ACAD_REACTORS
330
1BF
102
}
330
1BF
100
AcDbXrecord
280
     1
270
     1
271
     1
  0
XRECORD
  5
1C5
102
{ACAD_REACTORS
330
1BF
102
}
330
1BF
100
AcDbXrecord
280
     1
270
     1
271
     1
  0
XRECORD
  5
1C2
102
{ACAD_REACTORS
330
1BF
102
}
330
1BF
100
AcDbXrecord
280
     1
270
     1
271
     1
  0
CELLSTYLEMAP
  5
FC3
102
{ACAD_REACTORS
330
6C0
102
}
330
6C0
100
AcDbCellStyleMap
 90
        3
300
CELLSTYLE
  1
TABLEFORMAT_BEGIN
 90
        5
170
     1
 91
        0
 92
    32768
 62
   257
 93
        1
300
CONTENTFORMAT
  1
CONTENTFORMAT_BEGIN
 90
        0
 91
        0
 92
        4
 93
        0
300

 40
0.0
140
1.0
 94
        5
 62
     0
340
11
144
0.25
309
CONTENTFORMAT_END
171
     1
301
MARGIN
  1
CELLMARGIN_BEGIN
 40
0.06
 40
0.06
 40
0.06
 40
0.06
 40
0.18
 40
0.18
309
CELLMARGIN_END
 94
        6
 95
        1
302
GRIDFORMAT
  1
GRIDFORMAT_BEGIN
 90
        0
 91
        1
 62
     0
 92
       -2
340
0
 93
        0
 40
0.045
309
GRIDFORMAT_END
 95
        2
302
GRIDFORMAT
  1
GRIDFORMAT_BEGIN
 90
        0
 91
        1
 62
     0
 92
       -2
340
0
 93
        0
 40
0.045
309
GRIDFORMAT_END
 95
        4
302
GRIDFORMAT
  1
GRIDFORMAT_BEGIN
 90
        0
 91
        1
 62
     0
 92
       -2
340
0
 93
        0
 40
0.045
309
GRIDFORMAT_END
 95
        8
302
GRIDFORMAT
  1
GRIDFORMAT_BEGIN
 90
        0
 91
        1
 62
     0
 92
       -2
340
0
 93
        0
 40
0.045
309
GRIDFORMAT_END
 95
       16
302
GRIDFORMAT
  1
GRIDFORMAT_BEGIN
 90
        0
 91
        1
 62
     0
 92
       -2
340
0
 93
        0
 40
0.045
309
GRIDFORMAT_END
 95
       32
302
GRIDFORMAT
  1
GRIDFORMAT_BEGIN
 90
        0
 91
        1
 62
     0
 92
       -2
340
0
 93
        0
 40
0.045
309
GRIDFORMAT_END
309
TABLEFORMAT_END
  1
CELLSTYLE_BEGIN
 90
        1
 91
        1
300
_TITLE
309
CELLSTYLE_END
300
CELLSTYLE
  1
TABLEFORMAT_BEGIN
 90
        5
170
     1
 91
        0
 92
        0
 62
   257
 93
        1
300
CONTENTFORMAT
  1
CONTENTFORMAT_BEGIN
 90
        0
 91
        0
 92
        4
 93
        0
300

 40
0.0
140
1.0
 94
        5
 62
     0
340
11
144
0.18
309
CONTENTFORMAT_END
171
     1
301
MARGIN
  1
CELLMARGIN_BEGIN
 40
0.06
 40
0.06
 40
0.06
 40
0.06
 40
0.18
 40
0.18
309
CELLMARGIN_END
 94
        6
 95
        1
302
GRIDFORMAT
  1
GRIDFORMAT_BEGIN
 90
        0
 91
        1
 62
     0
 92
       -2
340
0
 93
        0
 40
0.045
309
GRIDFORMAT_END
 95
        2
302
GRIDFORMAT
  1
GRIDFORMAT_BEGIN
 90
        0
 91
        1
 62
     0
 92
       -2
340
0
 93
        0
 40
0.045
309
GRIDFORMAT_END
 95
        4
302
GRIDFORMAT
  1
GRIDFORMAT_BEGIN
 90
        0
 91
        1
 62
     0
 92
       -2
340
0
 93
        0
 40
0.045
309
GRIDFORMAT_END
 95
        8
302
GRIDFORMAT
  1
GRIDFORMAT_BEGIN
 90
        0
 91
        1
 62
     0
 92
       -2
340
0
 93
        0
 40
0.045
309
GRIDFORMAT_END
 95
       16
302
GRIDFORMAT
  1
GRIDFORMAT_BEGIN
 90
        0
 91
        1
 62
     0
 92
       -2
340
0
 93
        0
 40
0.045
309
GRIDFORMAT_END
 95
       32
302
GRIDFORMAT
  1
GRIDFORMAT_BEGIN
 90
        0
 91
        1
 62
     0
 92
       -2
340
0
 93
        0
 40
0.045
309
GRIDFORMAT_END
309
TABLEFORMAT_END
  1
CELLSTYLE_BEGIN
 90
        2
 91
        1
300
_HEADER
309
CELLSTYLE_END
300
CELLSTYLE
  1
TABLEFORMAT_BEGIN
 90
        5
170
     1
 91
        0
 92
        0
 62
   257
 93
        1
300
CONTENTFORMAT
  1
CONTENTFORMAT_BEGIN
 90
        0
 91
        0
 92
        4
 93
        0
300

 40
0.0
140
1.0
 94
        2
 62
     0
340
11
144
0.18
309
CONTENTFORMAT_END
171
     1
301
MARGIN
  1
CELLMARGIN_BEGIN
 40
0.06
 40
0.06
 40
0.06
 40
0.06
 40
0.18
 40
0.18
309
CELLMARGIN_END
 94
        6
 95
        1
302
GRIDFORMAT
  1
GRIDFORMAT_BEGIN
 90
        0
 91
        1
 62
     0
 92
       -2
340
0
 93
        0
 40
0.045
309
GRIDFORMAT_END
 95
        2
302
GRIDFORMAT
  1
GRIDFORMAT_BEGIN
 90
        0
 91
        1
 62
     0
 92
       -2
340
0
 93
        0
 40
0.045
309
GRIDFORMAT_END
 95
        4
302
GRIDFORMAT
  1
GRIDFORMAT_BEGIN
 90
        0
 91
        1
 62
     0
 92
       -2
340
0
 93
        0
 40
0.045
309
GRIDFORMAT_END
 95
        8
302
GRIDFORMAT
  1
GRIDFORMAT_BEGIN
 90
        0
 91
        1
 62
     0
 92
       -2
340
0
 93
        0
 40
0.045
309
GRIDFORMAT_END
 95
       16
302
GRIDFORMAT
  1
GRIDFORMAT_BEGIN
 90
        0
 91
        1
 62
     0
 92
       -2
340
0
 93
        0
 40
0.045
309
GRIDFORMAT_END
 95
       32
302
GRIDFORMAT
  1
GRIDFORMAT_BEGIN
 90
        0
 91
        1
 62
     0
 92
       -2
340
0
 93
        0
 40
0.045
309
GRIDFORMAT_END
309
TABLEFORMAT_END
  1
CELLSTYLE_BEGIN
 90
        3
 91
        2
300
_DATA
309
CELLSTYLE_END
  0
XRECORD
  5
FCB
102
{ACAD_REACTORS
330
6C0
102
}
330
6C0
100
AcDbXrecord
280
     1
102
ACAD_ROUNDTRIP_PRE2007_TABLESTYLE
 90
        4
 91
        0
  1

 92
        4
 93
        0
  2

 94
        4
 95
        0
  3

  0
ENDSEC
  0
EOF
