  0
SECTION
  2
HEADER
  9
$ACADVER
  1
AC1015
  9
$ACADMAINTVER
 70
    20
  9
$DWGCODEPAGE
  3
ANSI_1252
  9
$INSBASE
 10
0.0
 20
0.0
 30
0.0
  9
$EXTMIN
 10
-0.0000000087735552
 20
7.719006538391112
 30
-0.0000000102483462
  9
$EXTMAX
 10
8.526312828063963
 20
9.469006538391113
 30
13.5
  9
$LIMMIN
 10
0.0
 20
0.0
  9
$LIMMAX
 10
12.0
 20
9.0
  9
$ORTHOMODE
 70
     0
  9
$REGENMODE
 70
     1
  9
$FILLMODE
 70
     1
  9
$QTEXTMODE
 70
     0
  9
$MIRRTEXT
 70
     1
  9
$LTSCALE
 40
1.0
  9
$ATTMODE
 70
     1
  9
$TEXTSIZE
 40
0.2
  9
$TRACEWID
 40
0.05
  9
$TEXTSTYLE
  7
Standard
  9
$CLAYER
  8
0
  9
$CELTYPE
  6
ByLayer
  9
$CECOLOR
 62
   256
  9
$CELTSCALE
 40
1.0
  9
$DISPSILH
 70
     0
  9
$DIMSCALE
 40
1.0
  9
$DIMASZ
 40
0.18
  9
$DIMEXO
 40
0.0625
  9
$DIMDLI
 40
0.38
  9
$DIMRND
 40
0.0
  9
$DIMDLE
 40
0.0
  9
$DIMEXE
 40
0.18
  9
$DIMTP
 40
0.0
  9
$DIMTM
 40
0.0
  9
$DIMTXT
 40
0.18
  9
$DIMCEN
 40
0.09
  9
$DIMTSZ
 40
0.0
  9
$DIMTOL
 70
     0
  9
$DIMLIM
 70
     0
  9
$DIMTIH
 70
     1
  9
$DIMTOH
 70
     1
  9
$DIMSE1
 70
     0
  9
$DIMSE2
 70
     0
  9
$DIMTAD
 70
     0
  9
$DIMZIN
 70
     0
  9
$DIMBLK
  1
ArchTick
  9
$DIMASO
 70
     1
  9
$DIMSHO
 70
     1
  9
$DIMPOST
  1

  9
$DIMAPOST
  1

  9
$DIMALT
 70
     0
  9
$DIMALTD
 70
     2
  9
$DIMALTF
 40
25.4
  9
$DIMLFAC
 40
1.0
  9
$DIMTOFL
 70
     0
  9
$DIMTVP
 40
0.0
  9
$DIMTIX
 70
     0
  9
$DIMSOXD
 70
     0
  9
$DIMSAH
 70
     0
  9
$DIMBLK1
  1

  9
$DIMBLK2
  1

  9
$DIMSTYLE
  2
Copy of Standard
  9
$DIMCLRD
 70
     0
  9
$DIMCLRE
 70
     0
  9
$DIMCLRT
 70
     0
  9
$DIMTFAC
 40
1.0
  9
$DIMGAP
 40
0.09
  9
$DIMJUST
 70
     0
  9
$DIMSD1
 70
     0
  9
$DIMSD2
 70
     0
  9
$DIMTOLJ
 70
     1
  9
$DIMTZIN
 70
     0
  9
$DIMALTZ
 70
     0
  9
$DIMALTTZ
 70
     0
  9
$DIMUPT
 70
     0
  9
$DIMDEC
 70
     4
  9
$DIMTDEC
 70
     4
  9
$DIMALTU
 70
     2
  9
$DIMALTTD
 70
     2
  9
$DIMTXSTY
  7
Standard
  9
$DIMAUNIT
 70
     0
  9
$DIMADEC
 70
     0
  9
$DIMALTRND
 40
0.0
  9
$DIMAZIN
 70
     0
  9
$DIMDSEP
 70
    46
  9
$DIMATFIT
 70
     3
  9
$DIMFRAC
 70
     0
  9
$DIMLDRBLK
  1

  9
$DIMLUNIT
 70
     4
  9
$DIMLWD
 70
    -2
  9
$DIMLWE
 70
    -2
  9
$DIMTMOVE
 70
     0
  9
$LUNITS
 70
     2
  9
$LUPREC
 70
     4
  9
$SKETCHINC
 40
0.1
  9
$FILLETRAD
 40
0.5
  9
$AUNITS
 70
     0
  9
$AUPREC
 70
     0
  9
$MENU
  1
.
  9
$ELEVATION
 40
0.0
  9
$PELEVATION
 40
0.0
  9
$THICKNESS
 40
0.0
  9
$LIMCHECK
 70
     0
  9
$CHAMFERA
 40
0.5
  9
$CHAMFERB
 40
0.5
  9
$CHAMFERC
 40
1.0
  9
$CHAMFERD
 40
0.0
  9
$SKPOLY
 70
     0
  9
$TDCREATE
 40
2452587.497350764
  9
$TDUCREATE
 40
2452587.705684097
  9
$TDUPDATE
 40
2454459.464857789
  9
$TDUUPDATE
 40
2454459.673191123
  9
$TDINDWG
 40
0.5815572454
  9
$TDUSRTIMER
 40
0.5815570718
  9
$USRTIMER
 70
     1
  9
$ANGBASE
 50
0.0
  9
$ANGDIR
 70
     0
  9
$PDMODE
 70
     0
  9
$PDSIZE
 40
0.0
  9
$PLINEWID
 40
0.0
  9
$SPLFRAME
 70
     0
  9
$SPLINETYPE
 70
     6
  9
$SPLINESEGS
 70
     8
  9
$HANDSEED
  5
A8A
  9
$SURFTAB1
 70
     6
  9
$SURFTAB2
 70
     6
  9
$SURFTYPE
 70
     6
  9
$SURFU
 70
     6
  9
$SURFV
 70
     6
  9
$UCSBASE
  2

  9
$UCSNAME
  2

  9
$UCSORG
 10
0.0
 20
0.0
 30
0.0
  9
$UCSXDIR
 10
1.0
 20
0.0
 30
0.0
  9
$UCSYDIR
 10
0.0
 20
0.0
 30
1.0
  9
$UCSORTHOREF
  2

  9
$UCSORTHOVIEW
 70
     0
  9
$UCSORGTOP
 10
0.0
 20
0.0
 30
0.0
  9
$UCSORGBOTTOM
 10
0.0
 20
0.0
 30
0.0
  9
$UCSORGLEFT
 10
0.0
 20
0.0
 30
0.0
  9
$UCSORGRIGHT
 10
0.0
 20
0.0
 30
0.0
  9
$UCSORGFRONT
 10
0.0
 20
0.0
 30
0.0
  9
$UCSORGBACK
 10
0.0
 20
0.0
 30
0.0
  9
$PUCSBASE
  2

  9
$PUCSNAME
  2

  9
$PUCSORG
 10
0.0
 20
0.0
 30
0.0
  9
$PUCSXDIR
 10
1.0
 20
0.0
 30
0.0
  9
$PUCSYDIR
 10
0.0
 20
1.0
 30
0.0
  9
$PUCSORTHOREF
  2

  9
$PUCSORTHOVIEW
 70
     0
  9
$PUCSORGTOP
 10
0.0
 20
0.0
 30
0.0
  9
$PUCSORGBOTTOM
 10
0.0
 20
0.0
 30
0.0
  9
$PUCSORGLEFT
 10
0.0
 20
0.0
 30
0.0
  9
$PUCSORGRIGHT
 10
0.0
 20
0.0
 30
0.0
  9
$PUCSORGFRONT
 10
0.0
 20
0.0
 30
0.0
  9
$PUCSORGBACK
 10
0.0
 20
0.0
 30
0.0
  9
$USERI1
 70
     0
  9
$USERI2
 70
     0
  9
$USERI3
 70
     0
  9
$USERI4
 70
     0
  9
$USERI5
 70
     0
  9
$USERR1
 40
0.0
  9
$USERR2
 40
0.0
  9
$USERR3
 40
0.0
  9
$USERR4
 40
0.0
  9
$USERR5
 40
0.0
  9
$WORLDVIEW
 70
     1
  9
$SHADEDGE
 70
     3
  9
$SHADEDIF
 70
    70
  9
$TILEMODE
 70
     1
  9
$MAXACTVP
 70
    64
  9
$PINSBASE
 10
0.0
 20
0.0
 30
0.0
  9
$PLIMCHECK
 70
     0
  9
$PEXTMIN
 10
1.000000000000000E+20
 20
1.000000000000000E+20
 30
1.000000000000000E+20
  9
$PEXTMAX
 10
-1.000000000000000E+20
 20
-1.000000000000000E+20
 30
-1.000000000000000E+20
  9
$PLIMMIN
 10
0.0
 20
0.0
  9
$PLIMMAX
 10
12.0
 20
9.0
  9
$UNITMODE
 70
     0
  9
$VISRETAIN
 70
     1
  9
$PLINEGEN
 70
     0
  9
$PSLTSCALE
 70
     1
  9
$TREEDEPTH
 70
  3020
  9
$CMLSTYLE
  2
Standard
  9
$CMLJUST
 70
     0
  9
$CMLSCALE
 40
1.0
  9
$PROXYGRAPHICS
 70
     1
  9
$MEASUREMENT
 70
     0
  9
$CELWEIGHT
370
    -1
  9
$ENDCAPS
280
     0
  9
$JOINSTYLE
280
     0
  9
$LWDISPLAY
290
     0
  9
$INSUNITS
 70
     1
  9
$HYPERLINKBASE
  1

  9
$STYLESHEET
  1

  9
$XEDIT
290
     1
  9
$CEPSNTYPE
380
     0
  9
$PSTYLEMODE
290
     1
  9
$FINGERPRINTGUID
  2
{FDEAD576-A652-11D2-9A35-0060089B3A3F}
  9
$VERSIONGUID
  2
{EA4CB53C-1FEC-4C45-B76A-95DF28B6FD10}
  9
$EXTNAMES
290
     1
  9
$PSVPSCALE
 40
0.0
  9
$OLESTARTUP
290
     0
  0
ENDSEC
  0
SECTION
  2
CLASSES
  0
CLASS
  1
ACDBDICTIONARYWDFLT
  2
AcDbDictionaryWithDefault
  3
ObjectDBX Classes
 90
        0
280
     0
281
     0
  0
CLASS
  1
ACDBPLACEHOLDER
  2
AcDbPlaceHolder
  3
ObjectDBX Classes
 90
        0
280
     0
281
     0
  0
CLASS
  1
LAYOUT
  2
AcDbLayout
  3
ObjectDBX Classes
 90
        0
280
     0
281
     0
  0
CLASS
  1
DICTIONARYVAR
  2
AcDbDictionaryVar
  3
ObjectDBX Classes
 90
        0
280
     0
281
     0
  0
CLASS
  1
TABLESTYLE
  2
AcDbTableStyle
  3
ObjectDBX Classes
 90
     4095
280
     0
281
     0
  0
CLASS
  1
SORTENTSTABLE
  2
AcDbSortentsTable
  3
ObjectDBX Classes
 90
    32768
280
     0
281
     0
  0
CLASS
  1
MATERIAL
  2
AcDbMaterial
  3
ObjectDBX Classes
 90
     1153
280
     0
281
     0
  0
CLASS
  1
VISUALSTYLE
  2
AcDbVisualStyle
  3
ObjectDBX Classes
 90
     4095
280
     0
281
     0
  0
CLASS
  1
SCALE
  2
AcDbScale
  3
ObjectDBX Classes
 90
     1153
280
     0
281
     0
  0
CLASS
  1
MLEADERSTYLE
  2
AcDbMLeaderStyle
  3
ACDB_MLEADERSTYLE_CLASS
 90
     4095
280
     0
281
     0
  0
CLASS
  1
CELLSTYLEMAP
  2
AcDbCellStyleMap
  3
ObjectDBX Classes
 90
     1152
280
     0
281
     0
  0
ENDSEC
  0
SECTION
  2
TABLES
  0
TABLE
  2
VPORT
  5
8
330
0
100
AcDbSymbolTable
 70
     1
  0
VPORT
  5
88E
330
8
100
AcDbSymbolTableRecord
100
AcDbViewportTableRecord
  2
*Active
 70
     0
 10
0.0
 20
0.0
 11
1.0
 21
1.0
 12
8.658857498168064
 22
8.5
 13
0.0
 23
0.0
 14
0.5
 24
0.5
 15
0.5
 25
0.5
 16
0.0
 26
-1.0
 36
0.0
 17
0.0
 27
0.0
 37
0.0
 40
10.08196721311476
 41
1.952107279693486
 42
50.0
 43
0.0
 44
0.0
 50
0.0
 51
0.0
 71
     0
 72
   100
 73
     1
 74
     3
 75
     0
 76
     0
 77
     0
 78
     0
281
     0
 65
     1
110
0.0
120
0.0
130
0.0
111
1.0
121
0.0
131
0.0
112
0.0
122
0.0
132
1.0
 79
     0
146
0.0
  0
ENDTAB
  0
TABLE
  2
LTYPE
  5
5
330
0
100
AcDbSymbolTable
 70
     1
  0
LTYPE
  5
14
330
5
100
AcDbSymbolTableRecord
100
AcDbLinetypeTableRecord
  2
ByBlock
 70
     0
  3

 72
    65
 73
     0
 40
0.0
  0
LTYPE
  5
15
330
5
100
AcDbSymbolTableRecord
100
AcDbLinetypeTableRecord
  2
ByLayer
 70
     0
  3

 72
    65
 73
     0
 40
0.0
  0
LTYPE
  5
16
330
5
100
AcDbSymbolTableRecord
100
AcDbLinetypeTableRecord
  2
Continuous
 70
     0
  3
Solid line
 72
    65
 73
     0
 40
0.0
  0
ENDTAB
  0
TABLE
  2
LAYER
  5
2
330
0
100
AcDbSymbolTable
 70
     5
  0
LAYER
  5
10
102
{ACAD_XDICTIONARY
360
994
102
}
330
2
100
AcDbSymbolTableRecord
100
AcDbLayerTableRecord
  2
0
 70
     0
 62
     7
  6
Continuous
370
    -3
390
F
  0
LAYER
  5
D2
102
{ACAD_XDICTIONARY
360
996
102
}
330
2
100
AcDbSymbolTableRecord
100
AcDbLayerTableRecord
  2
Layer1
 70
     0
 62
     1
  6
Continuous
370
    -3
390
F
  0
LAYER
  5
5D4
330
2
100
AcDbSymbolTableRecord
100
AcDbLayerTableRecord
  2
Defpoints
 70
     0
 62
     7
  6
Continuous
290
     0
370
    -3
390
F
  0
LAYER
  5
798
102
{ACAD_XDICTIONARY
360
998
102
}
330
2
100
AcDbSymbolTableRecord
100
AcDbLayerTableRecord
  2
HOLES
 70
     0
 62
     7
  6
Continuous
370
    -3
390
F
  0
LAYER
  5
8F3
102
{ACAD_XDICTIONARY
360
99A
102
}
330
2
100
AcDbSymbolTableRecord
100
AcDbLayerTableRecord
  2
ASHADE
 70
     4
 62
     7
  6
Continuous
370
    -3
390
F
  0
ENDTAB
  0
TABLE
  2
STYLE
  5
3
330
0
100
AcDbSymbolTable
 70
     2
  0
STYLE
  5
11
330
3
100
AcDbSymbolTableRecord
100
AcDbTextStyleTableRecord
  2
Standard
 70
     0
 40
0.0
 41
1.0
 50
0.0
 71
     0
 42
0.2
  3
txt
  4

  0
STYLE
  5
8ED
330
3
100
AcDbSymbolTableRecord
100
AcDbTextStyleTableRecord
  2
ASHADE
 70
     0
 40
0.2
 41
1.0
 50
0.0
 71
     0
 42
0.2
  3
simplex
  4

  0
ENDTAB
  0
TABLE
  2
VIEW
  5
6
330
0
100
AcDbSymbolTable
 70
     0
  0
ENDTAB
  0
TABLE
  2
UCS
  5
7
330
0
100
AcDbSymbolTable
 70
     0
  0
ENDTAB
  0
TABLE
  2
APPID
  5
9
330
0
100
AcDbSymbolTable
 70
     7
  0
APPID
  5
12
330
9
100
AcDbSymbolTableRecord
100
AcDbRegAppTableRecord
  2
ACAD
 70
     0
  0
APPID
  5
8EA
330
9
100
AcDbSymbolTableRecord
100
AcDbRegAppTableRecord
  2
ACAD_MLEADERVER
 70
     0
  0
APPID
  5
8EE
330
9
100
AcDbSymbolTableRecord
100
AcDbRegAppTableRecord
  2
AVE_RENDER
 70
     0
  0
APPID
  5
8EF
330
9
100
AcDbSymbolTableRecord
100
AcDbRegAppTableRecord
  2
AVE_ENTITY_MATERIAL
 70
     0
  0
APPID
  5
8F0
330
9
100
AcDbSymbolTableRecord
100
AcDbRegAppTableRecord
  2
AVE_FINISH
 70
     0
  0
APPID
  5
8F1
330
9
100
AcDbSymbolTableRecord
100
AcDbRegAppTableRecord
  2
AVE_MATERIAL
 70
     0
  0
APPID
  5
8F2
330
9
100
AcDbSymbolTableRecord
100
AcDbRegAppTableRecord
  2
AVE_GLOBAL
 70
     0
  0
ENDTAB
  0
TABLE
  2
DIMSTYLE
  5
A
330
0
100
AcDbSymbolTable
 70
     3
100
AcDbDimStyleTable
 71
     0
  0
DIMSTYLE
105
27
330
A
100
AcDbSymbolTableRecord
100
AcDbDimStyleTableRecord
  2
Standard
 70
     0
340
11
  0
DIMSTYLE
105
243
330
A
100
AcDbSymbolTableRecord
100
AcDbDimStyleTableRecord
  2
Copy of Standard
 70
     0
277
     4
340
11
342
23F
  0
DIMSTYLE
105
799
330
A
100
AcDbSymbolTableRecord
100
AcDbDimStyleTableRecord
  2
COPY_OF_STANDARD
 70
     0
279
     2
340
11
  0
ENDTAB
  0
TABLE
  2
BLOCK_RECORD
  5
1
330
0
100
AcDbSymbolTable
 70
    12
  0
BLOCK_RECORD
  5
1F
330
1
100
AcDbSymbolTableRecord
100
AcDbBlockTableRecord
  2
*Model_Space
340
22
  0
BLOCK_RECORD
  5
1B
330
1
100
AcDbSymbolTableRecord
100
AcDbBlockTableRecord
  2
*Paper_Space
340
1E
  0
BLOCK_RECORD
  5
23
330
1
100
AcDbSymbolTableRecord
100
AcDbBlockTableRecord
  2
*Paper_Space0
340
26
  0
BLOCK_RECORD
  5
89
330
1
100
AcDbSymbolTableRecord
100
AcDbBlockTableRecord
  2
A$C402506B2
340
0
  0
BLOCK_RECORD
  5
23F
330
1
100
AcDbSymbolTableRecord
100
AcDbBlockTableRecord
  2
_ArchTick
340
0
  0
BLOCK_RECORD
  5
332
330
1
100
AcDbSymbolTableRecord
100
AcDbBlockTableRecord
  2
A$C62876B25
340
0
  0
BLOCK_RECORD
  5
376
330
1
100
AcDbSymbolTableRecord
100
AcDbBlockTableRecord
  2
A$C0CF7183B
340
0
  0
BLOCK_RECORD
  5
4B2
330
1
100
AcDbSymbolTableRecord
100
AcDbBlockTableRecord
  2
A$C371D6E50
340
0
  0
BLOCK_RECORD
  5
562
330
1
100
AcDbSymbolTableRecord
100
AcDbBlockTableRecord
  2
A$C69274768
340
0
  0
BLOCK_RECORD
  5
59A
330
1
100
AcDbSymbolTableRecord
100
AcDbBlockTableRecord
  2
A$C3BD243A1
340
0
  0
BLOCK_RECORD
  5
8F4
330
1
100
AcDbSymbolTableRecord
100
AcDbBlockTableRecord
  2
AVE_GLOBAL
340
0
102
{BLKREFS
331
8F7
102
}
  0
BLOCK_RECORD
  5
8FD
330
1
100
AcDbSymbolTableRecord
100
AcDbBlockTableRecord
  2
AVE_RENDER
340
0
102
{BLKREFS
331
900
331
901
331
902
331
903
331
904
331
905
331
906
331
907
102
}
  0
BLOCK_RECORD
  5
959
330
1
100
AcDbSymbolTableRecord
100
AcDbBlockTableRecord
  2
RM_SDB
340
0
102
{BLKREFS
331
A00
331
A68
102
}
  0
ENDTAB
  0
ENDSEC
  0
SECTION
  2
BLOCKS
  0
BLOCK
  5
20
330
1F
100
AcDbEntity
  8
0
100
AcDbBlockBegin
  2
*Model_Space
 70
     0
 10
0.0
 20
0.0
 30
0.0
  3
*Model_Space
  1

  0
ENDBLK
  5
21
330
1F
100
AcDbEntity
  8
0
100
AcDbBlockEnd
  0
BLOCK
  5
1C
330
1B
100
AcDbEntity
 67
     1
  8
0
100
AcDbBlockBegin
  2
*Paper_Space
 70
     0
 10
0.0
 20
0.0
 30
0.0
  3
*Paper_Space
  1

  0
ENDBLK
  5
1D
330
1B
100
AcDbEntity
 67
     1
  8
0
100
AcDbBlockEnd
  0
BLOCK
  5
24
330
23
100
AcDbEntity
 67
     1
  8
0
100
AcDbBlockBegin
  2
*Paper_Space0
 70
     0
 10
0.0
 20
0.0
 30
0.0
  3
*Paper_Space0
  1

  0
ENDBLK
  5
25
330
23
100
AcDbEntity
 67
     1
  8
0
100
AcDbBlockEnd
  0
BLOCK
  5
8B
330
89
100
AcDbEntity
  8
0
100
AcDbBlockBegin
  2
A$C402506B2
 70
     0
 10
0.0
 20
0.0
 30
0.0
  3
A$C402506B2
  1

  0
LINE
  5
8A
330
89
100
AcDbEntity
  8
0
100
AcDbLine
 10
1.99999997599076
 20
-0.0000000065864836
 30
0.0
 11
-0.000000024009239
 21
-0.0000000065864836
 31
0.0
  0
ENDBLK
  5
8C
330
89
100
AcDbEntity
  8
0
100
AcDbBlockEnd
  0
BLOCK
  5
241
330
23F
100
AcDbEntity
  8
0
100
AcDbBlockBegin
  2
_ArchTick
 70
     0
 10
0.0
 20
0.0
 30
0.0
  3
_ArchTick
  1

  0
LWPOLYLINE
  5
240
330
23F
100
AcDbEntity
  8
0
 62
     0
100
AcDbPolyline
 90
        2
 70
     0
 43
0.15
 10
-0.5
 20
-0.5
 10
0.5
 20
0.5
  0
ENDBLK
  5
242
330
23F
100
AcDbEntity
  8
0
100
AcDbBlockEnd
  0
BLOCK
  5
335
330
332
100
AcDbEntity
  8
0
100
AcDbBlockBegin
  2
A$C62876B25
 70
     0
 10
0.0
 20
0.0
 30
0.0
  3
A$C62876B25
  1

  0
ARC
  5
333
330
332
100
AcDbEntity
  8
0
100
AcDbCircle
 10
4.747076104803912
 20
-0.0146308894255172
 30
0.0
 40
5.365388799403604
100
AcDbArc
 50
18.5020939616608
 51
32.26026640746432
  0
LINE
  5
334
330
332
100
AcDbEntity
  8
0
100
AcDbLine
 10
0.0000000123864794
 20
0.0000000105636286
 30
0.0
 11
0.0000000123864794
 21
2.849231481021627
 31
0.0
  0
ENDBLK
  5
336
330
332
100
AcDbEntity
  8
0
100
AcDbBlockEnd
  0
BLOCK
  5
378
330
376
100
AcDbEntity
  8
0
100
AcDbBlockBegin
  2
A$C0CF7183B
 70
     0
 10
0.0
 20
0.0
 30
0.0
  3
A$C0CF7183B
  1

  0
ARC
  5
377
330
376
100
AcDbEntity
  8
0
100
AcDbCircle
 10
-4.537145498590048
 20
-1.10838087746436
 30
0.0
 40
5.365388799403604
100
AcDbArc
 50
11.92199408310056
 51
32.26026640746435
  0
ENDBLK
  5
379
330
376
100
AcDbEntity
  8
0
100
AcDbBlockEnd
  0
BLOCK
  5
4B4
330
4B2
100
AcDbEntity
  8
0
100
AcDbBlockBegin
  2
A$C371D6E50
 70
     0
 10
0.0
 20
0.0
 30
0.0
  3
A$C371D6E50
  1

  0
LINE
  5
4B3
330
4B2
100
AcDbEntity
  8
0
100
AcDbLine
 10
0.0
 20
0.0
 30
0.0
 11
0.0
 21
0.2187794715102882
 31
0.0
  0
ENDBLK
  5
4B5
330
4B2
100
AcDbEntity
  8
0
100
AcDbBlockEnd
  0
BLOCK
  5
564
330
562
100
AcDbEntity
  8
0
100
AcDbBlockBegin
  2
A$C69274768
 70
     0
 10
0.0
 20
0.0
 30
0.0
  3
A$C69274768
  1

  0
ARC
  5
563
330
562
100
AcDbEntity
  8
0
100
AcDbCircle
 10
-0.5175933990904609
 20
-0.2777095236602315
 30
0.0
 40
0.731212470009667
100
AcDbArc
 50
22.32087359577163
 51
44.93923083705086
  0
ENDBLK
  5
565
330
562
100
AcDbEntity
  8
0
100
AcDbBlockEnd
  0
BLOCK
  5
59C
330
59A
100
AcDbEntity
  8
0
100
AcDbBlockBegin
  2
A$C3BD243A1
 70
     0
 10
0.0
 20
0.0
 30
0.0
  3
A$C3BD243A1
  1

  0
3DSOLID
  5
59B
330
59A
100
AcDbEntity
  8
0
100
AcDbModelerGeometry
 70
     1
  1
koo lik n o         
  1
ni ^ *+0;:,4 ^ *+0\^ [ nh ^ LR nmqoqnqgmo QK o  
  1
mjqlffffffffffffff fqfffffffffffffffj:rooh n:rono 
  1
=0;& {rn {n {rn {rn |
  1
3*2/ {rn {rn {m {o |
  1
,7:33 {rn {rn {rn {l {rn {n |
  1
9><: {rn {k {j {m {rn {i 90-(>-; ,6183: |
  1
9><: {rn {h {g {m {rn {i 90-(>-; ,6183: |
  1
300/ {rn {rn {f {l |
  1
/3>1:r,*-9><: {rn rnqmkfhhhnhoikmnnf:roog rlqlfgofiomihgjkmkl:roof rfqmkllfmologhjhgli:roog rn o o o n o 90-(>-;@) V V V V |
  1
9><: {rn {no {nn {m {rn {nm -:):-,:; ,6183: |
  1
300/ {rn {rn {nl {k |
  1
<0:;8: {rn {nk {nj {ni {nh 90-(>-; {j {rn |
  1
9><: {rn {ng {nf {m {rn {nm -:):-,:; ,6183: |
  1
300/ {rn {rn {mo {h |
  1
/3>1:r,*-9><: {rn nqhkfffffghjommmgl rlqlfgofiomihgjkmkl:roof rmoqjoooooofmkllfng o n o o o rn 90-(>-;@) V V V V |
  1
<0:;8: {rn {mn {mm {ml {mk 90-(>-; {g {rn |
  1
<0:;8: {rn {mj {f {mi {mh -:):-,:; {j {rn |
  1
<0:;8: {rn {f {mj {mg {mf 90-(>-; {j {rn |
  1
<0:;8: {rn {lo {ln {f {nh -:):-,:; {lm {rn |
  1
:;8: {rn {ll {lk {ni {lj 90-(>-; |
  1
9><: {rn {li {lh {m {rn {lg 90-(>-; ,6183: |
  1
300/ {rn {rn {lf {no |
  1
<0:;8: {rn {ko {mi {ln {kn 90-(>-; {nn {rn |
  1
<0:;8: {rn {km {nl {kl {kk -:):-,:; {g {rn |
  1
<0:;8: {rn {nl {km {kj {ki 90-(>-; {g {rn |
  1
<0:;8: {rn {kh {kg {nl {mk -:):-,:; {kf {rn |
  1
:;8: {rn {jo {jn {ml {jm 90-(>-; |
  1
<0:;8: {rn {nj {nk {jl {jk 90-(>-; {j {rn |
  1
<0:;8: {rn {mo {jj {nk {mh 90-(>-; {nn {rn |
  1
:;8: {rn {ji {lk {nk {jh 90-(>-; |
  1
<0:;8: {rn {jg {jf {nj {mf -:):-,:; {lh {rn |
  1
:;8: {rn {io {ll {nj {in 90-(>-; |
  1
<0:;8: {rn {im {ni {jf {il -:):-,:; {lm {rn |
  1
<0:;8: {rn {ni {im {mo {kn -:):-,:; {lm {rn |
  1
300/ {rn {rn {im {ik |
  1
):-+:' {rn {nh {ij |
  1
):-+:' {rn {nh {ii |
  1
:336/,:r<*-): {rn rnqmkfhhhnhoikmnnf:roog nqhkffffffiionfok rlkqmhimhigkfklkmk rn o o o rlqilkfnfofifnlnkmf o n V V |
  1
9><: {rn {ih {ig {m {rn {if 90-(>-; ,6183: |
  1
300/ {rn {rn {jf {ng |
  1
/3>1:r,*-9><: {rn lqkffffffghjommmgl lqkfffffffiionfok rfqmkllfmoofkkjnhmk:roog o n o o o rn 90-(>-;@) V V V V |
  1
<0:;8: {rn {ho {kl {kg {hn 90-(>-; {nf {rn |
  1
<0:;8: {rn {jj {mo {hm {hl 90-(>-; {nn {rn |
  1
:;8: {rn {lk {hk {ln {hj 90-(>-; |
  1
<0:;8: {rn {mm {mn {hi {hh 90-(>-; {g {rn |
  1
<0:;8: {rn {lf {hg {mn {kk 90-(>-; {nf {rn |
  1
:;8: {rn {hf {jn {mn {jh 90-(>-; |
  1
<0:;8: {rn {go {gn {mm {ki -:):-,:; {gm {rn |
  1
:;8: {rn {gl {jo {mm {in 90-(>-; |
  1
<0:;8: {rn {gk {ml {gn {gj -:):-,:; {kf {rn |
  1
<0:;8: {rn {ml {gk {lf {hn -:):-,:; {kf {rn |
  1
300/ {rn {rn {gk {gi |
  1
):-+:' {rn {mk {gh |
  1
):-+:' {rn {mk {gg |
  1
:336/,:r<*-): {rn rnqmkfhhhnhoikmnnf:roog nqhkffffffiionfok riqlnjlofjgnhjolfhm rn o o o rlqilkfnfomffnngmhm o n V V |
  1
<0:;8: {rn {gf {fo {mj {jk -:):-,:; {fn {rn |
  1
:;8: {rn {ji {io {jl {fm 90-(>-; |
  1
<0:;8: {rn {mi {ko {gf {fl 90-(>-; {nn {rn |
  1
):-+:' {rn {jk {fk |
  1
,+->687+r<*-): {rn rnqmkfhhhnhoikmnnf:roog rlqlfgofiomihgjkmkl:roof rfqmkllfmologhjhgli:roog o o rn V V |
  1
<0:;8: {rn {fj {mg {fo {fi 90-(>-; {lh {rn |
  1
<0:;8: {rn {mg {fj {lo {il 90-(>-; {lh {rn |
  1
):-+:' {rn {jk {fh |
  1
,+->687+r<*-): {rn rnqmkfhhhnhoikmnnf:roog lqkfffffffiionfok rfqmkllfmologhjhgli:roog o o rn V V |
  1
<0:;8: {rn {ln {lo {fg {ff -:):-,:; {lm {rn |
  1
:;8: {rn {noo {ll {lo {non 90-(>-; |
  1
9><: {rn {nom {nol {m {rn {nok 90-(>-; ,6183: |
  1
/061+ {rn rnqmkfhhhnhoikmnnf:roog lqkfffffffiionfok rlhqkimmokhgfhgkkog |
  1
/061+ {rn rnqmkfhhhnhoikmnnf:roog rlqlfgofiomihgjkmkl:roof rlhqkimmokhgfhgkkog |
  1
9><: {rn {noj {noi {m {rn {if 90-(>-; ,6183: |
  1
300/ {rn {rn {fg {li |
  1
/3>1:r,*-9><: {rn lqkffffffghjommmgl rlqlfgofiomihgjkmkl:roof rknqooooooofmkllfnj n o o o rn o 90-(>-;@) V V V V |
  1
<0:;8: {rn {hg {lf {noh {nog 90-(>-; {nf {rn |
  1
:;8: {rn {jn {nof {kg {nno 90-(>-; |
  1
<0:;8: {rn {fg {nnn {ko {hl -:):-,:; {ig {rn |
  1
:;8: {rn {hk {nnm {hm {nnl 90-(>-; |
  1
):-+:' {rn {ff {nnk |
  1
:336/,:r<*-): {rn nqhkffffflhgmimjkh rlqlfgofiomihgjkmkl:roof rlkqmhimhigkfklkmk o rn o lqilkfnfohmffhogok o o n V V |
  1
<0:;8: {rn {nnj {nni {km {hh -:):-,:; {nnh {rn |
  1
:;8: {rn {hf {gl {hi {nng 90-(>-; |
  1
<0:;8: {rn {kl {ho {nnj {nnf 90-(>-; {nf {rn |
  1
):-+:' {rn {hh {nmo |
  1
<0:;8: {rn {nmn {kj {nni {nmm 90-(>-; {gm {rn |
  1
<0:;8: {rn {kj {nmn {kh {gj 90-(>-; {gm {rn |
  1
300/ {rn {rn {gn {noj |
  1
):-+:' {rn {hh {nml |
  1
<0:;8: {rn {kg {kh {nmk {nmj -:):-,:; {kf {rn |
  1
:;8: {rn {nmi {jo {kh {nmh 90-(>-; |
  1
9><: {rn {nmg {nmf {m {rn {nlo 90-(>-; ,6183: |
  1
/061+ {rn rnqmkfhhhnhoikmnnf:roog lqkfffffffiionfok rfqjonmlhkkjijihghi |
  1
/061+ {rn rnqmkfhhhnhoikmnnf:roog rlqlfgofiomihgjkmkl:roof rfqjonmlhkkjijihghi |
  1
<0:;8: {rn {nln {jl {jj {fl -:):-,:; {fn {rn |
  1
<0:;8: {rn {jl {nln {jg {fi -:):-,:; {fn {rn |
  1
300/ {rn {rn {nln {nom |
  1
:336/,:r<*-): {rn rnqmkfhhhnhoikmnnf:roog nqhkffffffiionfok rliqogmmoihkgkmnmoh rn o o o rlqjhfmkonmhigofgof o n V V |
  1
:;8: {rn {nnm {ji {gf {nlm 90-(>-; |
  1
/061+ {rn rnqmkfhhhnhoikmnnf:roog rlqlfgofiomihgjkmkl:roof rlmqfjffjklhlihiojj |
  1
<0:;8: {rn {jf {jg {nll {nlk -:):-,:; {lh {rn |
  1
:;8: {rn {io {nlj {fo {nli 90-(>-; |
  1
/061+ {rn rnqmkfhhhnhoikmnnf:roog lqkfffffffiionfok rlmqfjffjklhlihiojj |
  1
<0:;8: {rn {nll {hm {im {ff 90-(>-; {ig {rn |
  1
:;8: {rn {hk {noo {im {nlh 90-(>-; |
  1
):-+:' {rn {ff {nlg |
  1
:336/,:r<*-): {rn nqhkffffflhgmimjkh lqkfffffffiionfok rlkqmhimhigkfklkmk o n o rlqilkfnfohmffhogok o o n V V |
  1
9><: {rn {nlf {nko {m {rn {nkn 90-(>-; ,6183: |
  1
300/ {rn {lm {nkm {ik |
  1
,/7:-:r,*-9><: {rn nqhkffffflhgmimjkh nqhkffffffiionfok rlkqmhimhigkfklkmk kqolkmkjkgfmnllnnf o o rn o n o 90-(>-;@) V V V V |
  1
9><: {rn {gi {gm {m {rn {lg 90-(>-; ,6183: |
  1
300/ {rn {rn {nmk {ih |
  1
<0:;8: {rn {nmk {nkl {ho {nog -:):-,:; {noi {rn |
  1
:;8: {rn {nof {nkk {noh {nnl 90-(>-; |
  1
):-+:' {rn {nmj {nkj |
  1
:336/,:r<*-): {rn nqhjooooooiihklj rlqlfgofiomihgjkmkl:roof riqlnjlofjgnhjolfhm o rn o lqilkfnfolfnkmohhi o o n V V |
  1
<0:;8: {rn {hm {nll {nln {nki 90-(>-; {ig {rn |
  1
):-+:' {rn {nki {nkh |
  1
,+->687+r<*-): {rn lqkffffffghjommmgl rlqlfgofiomihgjkmkl:roof rknqooooooofmkllfnj o o n V V |
  1
/061+ {rn lqkffffffghjommmgl rlqlfgofiomihgjkmkl:roof rlhqkimmokhljmnnlml |
  1
<0:;8: {rn {nkg {hi {hg {nnf -:):-,:; {nnh {rn |
  1
<0:;8: {rn {hi {nkg {go {nmm -:):-,:; {nnh {rn |
  1
300/ {rn {rn {nkg {nmg |
  1
,+->687+r<*-): {rn rnqmkfhhhnhoikmnnf:roog oqghkfffffiionfolfh rfqmkllfmojolnifgln:roog o n o V V |
  1
:;8: {rn {nkk {hf {nnj {nkf 90-(>-; |
  1
/061+ {rn rnqmkfhhhnhoikmnnf:roog rlqlfgofiomihgjkmkl:roof rfqmkllfmologhjhgli:roog |
  1
<0:;8: {rn {gn {go {njo {njn -:):-,:; {gm {rn |
  1
:;8: {rn {gl {njm {nni {njl 90-(>-; |
  1
/061+ {rn rnqmkfhhhnhoikmnnf:roog lqkfffffffiionfok rfqmkllfmologhjhgli:roog |
  1
<0:;8: {rn {njo {noh {gk {nmj 90-(>-; {noi {rn |
  1
:;8: {rn {nof {nmi {gk {njk 90-(>-; |
  1
):-+:' {rn {nmj {njj |
  1
:336/,:r<*-): {rn nqhjooooooiihklj lqkfffffffiionfok riqlnjlofjgnhjolfhm o n o rlqilkfnfolfnkmohhi o o n V V |
  1
9><: {rn {ik {nnh {m {rn {nji 90-(>-; ,6183: |
  1
300/ {rn {kf {njh {gi |
  1
,/7:-:r,*-9><: {rn nqhjooooooiihklj nqhkffffffiionfok riqlnjlofjgnhjolfhm kqolkmkjkjghofkngl o o rn o n o 90-(>-;@) V V V V |
  1
<0:;8: {rn {fo {gf {nnn {nki -:):-,:; {fn {rn |
  1
:336/,:r<*-): {rn nqhkffffflhgmimjkh rlqlfgofiomihgjkmkl:roof rliqogmmoihkgkmnmoh o rn o lqjhfmkonollfmghhg o o n V V |
  1
<0:;8: {rn {nnn {fg {fj {nlk 90-(>-; {ig {rn |
  1
:;8: {rn {noo {nlj {nll {njg 90-(>-; |
  1
):-+:' {rn {nki {njf |
  1
:336/,:r<*-): {rn nqhkffffflhgmimjkh lqkfffffffiionfok rliqogmmoihkgkmnmoh o n o rlqjhfmkonollfmghhg o o n V V |
  1
:336/,:r<*-): {rn lqkffffffghjommmgl nqhkffffffiionfok rlkqmhimhigkfklkmk n o o o lqilkfnfokfognonh o n V V |
  1
/061+ {rn lqkffffffghjommmgl lqkfffffffiionfok rlhqkimmokhljmnnlml |
  1
9><: {rn {nio {nin {m {rn {nim 90-(>-; ,6183: |
  1
300/ {rn {fn {nil {nom |
  1
,/7:-:r,*-9><: {rn nqhkffffflhgmimjkh nqhkffffffiionfok rliqogmmoihkgkmnmoh lqfgknjnoiinmgghjf o o rn o n o 90-(>-;@) V V V V |
  1
<0:;8: {rn {nkm {nkm {nik {nij 90-(>-; {nol {rn |
  1
<0:;8: {rn {noh {njo {nkg {nii 90-(>-; {noi {rn |
  1
):-+:' {rn {nii {nih |
  1
/061+ {rn lqkffffffghjommmgl rlqlfgofiomihgjkmkl:roof rfqjonmlhkiihngfnhk |
  1
:;8: {rn {nlj {nnm {nln {nig 90-(>-; |
  1
/061+ {rn lqkffffffghjommmgl rlqlfgofiomihgjkmkl:roof rlmqfjffjkkmflimnoh |
  1
<0:;8: {rn {nni {nnj {nkl {nii -:):-,:; {nnh {rn |
  1
,+->687+r<*-): {rn nqolhkjlmlimknolhi rlqlfgofiomihgjkmkl:roof rfqmkllfmoohlilnmh:roog rn o rnqmmkioiljlgmmlhhl:roni V V |
  1
<0:;8: {rn {nkl {nmk {nmn {njn 90-(>-; {noi {rn |
  1
:;8: {rn {nmi {njm {njo {njg 90-(>-; |
  1
):-+:' {rn {nii {nif |
  1
,+->687+r<*-): {rn nqfnmkjlmlimknolgj lqkfffffffiionfok rfqmkllfmomigfifjgg:roog n o nqmmkioiljlgmmlhhl:roni V V |
  1
:336/,:r<*-): {rn lqkffffffghjommmgl nqhkffffffiionfok riqlnjlofjgnhjolfhm n o o o lqilkfnfokglhmlmhf o n V V |
  1
/061+ {rn lqkffffffghjommmgl lqkfffffffiionfok rfqjonmlhkiihngfnhk |
  1
/3>1:r,*-9><: {rn oqlmkfoikgkfhfgkfjl nqhkffffffiionfok rfqmkllfmokillgnjh:roog rnqmmkioiljlgmmlhhl:roni o n o n o 90-(>-;@) V V V V |
  1
<0:;8: {rn {njh {njh {nho {nhn 90-(>-; {nmf {rn |
  1
,+->687+r<*-): {rn lqkffffffghjommmgl lqkfffffffiionfok rknqooooooofmkllfnj o o n V V |
  1
/061+ {rn lqkffffffghjommmgl lqkfffffffiionfok rlmqfjffjkkmflimnoh |
  1
9><: {rn {nhm {nhl {m {rn {nhk 90-(>-; ,6183: |
  1
300/ {rn {nhj {nhi {nlf |
  1
<01:r,*-9><: {rn nqhkfffffghjommmfm nqhkffffffiionfok rnnqhhoikoiifffmnih jqlnoffohgfgonhhlj:roni o n rnqkgjgkmnjijkilgkk o hqgfnmfkoogjnhojmf:roni n V V oqgfnkiinfigfngmffl oqkjloghmoffmihinkk nqkgjgkmnjijkilgkk 90-(>-; V V V V |
  1
<0:;8: {rn {nil {nil {nhh {nhg -:):-,:; {nko {rn |
  1
<0:;8: {rn {nik {nik {nkm {nij -:):-,:; {nhf {rn |
  1
:;8: {rn {ngo {ngo {nkm {ngn 90-(>-; |
  1
:;8: {rn {njm {nkk {nkg {ngm 90-(>-; |
  1
/061+ {rn lqkffffffghjommmgl rlqlfgofiomihgjkmkl:roof rfqmkllfmoofkkjnhmk:roog |
  1
:336/,:r<*-): {rn lqkffffffghjommmgl nqhkffffffiionfok rliqogmmoihkgkmnmoh n o o o lqjhfmkoohfnokhhlg o n V V |
  1
/061+ {rn lqkffffffghjommmgl lqkfffffffiionfok rfqmkllfmoofkkjnhmk:roog |
  1
<0:;8: {rn {nho {nho {njh {nhn -:):-,:; {ngl {rn |
  1
:;8: {rn {ngk {ngk {njh {ngj 90-(>-; |
  1
9><: {rn {ngi {ngh {m {rn {ngg 90-(>-; ,6183: |
  1
300/ {rn {ngf {nfo {nio |
  1
+0-*,r,*-9><: {rn nqhkfffffghjommmfm nqhkffffffiionfok rnnqjimikkolllnflgl rnqmmkioiljlgmmlhhl:roni o n nqjnimhloglkjmgkkg oqnhnihfhhkokhnjmki o n o 90-(>-;@) V V V V |
  1
300/ {rn {rn {nfn {nlf |
  1
<0:;8: {rn {nhi {nhi {nfm {nfl -:):-,:; {nin {rn |
  1
<0:;8: {rn {nhh {nhh {nil {nhg 90-(>-; {nfk {rn |
  1
:;8: {rn {nfj {nfj {nhh {nfi 90-(>-; |
  1
300/ {rn {nfh {nik {nfg |
  1
):-+:' {rn {nij {nff |
  1
:336/,:r<*-): {rn nqhkfffffghjommlmh nqhkffffffiionfok rlgqnjflklmfjhhminj jqlnoffohgfgonhhlj:roni o n rnqofkokljhholnikfj o jqgnokjjlinmjighhn:roni n V V |
  1
,+->687+r<*-): {rn lqkffffffghjommmhg oqghkfffffiionfolfh rfqmkllfmngkffggnn:roog o rn o V V |
  1
300/ {rn {moo {nho {mon |
  1
):-+:' {rn {nhn {mom |
  1
:336/,:r<*-): {rn nqhkfffffghjommmfm nqhkffffffiionfok rnoqommhfnoiglniojl jqlnoffohgfgonhhlj:roni o n rnqjfojogkgmmgmgoii o gqkkhnhjfoojojjgmg:roni n V V |
  1
9><: {rn {mol {mok {m {rn {moj 90-(>-; ,6183: |
  1
300/ {rn {moi {moh {nhm |
  1
+0-*,r,*-9><: {rn nqhkfffffghjommmfm nqhkffffffiionfok rnnqlflnhghllkihnij rnqmmkioiljlgmmlhhl:roni o n nqiojfijhkijikknok roqomnlohmoiiinnmkkji o n o 90-(>-;@) V V V V |
  1
300/ {rn {rn {nfm {nio |
  1
<0:;8: {rn {nfo {nfo {mog {mof -:):-,:; {nhl {rn |
  1
<0:;8: {rn {nfn {nfn {mno {mnn 90-(>-; {nhj {rn |
  1
<0:;8: {rn {nfm {nfm {nhi {nfl 90-(>-; {ngf {rn |
  1
:;8: {rn {mnm {mnm {nfm {mnl 90-(>-; |
  1
300/ {rn {rn {nhh {mnk |
  1
):-+:' {rn {nhg {mnj |
  1
:336/,:r<*-): {rn nqhkfffffghjommlng nqhkffffffiionfok rlmqliijhniffkffkih jqlnoffohgfgonhhlj:roni o n rnqklhggjgmjhgnij o hqilijfglhhjnmginm:roni n V V |
  1
300/ {rn {rn {mni {nfg |
  1
9><: {rn {mnk {nhf {m {rn {mnh 90-(>-; ,6183: |
  1
/061+ {rn oqijjfjiknokhojgljn nqhkffffffiionfok rlgqnjflklmfjhhminj |
  1
300/ {rn {rn {mng {mon |
  1
9><: {rn {mnf {ngl {m {rn {mmo 90-(>-; ,6183: |
  1
/061+ {rn oqnjfkfnjojmnfkmmhf nqhkffffffiionfok rnoqommhfnoiglniojl |
  1
9><: {rn {mmn {mmm {m {rn {mml 90-(>-; ,6183: |
  1
300/ {rn {mmk {mmj {ngi |
  1
+0-*,r,*-9><: {rn nqhkfffffghjommmfm nqhkffffffiionfok rnnqojkmkgnllhimhmg rnqmmkioiljlgmmlhhl:roni o n nqoffhomlnhkhjjnml oqjggmjojkoomkkgjng o n o 90-(>-;@) V V V V |
  1
300/ {rn {rn {mog {nhm |
  1
<0:;8: {rn {moh {moh {mmi {mmh -:):-,:; {ngh {rn |
  1
<0:;8: {rn {mog {mog {nfo {mof 90-(>-; {moi {rn |
  1
:;8: {rn {mmg {mmg {mog {mmf 90-(>-; |
  1
<0:;8: {rn {mlo {mln {nfn {mnn -:):-,:; {mlm {mll |
  1
:;8: {rn {mlk {mlk {nfn {mlj 90-(>-; |
  1
):-+:' {rn {nfl {mli |
  1
:336/,:r<*-): {rn nqhkfffffghjommmfm nqhkffffffiionfok rnnqhnhkkkoiiglgmll jqlnoffohgfgonhhlj:roni o n rnqjfojogkgmmgmgoii o gqkkhnhjfoojojjgmg:roni n V V |
  1
9><: {rn {mlh {mlg {m {rn {mlf 90-(>-; ,6183: |
  1
/061+ {rn oqlnmnnkninhmojgmok nqhkffffffiionfok rlmqliijhniffkffkih |
  1
<0:;8: {rn {mni {mni {mko {mkn 90-(>-; {nfh {rn |
  1
+0-*,r,*-9><: {rn nqhkfffffghjommlmh nqhkffffffiionfok rlfqjgjokiklokfjgfl rnqmmkioiljlgmmlhhl:roni o n roqlmongnilhiohoijfh mqoognkgffkffoogfh o n o 90-(>-;@) V V V V |
  1
<0:;8: {rn {mng {mng {mkm {mkl 90-(>-; {moo {rn |
  1
9><: {rn {nfg {mkk {m {rn {mkj 90-(>-; ,6183: |
  1
+0-*,r,*-9><: {rn nqhkfffffghjommmfm nqhkffffffiionfok rnoqolhkjillkikfkng rnqmmkioiljlgmmlhhl:roni o n nqiojfijhkijikknok roqomnlohmoiiinnmkkji o n o 90-(>-;@) V V V V |
  1
9><: {rn {mki {mkh {m {rn {mkg 90-(>-; ,6183: |
  1
300/ {rn {mkf {mjo {mol |
  1
+0-*,r,*-9><: {rn nqhkfffffghjommmfm nqhkffffffiionfok rnoqhnjlnhjlkojgmf rnqmmkioiljlgmmlhhl:roni o n nqiojfijhkijikknok roqomnlohmoiiinnmkkji o n o 90-(>-;@) V V V V |
  1
300/ {rn {rn {mmi {ngi |
  1
<0:;8: {rn {mmj {mmj {mjn {mjm -:):-,:; {mok {rn |
  1
<0:;8: {rn {mmi {mmi {moh {mmh 90-(>-; {mmk {rn |
  1
:;8: {rn {mjl {mjl {mmi {mjk 90-(>-; |
  1
):-+:' {rn {mof {mjj |
  1
:336/,:r<*-): {rn nqhkfffffghjommmfm nqhkffffffiionfok rnnqkohgklfffgoojlm jqlnoffohgfgonhhlj:roni o n rnqjfojogkgmmgmgohl o gqkkhnhjfoojojjgig:roni n V V |
  1
<0:;8: {rn {mji {mno {mln {mjh -:):-,:; {mlm {mjg |
  1
<0:;8: {rn {mno {mji {mlo {mjh 90-(>-; {mlm {mjf |
  1
300/ {rn {rn {mln {mio |
  1
/<*-): {rn o -:):-,:; $ :'//< 1*=, n /:-60;6< m 
  1
 o n iqmglngjlohnhfiook n 
  1
 rngqmkooimgifjfimll o 
  1
 rngqmkooimgifjfimll iqmglngjlohnhfiook 
  1
 o 
  1
 ,/361: 90-(>-; $ -0+,*- 
  1
 61+<*-): -:):-,:; $ :'><+<*- 1*=, l 0/:1 j 
  1
 o l oqngikfonhngglmhngj n oqkgmolklnhkifkfhhi n nqnogkomgmogljnhnh n ngqmkooimgifjfimll l 
  1
 oqlnmnnkninhmojgnnj nqhkffffffiionfok rmfqfjloooglgnjkfhg 
  1
 oqmjoiokinnjoiikfgn nqhkffffffiionfok rmfqfmfonhojiifkggf 
  1
 oqofninijllnhimkkil nqhkffffffiionfok rmfqgihomkkgmfgiokl 
  1
 oqojohoiflnighgnolhj nqhkffffffiionfok rmfqkkggkilhhjjnimm 
  1
 oqnhnjhiifikokffjgk nqhkffffffiionfok rmlqiigfkiofljkhgn 
  1
 oqmhnfhnoonmookkjhn nqhkffffffiionfok rnhqikooijofjkknknj 
  1
 oqliggmknjiifmmigof nqhkffffffiionfok rnnqgmlglhmhlnkinon 
  1
 o 
  1
 1*33@,*-9><: 
  1
 1*33@,*-9><: 
  1
 1*33=, 
  1
 1*33=, 
  1
 V V 
  1
 o 
  1
 o 
  1
 l oqngikfonhngglmhngj oqkgmolklnhkifkfhhi nqnogkomgmogljnhnh 
  1
 Y n Y o " V V 
  1
 nqhkfffffghjommmgl nqhkffffffiionfok rfqmkllfmmoiklhmngf:roog rnqmmkioiljlgmmlhhl:roni o n 
  1
 Y rngqmkooimgifjfimll Y o Y o Y iqmglngjlohnhfiook o 
  1
 o 
  1
 l rnqnogkomgmogljnhnh roqkgmolklnhkifkfhhi roqngikfonhngglmhngj 
  1
 o 
  1
 o 
  1
 o 
  1
 " V V V V 
  1
 " o o |
  1
):-+:' {rn {mjh {min |
  1
:336/,:r<*-): {rn nqhkfffffghjommlon nqhkffffffiionfok rnnqgmlglhmhlnkinon jqlnoffohgfgonhhlj:roni o n rnqlgnnhjglogoffim o hqlljknmnnijmgjmn:roni n V V |
  1
/061+ {rn oqnjfkfnjojmnfkmmhf nqhkffffffiionfok rnnqhnhkkkoiiglgmll |
  1
9><: {rn {mim {mil {m {rn {mik 90-(>-; ,6183: |
  1
300/ {rn {nfk {mij {mnk |
  1
+0-*,r,*-9><: {rn nqhkfffffghjommlng nqhkffffffiionfok rlmqljomnkgijnmffmg rnqmmkioiljlgmmlhhl:roni o n nqkjjnmionnmjggfjh roqomlhikgfoinlhmigm o n o 90-(>-;@) V V V V |
  1
<0:;8: {rn {mko {mko {mni {mkn -:):-,:; {mkk {rn |
  1
:;8: {rn {mii {mii {mni {mih 90-(>-; |
  1
<0:;8: {rn {mkm {mkm {mng {mkl -:):-,:; {mig {rn |
  1
:;8: {rn {mif {mif {mng {mho 90-(>-; |
  1
300/ {rn {rn {mko {mnf |
  1
/3>1:r,*-9><: {rn nqnfhioohnjolmflki nqhkffffffiionfok rknqooooooofmkllfmm nqmmkioiljlgmmlhhl:roni o rn o rn o 90-(>-;@) V V V V |
  1
9><: {rn {mhn {mhm {m {rn {mhl 90-(>-; ,6183: |
  1
300/ {rn {mhk {mhj {mmn |
  1
+0-*,r,*-9><: {rn nqhkfffffghjommmfm nqhkffffffiionfok rnoqjkjgjmmlkmoiohl rnqmmkioiljlgmmlhhl:roni o n nqjnimhloglkjmgkkg oqnhnihfhhkokhnjmki o n o 90-(>-;@) V V V V |
  1
300/ {rn {rn {mjn {mol |
  1
<0:;8: {rn {mjo {mjo {mhi {mhh -:):-,:; {mmm {rn |
  1
<0:;8: {rn {mjn {mjn {mmj {mjm 90-(>-; {mkf {rn |
  1
:;8: {rn {mhg {mhg {mjn {mhf 90-(>-; |
  1
):-+:' {rn {mmh {mgo |
  1
:336/,:r<*-): {rn nqhkfffffghjommmfm nqhkffffffiionfok rnnqlhgjnlkihnllg jqlnoffohgfgonhhkk:roni o n rnqjfojogkgmmgmgohn o gqkkhnhjfoojojjgig:roni n V V |
  1
/061+ {rn oqnjfkfnjojmnfkmmhf nqhkffffffiionfok rnnqkohgklfffgoojlm |
  1
<0:;8: {rn {mln {mlo {mgn {mgm 90-(>-; {mlm {mgl |
  1
:;8: {rn {mgk {mlk {mln {mgj 90-(>-; |
  1
/<*-): {rn o -:):-,:; $ :'//< 1*=, n 0/:1 m 
  1
 o n ngqmkooimgifjfimll n 
  1
 o o 
  1
 rngqmkooimgifjfimll o 
  1
 o 
  1
 ,/361: 90-(>-; $ -:9 n " V V V V 
  1
 " o o |
  1
/<*-): {rn o 90-(>-; $ :'//< 1*=, n 0/:1 m 
  1
 o n ngqmkooimgifjfimll n 
  1
 o iqmglngjlohnhfiook 
  1
 rngqmkooimgifjfimll iqmglngjlohnhfiook 
  1
 o 
  1
 ,/361: 90-(>-; $ -:9 n " V V V V 
  1
 " o o |
  1
9><: {rn {rn {mlm {m {rn {mgi 90-(>-; ,6183: |
  1
/061+ {rn oqliggmknjiifmmigof nqhkffffffiionfok rnnqgmlglhmhlnkinon |
  1
9><: {rn {mgh {mgg {m {rn {mgf 90-(>-; ,6183: |
  1
300/ {rn {mfo {mfn {mlh |
  1
+0-*,r,*-9><: {rn nqhkfffffghjommlng nqhkffffffiionfok rlmqofhjgigmfijfmmg rnqmmkioiljlgmmlhhl:roni o n nqlijnklokjkgifkfg oqmkhmnjigomlikhmmg o n o 90-(>-;@) V V V V |
  1
<0:;8: {rn {mij {mij {mfm {mfl -:):-,:; {mlg {rn |
  1
):-+:' {rn {mkn {mfk |
  1
:336/,:r<*-): {rn nqhkfffffghjommlli nqhkffffffiionfok rknqooooooofmkllfmm jqlnoffohgfgonhhlj:roni o n rnqnokhfgjkkflgjfhn o jqgihjhkgfihjjmgfk:roni n V V |
  1
300/ {rn {mfj {mkm {mhn |
  1
):-+:' {rn {mkl {mfi |
  1
:336/,:r<*-): {rn nqhkfffffghjommmfm nqhkffffffiionfok rnoqojmnmnioofgmhgj jqlnoffohgfgonhhkk:roni o n rnqjfojogkgmmgmgohn o gqkkhnhjfoojojjgig:roni n V V |
  1
9><: {rn {mon {mig {m {rn {mfh 90-(>-; ,6183: |
  1
300/ {rn {mfg {mff {mki |
  1
+0-*,r,*-9><: {rn nqhkfffffghjommmfm nqhkffffffiionfok rnoqlhilgiflkljlgjl rnqmmkioiljlgmmlhhl:roni o n nqiojfijhkijikknok roqomnlohmoiiinnmkkji o n o 90-(>-;@) V V V V |
  1
300/ {rn {rn {mhi {mmn |
  1
<0:;8: {rn {mhj {mhj {loo {lon -:):-,:; {mkh {rn |
  1
<0:;8: {rn {mhi {mhi {mjo {mhh 90-(>-; {mhk {rn |
  1
:;8: {rn {lom {lom {mhi {lol 90-(>-; |
  1
):-+:' {rn {mjm {lok |
  1
:336/,:r<*-): {rn nqhkfffffghjommmfm nqhkffffffiionfok rnoqhmffgmgoolfnijj jqlnoffohgfgonhhlj:roni o n rnqjfojogkgmmgmgoii o gqkkhnhjfoojojjgmg:roni n V V |
  1
/061+ {rn oqnjfkfnjojmnfkmmhf nqhkffffffiionfok rnnqlhgjnlkihnllg |
  1
<0:;8: {rn {mgn {mgn {mji {mgm -:):-,:; {loj {rn |
  1
:;8: {rn {mgk {mgk {mji {loi 90-(>-; |
  1
/<*-): {rn o 90-(>-; $ :'//< 1*=, n /:-60;6< m 
  1
 o n iqmglngjlohnhfiook n 
  1
 o o 
  1
 o iqmglngjlohnhfiook 
  1
 o 
  1
 ,/361: 90-(>-; $ -:9 n " V V V V 
  1
 " o o |
  1
):-+:' {rn {mjh {loh |
  1
61+<*-):r<*-): {rn 90-(>-; $ -:9 m " V V |
  1
,/361:r,*-9><: {rn 90-(>-; $ -:9 n " V V V V |
  1
9><: {rn {log {lof {m {rn {lno 90-(>-; ,6183: |
  1
300/ {rn {lnn {lnm {mim |
  1
+0-*,r,*-9><: {rn nqhkfffffghjommlng nqhkffffffiionfok rlnqgkkfjghfknggjkl rnqmmkioiljlgmmlhhl:roni o n nqkjjnmionnmjggfjh roqomlhikgfoinlhmigm o n o 90-(>-;@) V V V V |
  1
300/ {rn {rn {mfm {mlh |
  1
<0:;8: {rn {mfn {mfn {lnl {lnk -:):-,:; {mil {rn |
  1
<0:;8: {rn {mfm {mfm {mij {mfl 90-(>-; {mfo {rn |
  1
:;8: {rn {lnj {lnj {mfm {lni 90-(>-; |
  1
/061+ {rn oqikjmonkkmjililjij nqhkffffffiionfok rknqooooooofmkllfmm |
  1
300/ {rn {rn {lnh {mhn |
  1
/061+ {rn oqnjfkfnjojmnfkmmhf nqhkffffffiionfok rnoqojmnmnioofgmhgj |
  1
+0-*,r,*-9><: {rn nqhkfffffghjommmfm nqhkffffffiionfok rnoqmoifmnilkjonili rnqmmkioiljlgmmlhhl:roni o n nqjnimhloglkjmgkkg oqnhnihfhhkokhnjmki o n o 90-(>-;@) V V V V |
  1
300/ {rn {rn {loo {mki |
  1
<0:;8: {rn {mff {mff {lnh {lng -:):-,:; {mhm {rn |
  1
<0:;8: {rn {loo {loo {mhj {lon 90-(>-; {mfg {rn |
  1
:;8: {rn {lnf {lnf {loo {lmo 90-(>-; |
  1
):-+:' {rn {mhh {lmn |
  1
:336/,:r<*-): {rn nqhkfffffghjommmfm nqhkffffffiionfok rnoqhooijmmihhmkfmj jqlnoffohgfgonhhlj:roni o n rnqjfojogkgmmgmgoii o gqkkhnhjfoojojjgmg:roni n V V |
  1
/061+ {rn oqnjfkfnjojmnfkmmhf nqhkffffffiionfok rnoqhmffgmgoolfnijj |
  1
300/ {rn {lmm {mgn {lml |
  1
:336/,:r<*-): {rn nqhkfffffghjommlng nqhkffffffiionfok rmfqfjloooglgnjkfhg jqlnoffohgfgonhhlj:roni o n rnqklhggjgmjhgnijol o hqilijfglhhjnmgimm:roni n V V |
  1
/061+ {rn oqlnmnnkninhmojgnnj nqhkffffffiionfok rmfqfjloooglgnjkfhg |
  1
9><: {rn {lmk {lmj {m {rn {lmi 90-(>-; ,6183: |
  1
300/ {rn {lmh {lmg {mgh |
  1
+0-*,r,*-9><: {rn nqhkfffffghjommlng nqhkffffffiionfok rlnqnjfhgimiggmhmnf rnqmmkioiljlgmmlhhl:roni o n oqmklmnffinmmogifji nqlifnlghikjomjjog o n o 90-(>-;@) V V V V |
  1
300/ {rn {rn {lnl {mim |
  1
<0:;8: {rn {lnm {lnm {lmf {llo -:):-,:; {mgg {rn |
  1
<0:;8: {rn {lnl {lnl {mfn {lnk 90-(>-; {lnn {rn |
  1
:;8: {rn {lln {lln {lnl {llm 90-(>-; |
  1
):-+:' {rn {mfl {lll |
  1
:336/,:r<*-): {rn nqhkfffffghjommlng nqhkffffffiionfok rlmqlllgjgolohiolgf jqlnoffohgfgonhhlj:roni o n rnqklhggjgmjhgnijoh o hqilijfglhhjnmgikn:roni n V V |
  1
<0:;8: {rn {lnh {lnh {mff {lng 90-(>-; {mfj {rn |
  1
:;8: {rn {llk {llk {lnh {llj 90-(>-; |
  1
):-+:' {rn {lon {lli |
  1
:336/,:r<*-): {rn nqhkfffffghjommmfm nqhkffffffiionfok rnoqlfnojmmooighmmm jqlnoffohgfgonhhlj:roni o n rnqjfojogkgmmgmgoii o gqkkhnhjfoojojjgmg:roni n V V |
  1
/061+ {rn oqnjfkfnjojmnfkmmhf nqhkffffffiionfok rnoqhooijmmihhmkfmj |
  1
300/ {rn {rn {llh {lml |
  1
9><: {rn {mio {loj {m {rn {llg 90-(>-; ,6183: |
  1
9><: {rn {lml {llf {m {rn {lko 90-(>-; ,6183: |
  1
300/ {rn {lkn {lkm {log |
  1
+0-*,r,*-9><: {rn nqhkfffffghjommlng nqhkffffffiionfok rloqkhkinlhklkijgfg rnqmmkioiljlgmmlhhl:roni o n nqkjjnmionnmjggfjn roqomlhikgfoinlhmigm o n o 90-(>-;@) V V V V |
  1
300/ {rn {rn {lmf {mgh |
  1
<0:;8: {rn {lmg {lmg {lkl {lkk -:):-,:; {lof {rn |
  1
<0:;8: {rn {lmf {lmf {lnm {llo 90-(>-; {lmh {rn |
  1
:;8: {rn {lkj {lkj {lmf {lki 90-(>-; |
  1
):-+:' {rn {lnk {lkh |
  1
:336/,:r<*-): {rn nqhkfffffghjommlng nqhkffffffiionfok rlnqginlnjimgjjgogj jqlnoffohgfgonhhlj:roni o n rnqklhggjgmjhgnijhi o hqilijfglhhjnmfooi:roni n V V |
  1
/061+ {rn oqlnmnnkninhmojgnnj nqhkffffffiionfok rlmqlllgjgolohiolgf |
  1
):-+:' {rn {lng {lkg |
  1
:336/,:r<*-): {rn nqhkfffffghjommmfm nqhkffffffiionfok rnoqlinhmniigomokgg jqlnoffohgfgonhhlj:roni o n rnqjfojogkgmmgmgoii o gqkkhnhjfoojojjgmg:roni n V V |
  1
/061+ {rn oqnjfkfnjojmnfkmmhf nqhkffffffiionfok rnoqlfnojmmooighmmm |
  1
<0:;8: {rn {llh {llh {lkf {ljo 90-(>-; {lmm {rn |
  1
+0-*,r,*-9><: {rn nqhkfffffghjommlng nqhkffffffiionfok rmfqfifljhihmjmkjnh rnqmmkioiljlgmmlhhl:roni o n nqkjjnmionnmjggfjj roqomlhikgfoinlhmigm o n o 90-(>-;@) V V V V |
  1
300/ {rn {ljn {lkf {lmk |
  1
+0-*,r,*-9><: {rn nqhkfffffghjommlng nqhkffffffiionfok rloqmmnfgjhohffjmoi rnqmmkioiljlgmmlhhl:roni o n nqlijnklokjkgifkkf oqmkhmnjigomlikhnkh o n o 90-(>-;@) V V V V |
  1
300/ {rn {rn {lkl {log |
  1
<0:;8: {rn {lkm {lkm {ljm {ljl -:):-,:; {lmj {rn |
  1
<0:;8: {rn {lkl {lkl {lmg {lkk 90-(>-; {lkn {rn |
  1
:;8: {rn {ljk {ljk {lkl {ljj 90-(>-; |
  1
):-+:' {rn {llo {lji |
  1
:336/,:r<*-): {rn nqhkfffffghjommlng nqhkffffffiionfok rlnqgmgionfjfgnf jqlnoffohgfgonhhlj:roni o n rnqklhggjgmjhgnijoh o hqilijfglhhjnmgikn:roni n V V |
  1
/061+ {rn oqlnmnnkninhmojhkoj nqhkffffffiionfok rlnqginlnjimgjjgogj |
  1
/061+ {rn oqnjfkfnjojmnfkmmhf nqhkffffffiionfok rnoqlinhmniigomokgg |
  1
<0:;8: {rn {lkf {lkf {llh {ljo -:):-,:; {llf {rn |
  1
:;8: {rn {ljh {ljh {llh {ljg 90-(>-; |
  1
300/ {rn {rn {ljm {lmk |
  1
<0:;8: {rn {ljm {ljm {lkm {ljl 90-(>-; {ljn {rn |
  1
:;8: {rn {ljf {ljf {ljm {lio 90-(>-; |
  1
):-+:' {rn {lkk {lin |
  1
:336/,:r<*-): {rn nqhkfffffghjommlng nqhkffffffiionfok rloqkfofhojhhgljklh jqlnoffohgfgonhhlj:roni o n rnqklhggjgmjhgnikfk o hqilijfglhhjnmgjhm:roni n V V |
  1
/061+ {rn oqlnmnnkninhmojgnnj nqhkffffffiionfok rlnqgmgionfjfgnf |
  1
):-+:' {rn {ljo {lim |
  1
:336/,:r<*-): {rn nqhkfffffghjommlng nqhkffffffiionfok rmfqfgjhnkjoigfkoim jqlnoffohgfgonhhlj:roni o n rnqklhggjgmjhgnijjn o hqilijfglhhjnmgghg:roni n V V |
  1
):-+:' {rn {ljl {lil |
  1
:336/,:r<*-): {rn nqhkfffffghjommlng nqhkffffffiionfok rloqkjgmjifofofilji jqlnoffohgfgonhhlj:roni o n rnqklhggjgmjhgnij o hqilijfglhhjnmginm:roni n V V |
  1
/061+ {rn oqlnmnnkninhmojgmfl nqhkffffffiionfok rloqkfofhojhhgljklh |
  1
/061+ {rn oqlnmnnkninhmojhihn nqhkffffffiionfok rmfqfgjhnkjoigfkoim |
  1
/061+ {rn oqlnmnnkninhmojgmok nqhkffffffiionfok rloqkjgmjifofofilji |
  0
ENDBLK
  5
59D
330
59A
100
AcDbEntity
  8
0
100
AcDbBlockEnd
  0
BLOCK
  5
8F5
330
8F4
100
AcDbEntity
  8
ASHADE
100
AcDbBlockBegin
  2
AVE_GLOBAL
 70
     0
 10
0.0
 20
0.0
 30
0.0
  3
AVE_GLOBAL
  1
AVE_GLOBAL
  0
ENDBLK
  5
8F6
330
8F4
100
AcDbEntity
  8
0
100
AcDbBlockEnd
  0
BLOCK
  5
8FE
330
8FD
100
AcDbEntity
  8
ASHADE
100
AcDbBlockBegin
  2
AVE_RENDER
 70
     0
 10
0.0
 20
0.0
 30
0.0
  3
AVE_RENDER
  1
AVE_RENDER
  0
ENDBLK
  5
8FF
330
8FD
100
AcDbEntity
  8
0
100
AcDbBlockEnd
  0
BLOCK
  5
95A
330
959
100
AcDbEntity
  8
ASHADE
100
AcDbBlockBegin
  2
RM_SDB
 70
     2
 10
0.0
 20
0.0
 30
0.0
  3
RM_SDB
  1
RM_SDB
  0
ATTDEF
  5
95B
330
959
100
AcDbEntity
  8
0
100
AcDbText
 10
0.0
 20
0.0
 30
0.0
 40
0.2
  1

100
AcDbAttributeDefinition
  3

  2
NAME
 70
     1
  0
ATTDEF
  5
95C
330
959
100
AcDbEntity
  8
0
100
AcDbText
 10
0.0
 20
0.0
 30
0.0
 40
0.2
  1

100
AcDbAttributeDefinition
  3

  2
ACADCOLOR
 70
     1
  0
ATTDEF
  5
95D
330
959
100
AcDbEntity
  8
0
100
AcDbText
 10
0.0
 20
0.0
 30
0.0
 40
0.2
  1

100
AcDbAttributeDefinition
  3

  2
COLOR
 70
     1
  0
ATTDEF
  5
95E
330
959
100
AcDbEntity
  8
0
100
AcDbText
 10
0.0
 20
0.0
 30
0.0
 40
0.2
  1

100
AcDbAttributeDefinition
  3

  2
OPACITY
 70
     1
  0
ATTDEF
  5
95F
330
959
100
AcDbEntity
  8
0
100
AcDbText
 10
0.0
 20
0.0
 30
0.0
 40
0.2
  1

100
AcDbAttributeDefinition
  3

  2
SURFACE
 70
     1
  0
ATTDEF
  5
960
330
959
100
AcDbEntity
  8
0
100
AcDbText
 10
0.0
 20
0.0
 30
0.0
 40
0.2
  1

100
AcDbAttributeDefinition
  3

  2
SURF1
 70
     1
  0
ATTDEF
  5
961
330
959
100
AcDbEntity
  8
0
100
AcDbText
 10
0.0
 20
0.0
 30
0.0
 40
0.2
  1

100
AcDbAttributeDefinition
  3

  2
SURF2
 70
     1
  0
ATTDEF
  5
962
330
959
100
AcDbEntity
  8
0
100
AcDbText
 10
0.0
 20
0.0
 30
0.0
 40
0.2
  1

100
AcDbAttributeDefinition
  3

  2
SURF3
 70
     1
  0
ATTDEF
  5
963
330
959
100
AcDbEntity
  8
0
100
AcDbText
 10
0.0
 20
0.0
 30
0.0
 40
0.2
  1

100
AcDbAttributeDefinition
  3

  2
SURF4
 70
     1
  0
ATTDEF
  5
964
330
959
100
AcDbEntity
  8
0
100
AcDbText
 10
0.0
 20
0.0
 30
0.0
 40
0.2
  1

100
AcDbAttributeDefinition
  3

  2
SHADINGRATE
 70
     1
  0
ATTDEF
  5
965
330
959
100
AcDbEntity
  8
0
100
AcDbText
 10
0.0
 20
0.0
 30
0.0
 40
0.2
  1

100
AcDbAttributeDefinition
  3

  2
DISPLACEMENT
 70
     1
  0
ATTDEF
  5
966
330
959
100
AcDbEntity
  8
0
100
AcDbText
 10
0.0
 20
0.0
 30
0.0
 40
0.2
  1

100
AcDbAttributeDefinition
  3

  2
DISP1
 70
     1
  0
ATTDEF
  5
967
330
959
100
AcDbEntity
  8
0
100
AcDbText
 10
0.0
 20
0.0
 30
0.0
 40
0.2
  1

100
AcDbAttributeDefinition
  3

  2
DISP2
 70
     1
  0
ATTDEF
  5
968
330
959
100
AcDbEntity
  8
0
100
AcDbText
 10
0.0
 20
0.0
 30
0.0
 40
0.2
  1

100
AcDbAttributeDefinition
  3

  2
DISP3
 70
     1
  0
ATTDEF
  5
969
330
959
100
AcDbEntity
  8
0
100
AcDbText
 10
0.0
 20
0.0
 30
0.0
 40
0.2
  1

100
AcDbAttributeDefinition
  3

  2
DISP4
 70
     1
  0
ATTDEF
  5
96A
330
959
100
AcDbEntity
  8
0
100
AcDbText
 10
0.0
 20
0.0
 30
0.0
 40
0.2
  1

100
AcDbAttributeDefinition
  3

  2
DBOUND
 70
     1
  0
ATTDEF
  5
96B
330
959
100
AcDbEntity
  8
0
100
AcDbText
 10
0.0
 20
0.0
 30
0.0
 40
0.2
  1

100
AcDbAttributeDefinition
  3

  2
SMOOTH
 70
     1
  0
ATTDEF
  5
96C
330
959
100
AcDbEntity
  8
0
100
AcDbText
 10
0.0
 20
0.0
 30
0.0
 40
0.2
  1

100
AcDbAttributeDefinition
  3

  2
ATMOSHPERE
 70
     1
  0
ATTDEF
  5
96D
330
959
100
AcDbEntity
  8
0
100
AcDbText
 10
0.0
 20
0.0
 30
0.0
 40
0.2
  1

100
AcDbAttributeDefinition
  3

  2
ATMO1
 70
     1
  0
ATTDEF
  5
96E
330
959
100
AcDbEntity
  8
0
100
AcDbText
 10
0.0
 20
0.0
 30
0.0
 40
0.2
  1

100
AcDbAttributeDefinition
  3

  2
ATMO2
 70
     1
  0
ATTDEF
  5
96F
330
959
100
AcDbEntity
  8
0
100
AcDbText
 10
0.0
 20
0.0
 30
0.0
 40
0.2
  1

100
AcDbAttributeDefinition
  3

  2
ATMO3
 70
     1
  0
ATTDEF
  5
970
330
959
100
AcDbEntity
  8
0
100
AcDbText
 10
0.0
 20
0.0
 30
0.0
 40
0.2
  1

100
AcDbAttributeDefinition
  3

  2
ATMO4
 70
     1
  0
ATTDEF
  5
971
330
959
100
AcDbEntity
  8
0
100
AcDbText
 10
0.0
 20
0.0
 30
0.0
 40
0.2
  1

100
AcDbAttributeDefinition
  3

  2
TCCORD
 70
     1
  0
ENDBLK
  5
972
330
959
100
AcDbEntity
  8
0
100
AcDbBlockEnd
  0
ENDSEC
  0
SECTION
  2
ENTITIES
  0
INSERT
  5
8F7
330
1F
100
AcDbEntity
  8
ASHADE
 62
     1
100
AcDbBlockReference
  2
AVE_GLOBAL
 10
0.0
 20
0.0
 30
0.0
1001
AVE_MATERIAL
1002
{
1000
*GLOBAL*
1000
2
1000
Global finish.
1002
{
1002
}
1002
{
1070
    63
1002
{
1002
{
1010
-1.0
1020
-1.0
1030
-1.0
1002
}
1040
0.6999999880790711
1000

1040
0.0
1002
{
1002
}
1040
0.0
1002
{
1002
}
1040
0.0
1002
}
1002
{
1002
{
1010
-1.0
1020
-1.0
1030
-1.0
1002
}
1040
1.0
1000

1040
0.0
1002
{
1002
}
1040
0.0
1002
{
1002
}
1040
0.0
1002
}
1002
{
1002
{
1010
-1.0
1020
-1.0
1030
-1.0
1002
}
1040
0.2000000029802322
1000

1040
0.0
1002
{
1002
}
1040
0.0
1002
{
1002
}
1040
0.0
1002
}
1002
{
1070
     0
1002
{
1070
     1
1002
{
1040
1.0
1040
1.0
1000

1040
0.0
1002
{
1002
}
1040
0.0
1002
{
1002
}
1040
0.0
1002
}
1002
}
1040
1.0
1040
0.0
1040
0.0
1002
}
1002
{
1040
1.0
1040
1.0
1000

1040
0.0
1002
{
1002
}
1040
0.0
1002
{
1002
}
1040
0.0
1002
}
1002
{
1040
0.5
1040
1.0
1000

1040
0.0
1002
{
1002
}
1040
0.0
1002
{
1002
}
1040
0.0
1002
}
1002
{
1070
     0
1040
0.0
1002
{
1002
}
1040
1.0
1002
{
1002
}
1040
0.0
1002
}
1002
{
1040
0.0
1002
{
1002
{
1010
0.0
1020
0.0
1030
0.0
1002
}
1040
1.0
1000

1040
0.0
1002
{
1002
}
1040
0.0
1002
{
1002
}
1040
0.0
1002
}
1002
}
1002
{
1002
{
1070
     1
1002
{
1040
0.0
1040
1.0
1000

1040
0.0
1002
{
1002
}
1040
0.0
1002
{
1002
}
1040
0.0
1002
}
1002
}
1040
0.0
1002
{
1002
}
1010
1.0
1020
0.0
1030
0.0
1010
0.0
1020
1.0
1030
0.0
1010
0.0
1020
0.0
1030
1.0
1070
     0
1002
}
1002
{
1002
{
1040
1.0
1040
1.0
1002
{
1070
     1
1002
{
1040
1.0
1040
1.0
1000

1040
0.0
1002
{
1002
}
1040
0.0
1002
{
1002
}
1040
0.0
1002
}
1002
}
1002
}
1070
     0
1040
0.0
1002
{
1002
}
1002
}
1002
{
1002
}
1002
}
1002
{
1071
        3
1070
     3
1070
     0
1002
{
1070
     2
1070
     0
1070
     0
1040
0.0
1002
}
1070
     0
1070
     2
1002
{
1002
}
1002
}
1002
{
1040
8030.0
1040
190.3000030517578
1040
0.3050000071525574
1040
228.0
1040
545.0
1040
14.0
1040
17.39999961853027
1040
0.4560000002384186
1002
}
1000

1002
}
  0
INSERT
  5
900
330
1F
100
AcDbEntity
  8
ASHADE
 62
     1
100
AcDbBlockReference
  2
AVE_RENDER
 10
0.0
 20
0.0
 30
0.0
1001
AVE_RENDER
1002
{
1070
     7
1000
Pref
1070
    50
1070
    20
1070
     1
1070
     0
1000

1070
    10
1070
     1
1070
    10
1040
1.0
1070
     1
1040
0.6999999880790711
1040
1.0
1040
0.2000000029802322
1040
2.0
1010
-1.0
1020
-1.0
1030
-1.0
1040
0.3000000119209289
1070
    49
1070
     0
1070
     0
1010
1.0
1020
1.0
1030
1.0
1040
45.0
1070
     1
1070
     0
1000
WCS
1040
0.0
1070
     0
1040
10.0
1002
}
  0
INSERT
  5
901
330
1F
100
AcDbEntity
  8
ASHADE
 62
     3
100
AcDbBlockReference
  2
AVE_RENDER
 10
0.0
 20
0.0
 30
0.0
1001
AVE_RENDER
1002
{
1070
     0
1000
Full Opt
1070
     0
1070
     1
1070
     1
1070
     1
1070
     0
1070
     0
1070
     0
1070
     1
1070
     1
1040
0.0001
1040
0.0001
1002
}
  0
INSERT
  5
902
330
1F
100
AcDbEntity
  8
ASHADE
 62
     4
100
AcDbBlockReference
  2
AVE_RENDER
 10
0.0
 20
0.0
 30
0.0
1001
AVE_RENDER
1002
{
1070
     0
1000
Quick Opt
1070
     0
1070
     1
1070
     1
1070
     1
1070
     0
1070
     0
1070
     1
1002
}
  0
INSERT
  5
903
330
1F
100
AcDbEntity
  8
ASHADE
 62
     5
100
AcDbBlockReference
  2
AVE_RENDER
 10
0.0
 20
0.0
 30
0.0
1001
AVE_RENDER
1002
{
1070
     1
1000
Scanl Opt
1070
     2
1070
     0
1070
     2
1040
2.0
1040
4.0
1070
     0
1070
     1
1070
     0
1040
0.03
1002
}
  0
INSERT
  5
904
330
1F
100
AcDbEntity
  8
ASHADE
 62
     6
100
AcDbBlockReference
  2
AVE_RENDER
 10
0.0
 20
0.0
 30
0.0
1001
AVE_RENDER
1002
{
1070
     2
1000
Raytr Opt
1070
     2
1070
     0
1070
     2
1040
2.0
1040
4.0
1070
     0
1070
     1
1070
     1
1040
0.03
1070
     3
1040
0.03
1002
}
  0
INSERT
  5
905
330
1F
100
AcDbEntity
  8
ASHADE
 62
     7
100
AcDbBlockReference
  2
AVE_RENDER
 10
0.0
 20
0.0
 30
0.0
1001
AVE_RENDER
1002
{
1070
     0
1000
RFile Opt
1070
     1
1070
   640
1070
   480
1070
 10000
1070
     1
1070
     8
1070
     8
1070
     0
1070
     0
1070
     0
1070
     0
1070
     0
1070
     0
1070
     0
1002
}
  0
INSERT
  5
906
330
1F
100
AcDbEntity
  8
ASHADE
 62
     8
100
AcDbBlockReference
  2
AVE_RENDER
 10
0.0
 20
0.0
 30
0.0
1001
AVE_RENDER
1002
{
1070
     0
1000
Fog Opt
1070
     0
1070
     0
1040
0.0
1040
1.0
1040
0.0
1040
1.0
1010
0.5
1020
0.5
1030
0.5
1002
}
  0
INSERT
  5
907
330
1F
100
AcDbEntity
  8
ASHADE
 62
     9
100
AcDbBlockReference
  2
AVE_RENDER
 10
0.0
 20
0.0
 30
0.0
1001
AVE_RENDER
1002
{
1070
     0
1000
BG Opt
1070
     0
1070
     0
1010
0.0
1020
0.0
1030
0.0
1010
1.0
1020
0.0
1030
0.0
1010
0.0
1020
1.0
1030
0.0
1010
0.0
1020
0.0
1030
1.0
1040
0.5
1040
0.5
1040
0.0
1000

1070
     1
1000

1070
     1
1070
     1
1040
1.0
1040
1.0
1040
0.0
1040
0.0
1070
     0
1002
}
  0
POLYLINE
  5
A1C
330
1F
100
AcDbEntity
  8
0
 62
     7
100
AcDbPolyFaceMesh
 66
     1
 10
0.0
 20
0.0
 30
0.0
 70
    64
 71
    26
 72
    48
1001
AVE_ENTITY_MATERIAL
1002
{
1000

1002
{
1071
        0
1070
     0
1070
     0
1002
{
1070
     0
1070
     0
1070
     0
1040
0.0
1002
}
1070
     0
1070
     0
1002
{
1002
}
1002
}
1002
{
1002
}
1002
{
1002
}
1011
-5.026312836837519
1021
0.0
1031
-3.500000010248346
1011
-4.026312836837519
1021
0.0
1031
-3.500000010248346
1011
-5.026312836837519
1021
1.0
1031
-3.500000010248346
1011
-5.026312836837519
1021
0.0
1031
-2.500000010248346
1002
}
  0
VERTEX
  5
A1D
330
A1C
100
AcDbEntity
  8
0
 62
     7
100
AcDbVertex
100
AcDbPolyFaceMeshVertex
 10
3.499999991226443
 20
9.469006538391113
 30
-0.0000000102483462
 70
   192
  0
VERTEX
  5
A1E
330
A1C
100
AcDbEntity
  8
0
 62
     7
100
AcDbVertex
100
AcDbPolyFaceMeshVertex
 10
3.499999991226443
 20
7.719006538391112
 30
-0.0000000102483462
 70
   192
  0
VERTEX
  5
A1F
330
A1C
100
AcDbEntity
  8
0
 62
     7
100
AcDbVertex
100
AcDbPolyFaceMeshVertex
 10
-0.0000000087735552
 20
7.719006538391112
 30
-0.0000000102483462
 70
   192
  0
VERTEX
  5
A20
330
A1C
100
AcDbEntity
  8
0
 62
     7
100
AcDbVertex
100
AcDbPolyFaceMeshVertex
 10
-0.0000000087735552
 20
9.469006538391113
 30
-0.0000000102483462
 70
   192
  0
VERTEX
  5
A21
330
A1C
100
AcDbEntity
  8
0
 62
     7
100
AcDbVertex
100
AcDbPolyFaceMeshVertex
 10
3.499999991226443
 20
8.26555061340332
 30
9.615359296087103
 70
   192
  0
VERTEX
  5
A22
330
A1C
100
AcDbEntity
  8
0
 62
     7
100
AcDbVertex
100
AcDbPolyFaceMeshVertex
 10
3.499999991226443
 20
7.719006538391112
 30
9.431893338445503
 70
   192
  0
VERTEX
  5
A23
330
A1C
100
AcDbEntity
  8
0
 62
     7
100
AcDbVertex
100
AcDbPolyFaceMeshVertex
 10
3.499999991226443
 20
8.711647033691406
 30
9.728788365606144
 70
   192
  0
VERTEX
  5
A24
330
A1C
100
AcDbEntity
  8
0
 62
     7
100
AcDbVertex
100
AcDbPolyFaceMeshVertex
 10
3.499999991226443
 20
9.469006538391113
 30
9.810773839238953
 70
   192
  0
VERTEX
  5
A25
330
A1C
100
AcDbEntity
  8
0
 62
     7
100
AcDbVertex
100
AcDbPolyFaceMeshVertex
 10
3.137972822952519
 20
9.469006538391113
 30
9.999999989751653
 70
   192
  0
VERTEX
  5
A26
330
A1C
100
AcDbEntity
  8
0
 62
     7
100
AcDbVertex
100
AcDbPolyFaceMeshVertex
 10
0.3620271595003706
 20
9.469006538391113
 30
9.999999989751653
 70
   192
  0
VERTEX
  5
A27
330
A1C
100
AcDbEntity
  8
0
 62
     7
100
AcDbVertex
100
AcDbPolyFaceMeshVertex
 10
-0.0000000087735552
 20
9.469006538391113
 30
9.810773839238953
 70
   192
  0
VERTEX
  5
A28
330
A1C
100
AcDbEntity
  8
0
 62
     7
100
AcDbVertex
100
AcDbPolyFaceMeshVertex
 10
-0.0000000087735552
 20
8.26555061340332
 30
9.615359296087103
 70
   192
  0
VERTEX
  5
A29
330
A1C
100
AcDbEntity
  8
0
 62
     7
100
AcDbVertex
100
AcDbPolyFaceMeshVertex
 10
-0.0000000087735552
 20
7.719006538391112
 30
9.431893338445503
 70
   192
  0
VERTEX
  5
A2A
330
A1C
100
AcDbEntity
  8
0
 62
     7
100
AcDbVertex
100
AcDbPolyFaceMeshVertex
 10
-0.0000000087735552
 20
8.711647033691406
 30
9.728788365606144
 70
   192
  0
VERTEX
  5
A2B
330
A1C
100
AcDbEntity
  8
0
 62
     7
100
AcDbVertex
100
AcDbPolyFaceMeshVertex
 10
0.5465440662386519
 20
7.719006538391112
 30
9.615359296087103
 70
   192
  0
VERTEX
  5
A2C
330
A1C
100
AcDbEntity
  8
0
 62
     7
100
AcDbVertex
100
AcDbPolyFaceMeshVertex
 10
0.9926404865267386
 20
7.719006538391112
 30
9.728788365606144
 70
   192
  0
VERTEX
  5
A2D
330
A1C
100
AcDbEntity
  8
0
 62
     7
100
AcDbVertex
100
AcDbPolyFaceMeshVertex
 10
1.749999991226444
 20
7.719006538391112
 30
9.810773839238953
 70
   192
  0
VERTEX
  5
A2E
330
A1C
100
AcDbEntity
  8
0
 62
     7
100
AcDbVertex
100
AcDbPolyFaceMeshVertex
 10
2.507359019088993
 20
7.719006538391112
 30
9.728788365606144
 70
   192
  0
VERTEX
  5
A2F
330
A1C
100
AcDbEntity
  8
0
 62
     7
100
AcDbVertex
100
AcDbPolyFaceMeshVertex
 10
2.953455916214238
 20
7.719006538391112
 30
9.615359296087103
 70
   192
  0
VERTEX
  5
A30
330
A1C
100
AcDbEntity
  8
0
 62
     7
100
AcDbVertex
100
AcDbPolyFaceMeshVertex
 10
0.768555155563603
 20
8.487562179565427
 30
9.999999989751653
 70
   192
  0
VERTEX
  5
A31
330
A1C
100
AcDbEntity
  8
0
 62
     7
100
AcDbVertex
100
AcDbPolyFaceMeshVertex
 10
2.731444826889287
 20
8.487562179565427
 30
9.999999989751653
 70
   192
  0
VERTEX
  5
A32
330
A1C
100
AcDbEntity
  8
0
 62
     7
100
AcDbVertex
100
AcDbPolyFaceMeshVertex
 10
1.218845835495243
 20
8.18668746948242
 30
9.999999989751653
 70
   192
  0
VERTEX
  5
A33
330
A1C
100
AcDbEntity
  8
0
 62
     7
100
AcDbVertex
100
AcDbPolyFaceMeshVertex
 10
1.749999991226444
 20
8.081034660339355
 30
9.999999989751653
 70
   192
  0
VERTEX
  5
A34
330
A1C
100
AcDbEntity
  8
0
 62
     7
100
AcDbVertex
100
AcDbPolyFaceMeshVertex
 10
2.281154146957646
 20
8.18668746948242
 30
9.999999989751653
 70
   192
  0
VERTEX
  5
A35
330
A1C
100
AcDbEntity
  8
0
 62
     7
100
AcDbVertex
100
AcDbPolyFaceMeshVertex
 10
3.032319060135137
 20
8.93785285949707
 30
9.999999989751653
 70
   192
  0
VERTEX
  5
A36
330
A1C
100
AcDbEntity
  8
0
 62
     7
100
AcDbVertex
100
AcDbPolyFaceMeshVertex
 10
0.4676804454805961
 20
8.93785285949707
 30
9.999999989751653
 70
   192
  0
VERTEX
  5
A37
330
A1C
100
AcDbEntity
  8
0
 62
     7
100
AcDbFaceRecord
 10
0.0
 20
0.0
 30
0.0
 70
   128
 71
     1
 72
     2
 73
     3
  0
VERTEX
  5
A38
330
A1C
100
AcDbEntity
  8
0
 62
     7
100
AcDbFaceRecord
 10
0.0
 20
0.0
 30
0.0
 70
   128
 71
     4
 72
     1
 73
     3
  0
VERTEX
  5
A39
330
A1C
100
AcDbEntity
  8
0
 62
     7
100
AcDbFaceRecord
 10
0.0
 20
0.0
 30
0.0
 70
   128
 71
     2
 72
     1
 73
     5
  0
VERTEX
  5
A3A
330
A1C
100
AcDbEntity
  8
0
 62
     7
100
AcDbFaceRecord
 10
0.0
 20
0.0
 30
0.0
 70
   128
 71
     6
 72
     2
 73
     5
  0
VERTEX
  5
A3B
330
A1C
100
AcDbEntity
  8
0
 62
     7
100
AcDbFaceRecord
 10
0.0
 20
0.0
 30
0.0
 70
   128
 71
     7
 72
     5
 73
     1
  0
VERTEX
  5
A3C
330
A1C
100
AcDbEntity
  8
0
 62
     7
100
AcDbFaceRecord
 10
0.0
 20
0.0
 30
0.0
 70
   128
 71
     8
 72
     7
 73
     1
  0
VERTEX
  5
A3D
330
A1C
100
AcDbEntity
  8
0
 62
     7
100
AcDbFaceRecord
 10
0.0
 20
0.0
 30
0.0
 70
   128
 71
     1
 72
     4
 73
     9
  0
VERTEX
  5
A3E
330
A1C
100
AcDbEntity
  8
0
 62
     7
100
AcDbFaceRecord
 10
0.0
 20
0.0
 30
0.0
 70
   128
 71
     8
 72
     1
 73
     9
  0
VERTEX
  5
A3F
330
A1C
100
AcDbEntity
  8
0
 62
     7
100
AcDbFaceRecord
 10
0.0
 20
0.0
 30
0.0
 70
   128
 71
    10
 72
     9
 73
     4
  0
VERTEX
  5
A40
330
A1C
100
AcDbEntity
  8
0
 62
     7
100
AcDbFaceRecord
 10
0.0
 20
0.0
 30
0.0
 70
   128
 71
    11
 72
    10
 73
     4
  0
VERTEX
  5
A41
330
A1C
100
AcDbEntity
  8
0
 62
     7
100
AcDbFaceRecord
 10
0.0
 20
0.0
 30
0.0
 70
   128
 71
     3
 72
    12
 73
     4
  0
VERTEX
  5
A42
330
A1C
100
AcDbEntity
  8
0
 62
     7
100
AcDbFaceRecord
 10
0.0
 20
0.0
 30
0.0
 70
   128
 71
    13
 72
    12
 73
     3
  0
VERTEX
  5
A43
330
A1C
100
AcDbEntity
  8
0
 62
     7
100
AcDbFaceRecord
 10
0.0
 20
0.0
 30
0.0
 70
   128
 71
    14
 72
     4
 73
    12
  0
VERTEX
  5
A44
330
A1C
100
AcDbEntity
  8
0
 62
     7
100
AcDbFaceRecord
 10
0.0
 20
0.0
 30
0.0
 70
   128
 71
    11
 72
     4
 73
    14
  0
VERTEX
  5
A45
330
A1C
100
AcDbEntity
  8
0
 62
     7
100
AcDbFaceRecord
 10
0.0
 20
0.0
 30
0.0
 70
   128
 71
    15
 72
     3
 73
    16
  0
VERTEX
  5
A46
330
A1C
100
AcDbEntity
  8
0
 62
     7
100
AcDbFaceRecord
 10
0.0
 20
0.0
 30
0.0
 70
   128
 71
    13
 72
     3
 73
    15
  0
VERTEX
  5
A47
330
A1C
100
AcDbEntity
  8
0
 62
     7
100
AcDbFaceRecord
 10
0.0
 20
0.0
 30
0.0
 70
   128
 71
    17
 72
    16
 73
     3
  0
VERTEX
  5
A48
330
A1C
100
AcDbEntity
  8
0
 62
     7
100
AcDbFaceRecord
 10
0.0
 20
0.0
 30
0.0
 70
   128
 71
     2
 72
    17
 73
     3
  0
VERTEX
  5
A49
330
A1C
100
AcDbEntity
  8
0
 62
     7
100
AcDbFaceRecord
 10
0.0
 20
0.0
 30
0.0
 70
   128
 71
    18
 72
    17
 73
     2
  0
VERTEX
  5
A4A
330
A1C
100
AcDbEntity
  8
0
 62
     7
100
AcDbFaceRecord
 10
0.0
 20
0.0
 30
0.0
 70
   128
 71
    19
 72
    18
 73
     2
  0
VERTEX
  5
A4B
330
A1C
100
AcDbEntity
  8
0
 62
     7
100
AcDbFaceRecord
 10
0.0
 20
0.0
 30
0.0
 70
   128
 71
     6
 72
    19
 73
     2
  0
VERTEX
  5
A4C
330
A1C
100
AcDbEntity
  8
0
 62
     7
100
AcDbFaceRecord
 10
0.0
 20
0.0
 30
0.0
 70
   128
 71
    20
 72
    13
 73
    15
  0
VERTEX
  5
A4D
330
A1C
100
AcDbEntity
  8
0
 62
     7
100
AcDbFaceRecord
 10
0.0
 20
0.0
 30
0.0
 70
   128
 71
     5
 72
    21
 73
     6
  0
VERTEX
  5
A4E
330
A1C
100
AcDbEntity
  8
0
 62
     7
100
AcDbFaceRecord
 10
0.0
 20
0.0
 30
0.0
 70
   128
 71
    22
 72
    20
 73
    15
  0
VERTEX
  5
A4F
330
A1C
100
AcDbEntity
  8
0
 62
     7
100
AcDbFaceRecord
 10
0.0
 20
0.0
 30
0.0
 70
   128
 71
    18
 72
    23
 73
    17
  0
VERTEX
  5
A50
330
A1C
100
AcDbEntity
  8
0
 62
     7
100
AcDbFaceRecord
 10
0.0
 20
0.0
 30
0.0
 70
   128
 71
    24
 72
    23
 73
    18
  0
VERTEX
  5
A51
330
A1C
100
AcDbEntity
  8
0
 62
     7
100
AcDbFaceRecord
 10
0.0
 20
0.0
 30
0.0
 70
   128
 71
    25
 72
    21
 73
     5
  0
VERTEX
  5
A52
330
A1C
100
AcDbEntity
  8
0
 62
     7
100
AcDbFaceRecord
 10
0.0
 20
0.0
 30
0.0
 70
   128
 71
     8
 72
     9
 73
    25
  0
VERTEX
  5
A53
330
A1C
100
AcDbEntity
  8
0
 62
     7
100
AcDbFaceRecord
 10
0.0
 20
0.0
 30
0.0
 70
   128
 71
     7
 72
     8
 73
    25
  0
VERTEX
  5
A54
330
A1C
100
AcDbEntity
  8
0
 62
     7
100
AcDbFaceRecord
 10
0.0
 20
0.0
 30
0.0
 70
   128
 71
     7
 72
    25
 73
     5
  0
VERTEX
  5
A55
330
A1C
100
AcDbEntity
  8
0
 62
     7
100
AcDbFaceRecord
 10
0.0
 20
0.0
 30
0.0
 70
   128
 71
    19
 72
     6
 73
    21
  0
VERTEX
  5
A56
330
A1C
100
AcDbEntity
  8
0
 62
     7
100
AcDbFaceRecord
 10
0.0
 20
0.0
 30
0.0
 70
   128
 71
    24
 72
    19
 73
    21
  0
VERTEX
  5
A57
330
A1C
100
AcDbEntity
  8
0
 62
     7
100
AcDbFaceRecord
 10
0.0
 20
0.0
 30
0.0
 70
   128
 71
    19
 72
    24
 73
    18
  0
VERTEX
  5
A58
330
A1C
100
AcDbEntity
  8
0
 62
     7
100
AcDbFaceRecord
 10
0.0
 20
0.0
 30
0.0
 70
   128
 71
    22
 72
    17
 73
    23
  0
VERTEX
  5
A59
330
A1C
100
AcDbEntity
  8
0
 62
     7
100
AcDbFaceRecord
 10
0.0
 20
0.0
 30
0.0
 70
   128
 71
    16
 72
    17
 73
    22
  0
VERTEX
  5
A5A
330
A1C
100
AcDbEntity
  8
0
 62
     7
100
AcDbFaceRecord
 10
0.0
 20
0.0
 30
0.0
 70
   128
 71
    16
 72
    22
 73
    15
  0
VERTEX
  5
A5B
330
A1C
100
AcDbEntity
  8
0
 62
     7
100
AcDbFaceRecord
 10
0.0
 20
0.0
 30
0.0
 70
   128
 71
    12
 72
    13
 73
    20
  0
VERTEX
  5
A5C
330
A1C
100
AcDbEntity
  8
0
 62
     7
100
AcDbFaceRecord
 10
0.0
 20
0.0
 30
0.0
 70
   128
 71
    26
 72
    12
 73
    20
  0
VERTEX
  5
A5D
330
A1C
100
AcDbEntity
  8
0
 62
     7
100
AcDbFaceRecord
 10
0.0
 20
0.0
 30
0.0
 70
   128
 71
    14
 72
    12
 73
    26
  0
VERTEX
  5
A5E
330
A1C
100
AcDbEntity
  8
0
 62
     7
100
AcDbFaceRecord
 10
0.0
 20
0.0
 30
0.0
 70
   128
 71
    11
 72
    14
 73
    26
  0
VERTEX
  5
A5F
330
A1C
100
AcDbEntity
  8
0
 62
     7
100
AcDbFaceRecord
 10
0.0
 20
0.0
 30
0.0
 70
   128
 71
    10
 72
    11
 73
    26
  0
VERTEX
  5
A60
330
A1C
100
AcDbEntity
  8
0
 62
     7
100
AcDbFaceRecord
 10
0.0
 20
0.0
 30
0.0
 70
   128
 71
    21
 72
    25
 73
    10
  0
VERTEX
  5
A61
330
A1C
100
AcDbEntity
  8
0
 62
     7
100
AcDbFaceRecord
 10
0.0
 20
0.0
 30
0.0
 70
   128
 71
    24
 72
    21
 73
    10
  0
VERTEX
  5
A62
330
A1C
100
AcDbEntity
  8
0
 62
     7
100
AcDbFaceRecord
 10
0.0
 20
0.0
 30
0.0
 70
   128
 71
    23
 72
    24
 73
    10
  0
VERTEX
  5
A63
330
A1C
100
AcDbEntity
  8
0
 62
     7
100
AcDbFaceRecord
 10
0.0
 20
0.0
 30
0.0
 70
   128
 71
    22
 72
    23
 73
    10
  0
VERTEX
  5
A64
330
A1C
100
AcDbEntity
  8
0
 62
     7
100
AcDbFaceRecord
 10
0.0
 20
0.0
 30
0.0
 70
   128
 71
    20
 72
    22
 73
    10
  0
VERTEX
  5
A65
330
A1C
100
AcDbEntity
  8
0
 62
     7
100
AcDbFaceRecord
 10
0.0
 20
0.0
 30
0.0
 70
   128
 71
    26
 72
    20
 73
    10
  0
VERTEX
  5
A66
330
A1C
100
AcDbEntity
  8
0
 62
     7
100
AcDbFaceRecord
 10
0.0
 20
0.0
 30
0.0
 70
   128
 71
     9
 72
    10
 73
    25
  0
SEQEND
  5
A67
330
A1C
100
AcDbEntity
  8
0
 62
     7
  0
INSERT
  5
A68
330
1F
100
AcDbEntity
  8
0
100
AcDbBlockReference
 66
     1
  2
RM_SDB
 10
-5.026312836837519
 20
0.0
 30
-3.500000010248346
1001
AVE_MATERIAL
1002
{
1000
*GLOBAL*01
1000
2
1000

1002
{
1002
}
1002
{
1070
    39
1002
{
1002
{
1010
1.428571462631224
1020
1.428571462631224
1030
1.428571462631224
1002
}
1040
0.6999999880790711
1000

1040
0.0
1002
{
1002
}
1040
0.0
1002
{
1002
}
1040
0.0
1002
}
1002
{
1002
{
1010
1.0
1020
1.0
1030
1.0
1002
}
1040
1.0
1000

1040
0.0
1002
{
1002
}
1040
0.0
1002
{
1002
}
1040
0.0
1002
}
1002
{
1002
{
1010
5.0
1020
5.0
1030
5.0
1002
}
1040
0.2000000029802322
1000

1040
0.0
1002
{
1002
}
1040
0.0
1002
{
1002
}
1040
0.0
1002
}
1002
{
1070
     0
1002
{
1070
     1
1002
{
1040
1.0
1040
1.0
1000

1040
0.0
1002
{
1002
}
1040
0.0
1002
{
1002
}
1040
0.0
1002
}
1002
}
1040
0.0
1040
0.0
1040
0.0
1002
}
1002
{
1040
0.0
1040
0.0
1000

1040
0.0
1002
{
1002
}
1040
0.0
1002
{
1002
}
1040
0.0
1002
}
1002
{
1040
0.5
1040
1.0
1000

1040
0.0
1002
{
1002
}
1040
0.0
1002
{
1002
}
1040
0.0
1002
}
1002
{
1070
     0
1040
0.0
1002
{
1002
}
1040
0.0
1002
{
1002
}
1040
0.0
1002
}
1002
{
1040
0.0
1002
{
1002
{
1010
0.0
1020
0.0
1030
0.0
1002
}
1040
0.0
1000

1040
0.0
1002
{
1002
}
1040
0.0
1002
{
1002
}
1040
0.0
1002
}
1002
}
1002
{
1002
{
1070
     1
1002
{
1040
0.0
1040
1.0
1000

1040
0.0
1002
{
1002
}
1040
0.0
1002
{
1002
}
1040
0.0
1002
}
1002
}
1040
0.0
1002
{
1002
}
1010
0.0
1020
0.0
1030
0.0
1010
0.0
1020
0.0
1030
0.0
1010
0.0
1020
0.0
1030
0.0
1070
     0
1002
}
1002
{
1002
{
1040
0.0
1040
0.0
1002
{
1070
     0
1002
}
1002
}
1070
     0
1040
0.0
1002
{
1002
}
1002
}
1002
{
1002
}
1002
}
1002
{
1071
        3
1070
     3
1070
     0
1002
{
1070
     2
1070
     1
1070
     0
1040
0.0
1002
}
1070
     0
1070
     2
1002
{
1002
}
1002
}
1002
{
1040
8030.0
1040
190.3000030517578
1040
0.3050000071525574
1040
228.0
1040
545.0
1040
14.0
1040
17.39999961853027
1040
0.4560000002384186
1002
}
1000
98C
1002
}
  0
ATTRIB
  5
A69
330
A68
100
AcDbEntity
  8
0
100
AcDbText
 10
-5.026312836837519
 20
0.0
 30
-3.500000010248346
 40
0.2
  1
*GLOBAL*01
100
AcDbAttribute
  2
NAME
 70
     1
  0
ATTRIB
  5
A6A
330
A68
100
AcDbEntity
  8
0
100
AcDbText
 10
-5.026312836837519
 20
0.0
 30
-3.500000010248346
 40
0.2
  1

100
AcDbAttribute
  2
ACADCOLOR
 70
     1
  0
ATTRIB
  5
A6B
330
A68
100
AcDbEntity
  8
0
100
AcDbText
 10
-5.026312836837519
 20
0.0
 30
-3.500000010248346
 40
0.2
  1
1.0000,1.0000,1.0000
100
AcDbAttribute
  2
COLOR
 70
     1
  0
ATTRIB
  5
A6C
330
A68
100
AcDbEntity
  8
0
100
AcDbText
 10
-5.026312836837519
 20
0.0
 30
-3.500000010248346
 40
0.2
  1
1.0,1.0,1.0
100
AcDbAttribute
  2
OPACITY
 70
     1
  0
ATTRIB
  5
A6D
330
A68
100
AcDbEntity
  8
0
100
AcDbText
 10
-5.026312836837519
 20
0.0
 30
-3.500000010248346
 40
0.2
  1
("nullsurf" "")
100
AcDbAttribute
  2
SURFACE
 70
     1
  0
ATTRIB
  5
A6E
330
A68
100
AcDbEntity
  8
0
100
AcDbText
 10
-5.026312836837519
 20
0.0
 30
-3.500000010248346
 40
0.2
  1
(11 "Ka" "0.7")(11 "Kd" "1")(11 "Ks" "0.2")(11 "roughness" "0.5")
100
AcDbAttribute
  2
SURF1
 70
     1
  0
ATTRIB
  5
A6F
330
A68
100
AcDbEntity
  8
0
100
AcDbText
 10
-5.026312836837519
 20
0.0
 30
-3.500000010248346
 40
0.2
  1

100
AcDbAttribute
  2
SURF2
 70
     1
  0
ATTRIB
  5
A70
330
A68
100
AcDbEntity
  8
0
100
AcDbText
 10
-5.026312836837519
 20
0.0
 30
-3.500000010248346
 40
0.2
  1

100
AcDbAttribute
  2
SURF3
 70
     1
  0
ATTRIB
  5
A71
330
A68
100
AcDbEntity
  8
0
100
AcDbText
 10
-5.026312836837519
 20
0.0
 30
-3.500000010248346
 40
0.2
  1

100
AcDbAttribute
  2
SURF4
 70
     1
  0
ATTRIB
  5
A72
330
A68
100
AcDbEntity
  8
0
100
AcDbText
 10
-5.026312836837519
 20
0.0
 30
-3.500000010248346
 40
0.2
  1
-1.0
100
AcDbAttribute
  2
SHADINGRATE
 70
     1
  0
ATTRIB
  5
A73
330
A68
100
AcDbEntity
  8
0
100
AcDbText
 10
-5.026312836837519
 20
0.0
 30
-3.500000010248346
 40
0.2
  1
("nulldisp" "")
100
AcDbAttribute
  2
DISPLACEMENT
 70
     1
  0
ATTRIB
  5
A74
330
A68
100
AcDbEntity
  8
0
100
AcDbText
 10
-5.026312836837519
 20
0.0
 30
-3.500000010248346
 40
0.2
  1

100
AcDbAttribute
  2
DISP1
 70
     1
  0
ATTRIB
  5
A75
330
A68
100
AcDbEntity
  8
0
100
AcDbText
 10
-5.026312836837519
 20
0.0
 30
-3.500000010248346
 40
0.2
  1

100
AcDbAttribute
  2
DISP2
 70
     1
  0
ATTRIB
  5
A76
330
A68
100
AcDbEntity
  8
0
100
AcDbText
 10
-5.026312836837519
 20
0.0
 30
-3.500000010248346
 40
0.2
  1

100
AcDbAttribute
  2
DISP3
 70
     1
  0
ATTRIB
  5
A77
330
A68
100
AcDbEntity
  8
0
100
AcDbText
 10
-5.026312836837519
 20
0.0
 30
-3.500000010248346
 40
0.2
  1

100
AcDbAttribute
  2
DISP4
 70
     1
  0
ATTRIB
  5
A78
330
A68
100
AcDbEntity
  8
0
100
AcDbText
 10
-5.026312836837519
 20
0.0
 30
-3.500000010248346
 40
0.2
  1
0.0
100
AcDbAttribute
  2
DBOUND
 70
     1
  0
ATTRIB
  5
A79
330
A68
100
AcDbEntity
  8
0
100
AcDbText
 10
-5.026312836837519
 20
0.0
 30
-3.500000010248346
 40
0.2
  1
0
100
AcDbAttribute
  2
SMOOTH
 70
     1
  0
ATTRIB
  5
A7A
330
A68
100
AcDbEntity
  8
0
100
AcDbText
 10
-5.026312836837519
 20
0.0
 30
-3.500000010248346
 40
0.2
  1
("" "")
100
AcDbAttribute
  2
ATMOSHPERE
 70
     1
  0
ATTRIB
  5
A7B
330
A68
100
AcDbEntity
  8
0
100
AcDbText
 10
-5.026312836837519
 20
0.0
 30
-3.500000010248346
 40
0.2
  1

100
AcDbAttribute
  2
ATMO1
 70
     1
  0
ATTRIB
  5
A7C
330
A68
100
AcDbEntity
  8
0
100
AcDbText
 10
-5.026312836837519
 20
0.0
 30
-3.500000010248346
 40
0.2
  1

100
AcDbAttribute
  2
ATMO2
 70
     1
  0
ATTRIB
  5
A7D
330
A68
100
AcDbEntity
  8
0
100
AcDbText
 10
-5.026312836837519
 20
0.0
 30
-3.500000010248346
 40
0.2
  1

100
AcDbAttribute
  2
ATMO3
 70
     1
  0
ATTRIB
  5
A7E
330
A68
100
AcDbEntity
  8
0
100
AcDbText
 10
-5.026312836837519
 20
0.0
 30
-3.500000010248346
 40
0.2
  1

100
AcDbAttribute
  2
ATMO4
 70
     1
  0
ATTRIB
  5
A7F
330
A68
100
AcDbEntity
  8
0
100
AcDbText
 10
-5.026312836837519
 20
0.0
 30
-3.500000010248346
 40
0.2
  1
0.0 0.0 1.0 0.0 0.0 1.0 1.0 1.0
100
AcDbAttribute
  2
TCCORD
 70
     1
  0
SEQEND
  5
A80
330
A68
100
AcDbEntity
  8
0
  0
ENDSEC
  0
SECTION
  2
OBJECTS
  0
DICTIONARY
  5
C
330
0
100
AcDbDictionary
281
     1
  3
ACAD_COLOR
350
7B7
  3
ACAD_GROUP
350
D
  3
ACAD_LAYOUT
350
1A
  3
ACAD_MATERIAL
350
7B6
  3
ACAD_MLEADERSTYLE
350
8E8
  3
ACAD_MLINESTYLE
350
17
  3
ACAD_PLOTSETTINGS
350
19
  3
ACAD_PLOTSTYLENAME
350
E
  3
ACAD_SCALELIST
350
8C6
  3
ACAD_TABLESTYLE
350
7B8
  3
ACAD_VISUALSTYLE
350
8B5
  3
ACDB_RECOMPOSE_DATA
350
9A2
  3
AcDbVariableDictionary
350
7AF
  3
AVE_ACITABLE
350
8F8
  3
DWGPROPS
350
A82
  0
DICTIONARY
  5
994
330
10
100
AcDbDictionary
280
     1
281
     1
  3
ADSK_XREC_LAYER_RECONCILED
360
995
  0
DICTIONARY
  5
996
330
D2
100
AcDbDictionary
280
     1
281
     1
  3
ADSK_XREC_LAYER_RECONCILED
360
997
  0
DICTIONARY
  5
998
330
798
100
AcDbDictionary
280
     1
281
     1
  3
ADSK_XREC_LAYER_RECONCILED
360
999
  0
DICTIONARY
  5
99A
330
8F3
100
AcDbDictionary
280
     1
281
     1
  3
ADSK_XREC_LAYER_RECONCILED
360
99B
  0
DICTIONARY
  5
7B7
102
{ACAD_REACTORS
330
C
102
}
330
C
100
AcDbDictionary
281
     1
  0
DICTIONARY
  5
D
102
{ACAD_REACTORS
330
C
102
}
330
C
100
AcDbDictionary
281
     1
  0
DICTIONARY
  5
1A
102
{ACAD_REACTORS
330
C
102
}
330
C
100
AcDbDictionary
281
     1
  3
Layout1
350
1E
  3
Layout2
350
26
  3
Model
350
22
  0
DICTIONARY
  5
7B6
102
{ACAD_REACTORS
330
C
102
}
330
C
100
AcDbDictionary
281
     1
  3
_GLOBAL_01
350
98C
  3
ByBlock
350
8A5
  3
ByLayer
350
89D
  3
Global
350
8AD
  0
DICTIONARY
  5
8E8
102
{ACAD_REACTORS
330
C
102
}
330
C
100
AcDbDictionary
281
     1
  3
Standard
350
8E9
  0
DICTIONARY
  5
17
102
{ACAD_REACTORS
330
C
102
}
330
C
100
AcDbDictionary
281
     1
  3
Standard
350
18
  0
DICTIONARY
  5
19
102
{ACAD_REACTORS
330
C
102
}
330
C
100
AcDbDictionary
281
     1
  0
ACDBDICTIONARYWDFLT
  5
E
102
{ACAD_REACTORS
330
C
102
}
330
C
100
AcDbDictionary
281
     1
  3
Normal
350
F
100
AcDbDictionaryWithDefault
340
F
  0
DICTIONARY
  5
8C6
102
{ACAD_REACTORS
330
C
102
}
330
C
100
AcDbDictionary
281
     1
  3
A0
350
8C7
  3
A1
350
8C8
  3
A2
350
8C9
  3
A3
350
8CA
  3
A4
350
8CB
  3
A5
350
8CC
  3
A6
350
8CD
  3
A7
350
8CE
  3
A8
350
8CF
  3
A9
350
8D0
  3
B0
350
8D1
  3
B1
350
8D2
  3
B2
350
8D3
  3
B3
350
8D4
  3
B4
350
8D5
  3
B5
350
8D6
  3
B6
350
8D7
  3
B7
350
8D8
  3
B8
350
8D9
  3
B9
350
8DA
  3
C0
350
8DB
  3
C1
350
8DC
  3
C2
350
8DD
  3
C3
350
8DE
  3
C4
350
8DF
  3
C5
350
8E0
  3
C6
350
8E1
  3
C7
350
8E2
  3
C8
350
8E3
  3
C9
350
8E4
  3
D0
350
8E5
  3
D1
350
8E6
  3
D2
350
8E7
  0
DICTIONARY
  5
7B8
102
{ACAD_REACTORS
330
C
102
}
330
C
100
AcDbDictionary
281
     1
  3
Standard
350
7B9
  0
DICTIONARY
  5
8B5
102
{ACAD_REACTORS
330
C
102
}
330
C
100
AcDbDictionary
281
     1
  3
2dWireframe
350
8BB
  3
3D Hidden
350
8BD
  3
3dWireframe
350
8BC
  3
Basic
350
8BA
  3
Brighten
350
8C1
  3
ColorChange
350
8C5
  3
Conceptual
350
8BE
  3
Dim
350
8C0
  3
Facepattern
350
8C4
  3
Flat
350
8B6
  3
FlatWithEdges
350
8B7
  3
Gouraud
350
8B8
  3
GouraudWithEdges
350
8B9
  3
Linepattern
350
8C3
  3
Realistic
350
8BF
  3
Thicken
350
8C2
  0
XRECORD
  5
9A2
102
{ACAD_REACTORS
330
C
102
}
330
C
100
AcDbXrecord
280
     1
 90
        1
330
7B9
  0
DICTIONARY
  5
7AF
102
{ACAD_REACTORS
330
C
102
}
330
C
100
AcDbDictionary
281
     1
  3
CANNOSCALE
350
99D
  3
CMLEADERSTYLE
350
99C
  3
CTABLESTYLE
350
7C8
  3
DIMASSOC
350
7B0
  3
HIDETEXT
350
891
  3
INDEXCTL
350
99F
  3
SORTENTS
350
99E
  0
DICTIONARY
  5
8F8
102
{ACAD_REACTORS
330
C
102
}
330
C
100
AcDbDictionary
281
     1
  0
XRECORD
  5
A82
102
{ACAD_REACTORS
330
C
102
}
330
C
100
AcDbXrecord
280
     1
  1
DWGPROPS COOKIE
  2

  3

  4

  6

  7

  8
Christian
  9

300
=
301
=
302
=
303
=
304
=
305
=
306
=
307
=
308
=
309
=
 40
0.5815570601851852
 41
2452587.497350764
 42
2454459.464857789
  1

 90
        0
  0
XRECORD
  5
995
102
{ACAD_REACTORS
330
994
102
}
330
994
100
AcDbXrecord
280
     1
290
     1
  0
XRECORD
  5
997
102
{ACAD_REACTORS
330
996
102
}
330
996
100
AcDbXrecord
280
     1
290
     1
  0
XRECORD
  5
999
102
{ACAD_REACTORS
330
998
102
}
330
998
100
AcDbXrecord
280
     1
290
     1
  0
XRECORD
  5
99B
102
{ACAD_REACTORS
330
99A
102
}
330
99A
100
AcDbXrecord
280
     1
290
     1
  0
LAYOUT
  5
1E
102
{ACAD_XDICTIONARY
360
A83
102
}
102
{ACAD_REACTORS
330
1A
102
}
330
1A
100
AcDbPlotSettings
  1

  2

  4

  6

 40
0.0
 41
0.0
 42
0.0
 43
0.0
 44
0.0
 45
0.0
 46
0.0
 47
0.0
 48
0.0
 49
0.0
140
0.0
141
0.0
142
1.0
143
1.0
 70
   688
 72
     0
 73
     0
 74
     5
  7

 75
    16
147
1.0
148
0.0
149
0.0
100
AcDbLayout
  1
Layout1
 70
     1
 71
     1
 10
0.0
 20
0.0
 11
12.0
 21
9.0
 12
0.0
 22
0.0
 32
0.0
 14
1.000000000000000E+20
 24
1.000000000000000E+20
 34
1.000000000000000E+20
 15
-1.000000000000000E+20
 25
-1.000000000000000E+20
 35
-1.000000000000000E+20
146
0.0
 13
0.0
 23
0.0
 33
0.0
 16
1.0
 26
0.0
 36
0.0
 17
0.0
 27
1.0
 37
0.0
 76
     0
330
1B
  0
LAYOUT
  5
26
102
{ACAD_XDICTIONARY
360
A87
102
}
102
{ACAD_REACTORS
330
1A
102
}
330
1A
100
AcDbPlotSettings
  1

  2

  4

  6

 40
0.0
 41
0.0
 42
0.0
 43
0.0
 44
0.0
 45
0.0
 46
0.0
 47
0.0
 48
0.0
 49
0.0
140
0.0
141
0.0
142
1.0
143
1.0
 70
   688
 72
     0
 73
     0
 74
     5
  7

 75
    16
147
1.0
148
0.0
149
0.0
100
AcDbLayout
  1
Layout2
 70
     1
 71
     2
 10
0.0
 20
0.0
 11
12.0
 21
9.0
 12
0.0
 22
0.0
 32
0.0
 14
0.0
 24
0.0
 34
0.0
 15
0.0
 25
0.0
 35
0.0
146
0.0
 13
0.0
 23
0.0
 33
0.0
 16
1.0
 26
0.0
 36
0.0
 17
0.0
 27
1.0
 37
0.0
 76
     0
330
23
  0
LAYOUT
  5
22
102
{ACAD_XDICTIONARY
360
A85
102
}
102
{ACAD_REACTORS
330
1A
102
}
330
1A
100
AcDbPlotSettings
  1

  2
EPSON Stylus C80 Series
  4
Letter
  6

 40
3.757083177566528
 41
14.76376056671143
 42
3.757080078125
 43
3.757080078125
 44
215.8999938964844
 45
279.3999938964844
 46
0.0
 47
0.0
 48
0.0
 49
0.0
140
0.0
141
0.0
142
1.0
143
1.0
 70
 11952
 72
     0
 73
     1
 74
     0
  7

 75
     0
147
1.0
148
-32.82152498042917
149
339.8261437359589
100
AcDbLayout
  1
Model
 70
     1
 71
     0
 10
0.0
 20
0.0
 11
12.0
 21
9.0
 12
0.0
 22
0.0
 32
0.0
 14
0.0
 24
0.0
 34
0.0
 15
0.0
 25
0.0
 35
0.0
146
0.0
 13
0.0
 23
0.0
 33
0.0
 16
1.0
 26
0.0
 36
0.0
 17
0.0
 27
1.0
 37
0.0
 76
     0
330
1F
331
88E
  0
MATERIAL
  5
98C
102
{ACAD_XDICTIONARY
360
98D
102
}
102
{ACAD_REACTORS
330
7B6
102
}
330
7B6
100
AcDbMaterial
  1
_GLOBAL_01
 70
     1
 40
0.6999999880790711
 90
-1033081748
 71
     1
 91
-1023410177
 72
     0
 76
     1
 45
0.2000000029802322
 92
-1023673349
 77
     0
171
     0
175
     0
179
     0
  0
MATERIAL
  5
8A5
102
{ACAD_XDICTIONARY
360
8A6
102
}
102
{ACAD_REACTORS
330
7B6
102
}
330
7B6
100
AcDbMaterial
  1
ByBlock
 72
     0
 43
0.0208333333333333
 43
0.0
 43
0.0
 43
0.0
 43
0.0
 43
0.0208333333333333
 43
0.0
 43
0.0
 43
0.0
 43
0.0
 43
1.0
 43
0.0
 43
0.0
 43
0.0
 43
0.0
 43
1.0
 77
     0
 47
0.0208333333333333
 47
0.0
 47
0.0
 47
0.0
 47
0.0
 47
0.0208333333333333
 47
0.0
 47
0.0
 47
0.0
 47
0.0
 47
1.0
 47
0.0
 47
0.0
 47
0.0
 47
0.0
 47
1.0
171
     0
 49
0.0208333333333333
 49
0.0
 49
0.0
 49
0.0
 49
0.0
 49
0.0208333333333333
 49
0.0
 49
0.0
 49
0.0
 49
0.0
 49
1.0
 49
0.0
 49
0.0
 49
0.0
 49
0.0
 49
1.0
175
     0
142
0.0208333333333333
142
0.0
142
0.0
142
0.0
142
0.0
142
0.0208333333333333
142
0.0
142
0.0
142
0.0
142
0.0
142
1.0
142
0.0
142
0.0
142
0.0
142
0.0
142
1.0
179
     0
144
0.0208333333333333
144
0.0
144
0.0
144
0.0
144
0.0
144
0.0208333333333333
144
0.0
144
0.0
144
0.0
144
0.0
144
1.0
144
0.0
144
0.0
144
0.0
144
0.0
144
1.0
147
0.0208333333333333
147
0.0
147
0.0
147
0.0
147
0.0
147
0.0208333333333333
147
0.0
147
0.0
147
0.0
147
0.0
147
1.0
147
0.0
147
0.0
147
0.0
147
0.0
147
1.0
  0
MATERIAL
  5
89D
102
{ACAD_XDICTIONARY
360
89E
102
}
102
{ACAD_REACTORS
330
7B6
102
}
330
7B6
100
AcDbMaterial
  1
ByLayer
 72
     0
 43
0.0208333333333333
 43
0.0
 43
0.0
 43
0.0
 43
0.0
 43
0.0208333333333333
 43
0.0
 43
0.0
 43
0.0
 43
0.0
 43
1.0
 43
0.0
 43
0.0
 43
0.0
 43
0.0
 43
1.0
 77
     0
 47
0.0208333333333333
 47
0.0
 47
0.0
 47
0.0
 47
0.0
 47
0.0208333333333333
 47
0.0
 47
0.0
 47
0.0
 47
0.0
 47
1.0
 47
0.0
 47
0.0
 47
0.0
 47
0.0
 47
1.0
171
     0
 49
0.0208333333333333
 49
0.0
 49
0.0
 49
0.0
 49
0.0
 49
0.0208333333333333
 49
0.0
 49
0.0
 49
0.0
 49
0.0
 49
1.0
 49
0.0
 49
0.0
 49
0.0
 49
0.0
 49
1.0
175
     0
142
0.0208333333333333
142
0.0
142
0.0
142
0.0
142
0.0
142
0.0208333333333333
142
0.0
142
0.0
142
0.0
142
0.0
142
1.0
142
0.0
142
0.0
142
0.0
142
0.0
142
1.0
179
     0
144
0.0208333333333333
144
0.0
144
0.0
144
0.0
144
0.0
144
0.0208333333333333
144
0.0
144
0.0
144
0.0
144
0.0
144
1.0
144
0.0
144
0.0
144
0.0
144
0.0
144
1.0
147
0.0208333333333333
147
0.0
147
0.0
147
0.0
147
0.0
147
0.0208333333333333
147
0.0
147
0.0
147
0.0
147
0.0
147
1.0
147
0.0
147
0.0
147
0.0
147
0.0
147
1.0
  0
MATERIAL
  5
8AD
102
{ACAD_XDICTIONARY
360
8AE
102
}
102
{ACAD_REACTORS
330
7B6
102
}
330
7B6
100
AcDbMaterial
  1
Global
 72
     0
 43
0.0208333333333333
 43
0.0
 43
0.0
 43
0.0
 43
0.0
 43
0.0208333333333333
 43
0.0
 43
0.0
 43
0.0
 43
0.0
 43
1.0
 43
0.0
 43
0.0
 43
0.0
 43
0.0
 43
1.0
 77
     0
 47
0.0208333333333333
 47
0.0
 47
0.0
 47
0.0
 47
0.0
 47
0.0208333333333333
 47
0.0
 47
0.0
 47
0.0
 47
0.0
 47
1.0
 47
0.0
 47
0.0
 47
0.0
 47
0.0
 47
1.0
171
     0
 49
0.0208333333333333
 49
0.0
 49
0.0
 49
0.0
 49
0.0
 49
0.0208333333333333
 49
0.0
 49
0.0
 49
0.0
 49
0.0
 49
1.0
 49
0.0
 49
0.0
 49
0.0
 49
0.0
 49
1.0
175
     0
142
0.0208333333333333
142
0.0
142
0.0
142
0.0
142
0.0
142
0.0208333333333333
142
0.0
142
0.0
142
0.0
142
0.0
142
1.0
142
0.0
142
0.0
142
0.0
142
0.0
142
1.0
179
     0
144
0.0208333333333333
144
0.0
144
0.0
144
0.0
144
0.0
144
0.0208333333333333
144
0.0
144
0.0
144
0.0
144
0.0
144
1.0
144
0.0
144
0.0
144
0.0
144
0.0
144
1.0
147
0.0208333333333333
147
0.0
147
0.0
147
0.0
147
0.0
147
0.0208333333333333
147
0.0
147
0.0
147
0.0
147
0.0
147
1.0
147
0.0
147
0.0
147
0.0
147
0.0
147
1.0
  0
MLEADERSTYLE
  5
8E9
102
{ACAD_REACTORS
330
8E8
102
}
330
8E8
100
AcDbMLeaderStyle
170
     2
171
     1
172
     0
 90
        2
 40
0.0
 41
0.0
173
     1
 91
-1056964608
340
14
 92
       -2
290
     1
 42
0.09
291
     1
 43
0.36
  3
Standard
 44
0.18
300

342
11
174
     1
178
     6
175
     1
176
     0
 93
-1056964608
 45
0.18
292
     0
297
     0
 46
0.18
 94
-1056964608
 47
1.0
 49
1.0
140
1.0
293
     1
141
0.0
294
     1
177
     0
142
1.0
295
     0
296
     0
143
0.125
1001
ACAD_MLEADERVER
1070
     2
  0
MLINESTYLE
  5
18
102
{ACAD_REACTORS
330
17
102
}
330
17
100
AcDbMlineStyle
  2
STANDARD
 70
     0
  3

 62
   256
 51
90.0
 52
90.0
 71
     2
 49
0.5
 62
   256
  6
BYLAYER
 49
-0.5
 62
   256
  6
BYLAYER
  0
ACDBPLACEHOLDER
  5
F
102
{ACAD_REACTORS
330
E
102
}
330
E
  0
SCALE
  5
8C7
102
{ACAD_REACTORS
330
8C6
102
}
330
8C6
100
AcDbScale
 70
     0
300
1:1
140
1.0
141
1.0
290
     1
  0
SCALE
  5
8C8
102
{ACAD_REACTORS
330
8C6
102
}
330
8C6
100
AcDbScale
 70
     0
300
1:2
140
1.0
141
2.0
290
     0
  0
SCALE
  5
8C9
102
{ACAD_REACTORS
330
8C6
102
}
330
8C6
100
AcDbScale
 70
     0
300
1:4
140
1.0
141
4.0
290
     0
  0
SCALE
  5
8CA
102
{ACAD_REACTORS
330
8C6
102
}
330
8C6
100
AcDbScale
 70
     0
300
1:5
140
1.0
141
5.0
290
     0
  0
SCALE
  5
8CB
102
{ACAD_REACTORS
330
8C6
102
}
330
8C6
100
AcDbScale
 70
     0
300
1:8
140
1.0
141
8.0
290
     0
  0
SCALE
  5
8CC
102
{ACAD_REACTORS
330
8C6
102
}
330
8C6
100
AcDbScale
 70
     0
300
1:10
140
1.0
141
10.0
290
     0
  0
SCALE
  5
8CD
102
{ACAD_REACTORS
330
8C6
102
}
330
8C6
100
AcDbScale
 70
     0
300
1:16
140
1.0
141
16.0
290
     0
  0
SCALE
  5
8CE
102
{ACAD_REACTORS
330
8C6
102
}
330
8C6
100
AcDbScale
 70
     0
300
1:20
140
1.0
141
20.0
290
     0
  0
SCALE
  5
8CF
102
{ACAD_REACTORS
330
8C6
102
}
330
8C6
100
AcDbScale
 70
     0
300
1:30
140
1.0
141
30.0
290
     0
  0
SCALE
  5
8D0
102
{ACAD_REACTORS
330
8C6
102
}
330
8C6
100
AcDbScale
 70
     0
300
1:40
140
1.0
141
40.0
290
     0
  0
SCALE
  5
8D1
102
{ACAD_REACTORS
330
8C6
102
}
330
8C6
100
AcDbScale
 70
     0
300
1:50
140
1.0
141
50.0
290
     0
  0
SCALE
  5
8D2
102
{ACAD_REACTORS
330
8C6
102
}
330
8C6
100
AcDbScale
 70
     0
300
1:100
140
1.0
141
100.0
290
     0
  0
SCALE
  5
8D3
102
{ACAD_REACTORS
330
8C6
102
}
330
8C6
100
AcDbScale
 70
     0
300
2:1
140
2.0
141
1.0
290
     0
  0
SCALE
  5
8D4
102
{ACAD_REACTORS
330
8C6
102
}
330
8C6
100
AcDbScale
 70
     0
300
4:1
140
4.0
141
1.0
290
     0
  0
SCALE
  5
8D5
102
{ACAD_REACTORS
330
8C6
102
}
330
8C6
100
AcDbScale
 70
     0
300
8:1
140
8.0
141
1.0
290
     0
  0
SCALE
  5
8D6
102
{ACAD_REACTORS
330
8C6
102
}
330
8C6
100
AcDbScale
 70
     0
300
10:1
140
10.0
141
1.0
290
     0
  0
SCALE
  5
8D7
102
{ACAD_REACTORS
330
8C6
102
}
330
8C6
100
AcDbScale
 70
     0
300
100:1
140
100.0
141
1.0
290
     0
  0
SCALE
  5
8D8
102
{ACAD_REACTORS
330
8C6
102
}
330
8C6
100
AcDbScale
 70
     0
300
1/128" = 1'-0"
140
0.0078125
141
12.0
290
     0
  0
SCALE
  5
8D9
102
{ACAD_REACTORS
330
8C6
102
}
330
8C6
100
AcDbScale
 70
     0
300
1/64" = 1'-0"
140
0.015625
141
12.0
290
     0
  0
SCALE
  5
8DA
102
{ACAD_REACTORS
330
8C6
102
}
330
8C6
100
AcDbScale
 70
     0
300
1/32" = 1'-0"
140
0.03125
141
12.0
290
     0
  0
SCALE
  5
8DB
102
{ACAD_REACTORS
330
8C6
102
}
330
8C6
100
AcDbScale
 70
     0
300
1/16" = 1'-0"
140
0.0625
141
12.0
290
     0
  0
SCALE
  5
8DC
102
{ACAD_REACTORS
330
8C6
102
}
330
8C6
100
AcDbScale
 70
     0
300
3/32" = 1'-0"
140
0.09375
141
12.0
290
     0
  0
SCALE
  5
8DD
102
{ACAD_REACTORS
330
8C6
102
}
330
8C6
100
AcDbScale
 70
     0
300
1/8" = 1'-0"
140
0.125
141
12.0
290
     0
  0
SCALE
  5
8DE
102
{ACAD_REACTORS
330
8C6
102
}
330
8C6
100
AcDbScale
 70
     0
300
3/16" = 1'-0"
140
0.1875
141
12.0
290
     0
  0
SCALE
  5
8DF
102
{ACAD_REACTORS
330
8C6
102
}
330
8C6
100
AcDbScale
 70
     0
300
1/4" = 1'-0"
140
0.25
141
12.0
290
     0
  0
SCALE
  5
8E0
102
{ACAD_REACTORS
330
8C6
102
}
330
8C6
100
AcDbScale
 70
     0
300
3/8" = 1'-0"
140
0.375
141
12.0
290
     0
  0
SCALE
  5
8E1
102
{ACAD_REACTORS
330
8C6
102
}
330
8C6
100
AcDbScale
 70
     0
300
1/2" = 1'-0"
140
0.5
141
12.0
290
     0
  0
SCALE
  5
8E2
102
{ACAD_REACTORS
330
8C6
102
}
330
8C6
100
AcDbScale
 70
     0
300
3/4" = 1'-0"
140
0.75
141
12.0
290
     0
  0
SCALE
  5
8E3
102
{ACAD_REACTORS
330
8C6
102
}
330
8C6
100
AcDbScale
 70
     0
300
1" = 1'-0"
140
1.0
141
12.0
290
     0
  0
SCALE
  5
8E4
102
{ACAD_REACTORS
330
8C6
102
}
330
8C6
100
AcDbScale
 70
     0
300
1-1/2" = 1'-0"
140
1.5
141
12.0
290
     0
  0
SCALE
  5
8E5
102
{ACAD_REACTORS
330
8C6
102
}
330
8C6
100
AcDbScale
 70
     0
300
3" = 1'-0"
140
3.0
141
12.0
290
     0
  0
SCALE
  5
8E6
102
{ACAD_REACTORS
330
8C6
102
}
330
8C6
100
AcDbScale
 70
     0
300
6" = 1'-0"
140
6.0
141
12.0
290
     0
  0
SCALE
  5
8E7
102
{ACAD_REACTORS
330
8C6
102
}
330
8C6
100
AcDbScale
 70
     0
300
1'-0" = 1'-0"
140
12.0
141
12.0
290
     0
  0
TABLESTYLE
  5
7B9
102
{ACAD_XDICTIONARY
360
9A0
102
}
102
{ACAD_REACTORS
330
7B8
102
}
330
7B8
100
AcDbTableStyle
  3
Standard
 70
     0
 71
     0
 40
0.06
 41
0.06
280
     0
281
     0
  7
Standard
140
0.18
170
     2
 62
     0
 63
     7
283
     0
274
    -2
284
     1
 64
     0
275
    -2
285
     1
 65
     0
276
    -2
286
     1
 66
     0
277
    -2
287
     1
 67
     0
278
    -2
288
     1
 68
     0
279
    -2
289
     1
 69
     0
  7
Standard
140
0.25
170
     5
 62
     0
 63
     7
283
     0
274
    -2
284
     1
 64
     0
275
    -2
285
     1
 65
     0
276
    -2
286
     1
 66
     0
277
    -2
287
     1
 67
     0
278
    -2
288
     1
 68
     0
279
    -2
289
     1
 69
     0
  7
Standard
140
0.18
170
     5
 62
     0
 63
     7
283
     0
274
    -2
284
     1
 64
     0
275
    -2
285
     1
 65
     0
276
    -2
286
     1
 66
     0
277
    -2
287
     1
 67
     0
278
    -2
288
     1
 68
     0
279
    -2
289
     1
 69
     0
  0
VISUALSTYLE
  5
8BB
102
{ACAD_REACTORS
330
8B5
102
}
330
8B5
100
AcDbVisualStyle
  2
2dWireframe
 70
     4
 71
     0
 72
     2
 73
     0
 90
        0
 40
-0.6
 41
-30.0
 62
     5
 63
     7
 74
     1
 91
        4
 64
     7
 65
   257
 75
     1
175
     1
 42
1.0
 92
        0
 66
   257
 43
1.0
 76
     1
 77
     6
 78
     2
 67
     7
 79
     5
170
     0
171
     0
290
     0
174
     0
 93
        1
 44
0.0
173
     0
291
     0
 45
0.0
1001
ACAD
1000
AcDbSavedByObjectVersion
1070
     0
1000
AcDbSavedByObjectVersion
1070
     0
  0
VISUALSTYLE
  5
8BD
102
{ACAD_REACTORS
330
8B5
102
}
330
8B5
100
AcDbVisualStyle
  2
3D Hidden
 70
     6
 71
     1
 72
     2
 73
     2
 90
        0
 40
-0.6
 41
-30.0
 62
     5
 63
     7
 74
     2
 91
        2
 64
     7
 65
   257
 75
     2
175
     1
 42
40.0
 92
        0
 66
   257
 43
1.0
 76
     1
 77
     6
 78
     2
 67
     7
 79
     3
170
     0
171
     0
290
     0
174
     0
 93
        1
 44
0.0
173
     0
291
     0
 45
0.0
1001
ACAD
1000
AcDbSavedByObjectVersion
1070
     0
1000
AcDbSavedByObjectVersion
1070
     0
  0
VISUALSTYLE
  5
8BC
102
{ACAD_REACTORS
330
8B5
102
}
330
8B5
100
AcDbVisualStyle
  2
3dWireframe
 70
     5
 71
     0
 72
     2
 73
     0
 90
        0
 40
-0.6
 41
-30.0
 62
     5
 63
     7
 74
     1
 91
        4
 64
     7
 65
   257
 75
     1
175
     1
 42
1.0
 92
        0
 66
   257
 43
1.0
 76
     1
 77
     6
 78
     2
 67
     7
 79
     5
170
     0
171
     0
290
     0
174
     0
 93
        1
 44
0.0
173
     0
291
     0
 45
0.0
1001
ACAD
1000
AcDbSavedByObjectVersion
1070
     0
1000
AcDbSavedByObjectVersion
1070
     0
  0
VISUALSTYLE
  5
8BA
102
{ACAD_REACTORS
330
8B5
102
}
330
8B5
100
AcDbVisualStyle
  2
Basic
 70
     7
 71
     1
 72
     0
 73
     1
 90
        0
 40
-0.6
 41
-30.0
 62
     5
 63
     7
 74
     0
 91
        4
 64
     7
 65
   257
 75
     1
175
     1
 42
1.0
 92
        8
 66
     7
 43
1.0
 76
     1
 77
     6
 78
     2
 67
     7
 79
     5
170
     0
171
     0
290
     0
174
     0
 93
        1
 44
0.0
173
     0
291
     1
 45
0.0
1001
ACAD
1000
AcDbSavedByObjectVersion
1070
     0
1000
AcDbSavedByObjectVersion
1070
     0
  0
VISUALSTYLE
  5
8C1
102
{ACAD_REACTORS
330
8B5
102
}
330
8B5
100
AcDbVisualStyle
  2
Brighten
 70
    12
 71
     2
 72
     2
 73
     0
 90
        0
 40
-0.6
 41
-30.0
 62
     5
 63
     7
 74
     1
 91
        4
 64
     7
 65
   257
 75
     1
175
     1
 42
1.0
 92
        8
 66
     7
 43
1.0
 76
     1
 77
     6
 78
     2
 67
     7
 79
     5
170
     0
171
     0
290
     0
174
     0
 93
        1
 44
50.0
173
     0
291
     1
 45
0.0
1001
ACAD
1000
AcDbSavedByObjectVersion
1070
     0
1000
AcDbSavedByObjectVersion
1070
     0
  0
VISUALSTYLE
  5
8C5
102
{ACAD_REACTORS
330
8B5
102
}
330
8B5
100
AcDbVisualStyle
  2
ColorChange
 70
    16
 71
     2
 72
     2
 73
     3
 90
        0
 40
-0.6
 41
-30.0
 62
     5
 63
     8
 74
     1
 91
        4
 64
     7
 65
   257
 75
     1
175
     1
 42
1.0
 92
        8
 66
     8
 43
1.0
 76
     1
 77
     6
 78
     2
 67
     7
 79
     5
170
     0
171
     0
290
     0
174
     0
 93
        1
 44
0.0
173
     0
291
     1
 45
0.0
1001
ACAD
1000
AcDbSavedByObjectVersion
1070
     0
1000
AcDbSavedByObjectVersion
1070
     0
  0
VISUALSTYLE
  5
8BE
102
{ACAD_REACTORS
330
8B5
102
}
330
8B5
100
AcDbVisualStyle
  2
Conceptual
 70
     9
 71
     3
 72
     2
 73
     0
 90
        0
 40
-0.6
 41
-30.0
 62
     5
 63
     7
 74
     2
 91
        2
 64
     7
 65
   257
 75
     1
175
     1
 42
40.0
 92
        8
 66
     7
 43
1.0
 76
     1
 77
     6
 78
     2
 67
     7
 79
     3
170
     0
171
     0
290
     0
174
     0
 93
        1
 44
0.0
173
     0
291
     0
 45
0.0
1001
ACAD
1000
AcDbSavedByObjectVersion
1070
     0
1000
AcDbSavedByObjectVersion
1070
     0
  0
VISUALSTYLE
  5
8C0
102
{ACAD_REACTORS
330
8B5
102
}
330
8B5
100
AcDbVisualStyle
  2
Dim
 70
    11
 71
     2
 72
     2
 73
     0
 90
        0
 40
-0.6
 41
-30.0
 62
     5
 63
     7
 74
     1
 91
        4
 64
     7
 65
   257
 75
     1
175
     1
 42
1.0
 92
        8
 66
     7
 43
1.0
 76
     1
 77
     6
 78
     2
 67
     7
 79
     5
170
     0
171
     0
290
     0
174
     0
 93
        1
 44
-50.0
173
     0
291
     1
 45
0.0
1001
ACAD
1000
AcDbSavedByObjectVersion
1070
     0
1000
AcDbSavedByObjectVersion
1070
     0
  0
VISUALSTYLE
  5
8C4
102
{ACAD_REACTORS
330
8B5
102
}
330
8B5
100
AcDbVisualStyle
  2
Facepattern
 70
    15
 71
     2
 72
     2
 73
     0
 90
        0
 40
-0.6
 41
-30.0
 62
     5
 63
     7
 74
     1
 91
        4
 64
     7
 65
   257
 75
     1
175
     1
 42
1.0
 92
        8
 66
     7
 43
1.0
 76
     1
 77
     6
 78
     2
 67
     7
 79
     5
170
     0
171
     0
290
     0
174
     0
 93
        1
 44
0.0
173
     0
291
     1
 45
0.0
1001
ACAD
1000
AcDbSavedByObjectVersion
1070
     0
1000
AcDbSavedByObjectVersion
1070
     0
  0
VISUALSTYLE
  5
8B6
102
{ACAD_REACTORS
330
8B5
102
}
330
8B5
100
AcDbVisualStyle
  2
Flat
 70
     0
 71
     2
 72
     1
 73
     1
 90
        2
 40
-0.6
 41
30.0
 62
     5
 63
     7
 74
     0
 91
        4
 64
     7
 65
   257
 75
     1
175
     1
 42
1.0
 92
        8
 66
     7
 43
1.0
 76
     1
 77
     6
 78
     2
 67
     7
 79
     5
170
     0
171
     0
290
     0
174
     0
 93
       13
 44
0.0
173
     0
291
     1
 45
0.0
1001
ACAD
1000
AcDbSavedByObjectVersion
1070
     0
1000
AcDbSavedByObjectVersion
1070
     0
  0
VISUALSTYLE
  5
8B7
102
{ACAD_REACTORS
330
8B5
102
}
330
8B5
100
AcDbVisualStyle
  2
FlatWithEdges
 70
     1
 71
     2
 72
     1
 73
     1
 90
        2
 40
-0.6
 41
30.0
 62
     5
 63
     7
 74
     1
 91
        4
 64
     7
 65
   257
 75
     1
175
     1
 42
1.0
 92
        0
 66
   257
 43
1.0
 76
     1
 77
     6
 78
     2
 67
     7
 79
     5
170
     0
171
     0
290
     0
174
     0
 93
       13
 44
0.0
173
     0
291
     1
 45
0.0
1001
ACAD
1000
AcDbSavedByObjectVersion
1070
     0
1000
AcDbSavedByObjectVersion
1070
     0
  0
VISUALSTYLE
  5
8B8
102
{ACAD_REACTORS
330
8B5
102
}
330
8B5
100
AcDbVisualStyle
  2
Gouraud
 70
     2
 71
     2
 72
     2
 73
     1
 90
        2
 40
-0.6
 41
30.0
 62
     5
 63
     7
 74
     0
 91
        4
 64
     7
 65
   257
 75
     1
175
     1
 42
1.0
 92
        0
 66
     7
 43
1.0
 76
     1
 77
     6
 78
     2
 67
     7
 79
     5
170
     0
171
     0
290
     0
174
     0
 93
       13
 44
0.0
173
     0
291
     1
 45
0.0
1001
ACAD
1000
AcDbSavedByObjectVersion
1070
     0
1000
AcDbSavedByObjectVersion
1070
     0
  0
VISUALSTYLE
  5
8B9
102
{ACAD_REACTORS
330
8B5
102
}
330
8B5
100
AcDbVisualStyle
  2
GouraudWithEdges
 70
     3
 71
     2
 72
     2
 73
     1
 90
        2
 40
-0.6
 41
30.0
 62
     5
 63
     7
 74
     1
 91
        4
 64
     7
 65
   257
 75
     1
175
     1
 42
1.0
 92
        0
 66
   257
 43
1.0
 76
     1
 77
     6
 78
     2
 67
     7
 79
     5
170
     0
171
     0
290
     0
174
     0
 93
       13
 44
0.0
173
     0
291
     1
 45
0.0
1001
ACAD
1000
AcDbSavedByObjectVersion
1070
     0
1000
AcDbSavedByObjectVersion
1070
     0
  0
VISUALSTYLE
  5
8C3
102
{ACAD_REACTORS
330
8B5
102
}
330
8B5
100
AcDbVisualStyle
  2
Linepattern
 70
    14
 71
     2
 72
     2
 73
     0
 90
        0
 40
-0.6
 41
-30.0
 62
     5
 63
     7
 74
     1
 91
        4
 64
     7
 65
   257
 75
     7
175
     7
 42
1.0
 92
        8
 66
     7
 43
1.0
 76
     1
 77
     6
 78
     2
 67
     7
 79
     5
170
     0
171
     0
290
     0
174
     0
 93
        1
 44
0.0
173
     0
291
     1
 45
0.0
1001
ACAD
1000
AcDbSavedByObjectVersion
1070
     0
1000
AcDbSavedByObjectVersion
1070
     0
  0
VISUALSTYLE
  5
8BF
102
{ACAD_REACTORS
330
8B5
102
}
330
8B5
100
AcDbVisualStyle
  2
Realistic
 70
     8
 71
     2
 72
     2
 73
     0
 90
        0
 40
-0.6
 41
-30.0
 62
     5
 63
     7
 74
     1
 91
        0
 64
     7
 65
   257
 75
     1
175
     1
 42
1.0
 92
        8
 66
     8
 43
1.0
 76
     1
 77
     6
 78
     2
 67
     7
 79
     5
170
     0
171
     0
290
     0
174
     0
 93
       13
 44
0.0
173
     0
291
     0
 45
0.0
1001
ACAD
1000
AcDbSavedByObjectVersion
1070
     0
1000
AcDbSavedByObjectVersion
1070
     0
  0
VISUALSTYLE
  5
8C2
102
{ACAD_REACTORS
330
8B5
102
}
330
8B5
100
AcDbVisualStyle
  2
Thicken
 70
    13
 71
     2
 72
     2
 73
     0
 90
        0
 40
-0.6
 41
-30.0
 62
     5
 63
     7
 74
     1
 91
        4
 64
     7
 65
   257
 75
     1
175
     1
 42
1.0
 92
       12
 66
     7
 43
1.0
 76
     1
 77
     6
 78
     2
 67
     7
 79
     5
170
     0
171
     0
290
     0
174
     0
 93
        1
 44
0.0
173
     0
291
     1
 45
0.0
1001
ACAD
1000
AcDbSavedByObjectVersion
1070
     0
1000
AcDbSavedByObjectVersion
1070
     0
  0
DICTIONARYVAR
  5
99D
102
{ACAD_REACTORS
330
7AF
102
}
330
7AF
100
DictionaryVariables
280
     0
  1
1:1
  0
DICTIONARYVAR
  5
99C
102
{ACAD_REACTORS
330
7AF
102
}
330
7AF
100
DictionaryVariables
280
     0
  1
STANDARD
  0
DICTIONARYVAR
  5
7C8
102
{ACAD_REACTORS
330
7AF
102
}
330
7AF
100
DictionaryVariables
280
     0
  1
STANDARD
  0
DICTIONARYVAR
  5
7B0
102
{ACAD_REACTORS
330
7AF
102
}
330
7AF
100
DictionaryVariables
280
     0
  1
1
  0
DICTIONARYVAR
  5
891
102
{ACAD_REACTORS
330
7AF
102
}
330
7AF
100
DictionaryVariables
280
     0
  1
0
  0
DICTIONARYVAR
  5
99F
102
{ACAD_REACTORS
330
7AF
102
}
330
7AF
100
DictionaryVariables
280
     0
  1
0
  0
DICTIONARYVAR
  5
99E
102
{ACAD_REACTORS
330
7AF
102
}
330
7AF
100
DictionaryVariables
280
     0
  1
127
  0
DICTIONARY
  5
A83
330
1E
100
AcDbDictionary
280
     1
281
     1
  3
ACAD_XREC_ROUNDTRIP
360
A84
  0
DICTIONARY
  5
A87
330
26
100
AcDbDictionary
280
     1
281
     1
  3
ACAD_XREC_ROUNDTRIP
360
A88
  0
DICTIONARY
  5
A85
330
22
100
AcDbDictionary
280
     1
281
     1
  3
ACAD_XREC_ROUNDTRIP
360
A86
  0
DICTIONARY
  5
98D
330
98C
100
AcDbDictionary
280
     1
281
     1
  3
ACAD_XREC_ROUNDTRIP
360
9AE
  3
BUMPTILE
360
992
  3
DIFFUSETILE
360
98E
  3
OPACITYTILE
360
991
  3
REFLECTIONTILE
360
990
  3
REFRACTIONTILE
360
993
  3
SPECULARTILE
360
98F
  0
DICTIONARY
  5
8A6
330
8A5
100
AcDbDictionary
280
     1
281
     1
  3
ACAD_XREC_ROUNDTRIP
360
9AC
  3
BUMPTILE
360
8A8
  3
DIFFUSETILE
360
8A7
  3
OPACITYTILE
360
8AB
  3
REFLECTIONTILE
360
8AA
  3
REFRACTIONTILE
360
8AC
  3
SPECULARTILE
360
8A9
  0
DICTIONARY
  5
89E
330
89D
100
AcDbDictionary
280
     1
281
     1
  3
ACAD_XREC_ROUNDTRIP
360
9AB
  3
BUMPTILE
360
8A0
  3
DIFFUSETILE
360
89F
  3
OPACITYTILE
360
8A3
  3
REFLECTIONTILE
360
8A2
  3
REFRACTIONTILE
360
8A4
  3
SPECULARTILE
360
8A1
  0
DICTIONARY
  5
8AE
330
8AD
100
AcDbDictionary
280
     1
281
     1
  3
ACAD_XREC_ROUNDTRIP
360
9AD
  3
BUMPTILE
360
8B0
  3
DIFFUSETILE
360
8AF
  3
OPACITYTILE
360
8B3
  3
REFLECTIONTILE
360
8B2
  3
REFRACTIONTILE
360
8B4
  3
SPECULARTILE
360
8B1
  0
DICTIONARY
  5
9A0
330
7B9
100
AcDbDictionary
280
     1
281
     1
  3
ACAD_ROUNDTRIP_2008_TABLESTYLE_CELLSTYLEMAP
360
A81
  3
ACAD_XREC_ROUNDTRIP
360
A89
  0
XRECORD
  5
A84
102
{ACAD_REACTORS
330
A83
102
}
330
A83
100
AcDbXrecord
280
     1
102
SHADEPLOT
 70
     0
102
SHADEPLOTRESLEVEL
 70
     2
102
SHADEPLOTCUSTOMDPI
 70
   300
  0
XRECORD
  5
A88
102
{ACAD_REACTORS
330
A87
102
}
330
A87
100
AcDbXrecord
280
     1
102
SHADEPLOT
 70
     0
102
SHADEPLOTRESLEVEL
 70
     2
102
SHADEPLOTCUSTOMDPI
 70
   300
  0
XRECORD
  5
A86
102
{ACAD_REACTORS
330
A85
102
}
330
A85
100
AcDbXrecord
280
     1
102
SHADEPLOT
 70
     0
102
SHADEPLOTRESLEVEL
 70
     2
102
SHADEPLOTCUSTOMDPI
 70
   300
  0
XRECORD
  5
9AE
102
{ACAD_REACTORS
330
98D
102
}
330
98D
100
AcDbXrecord
280
     1
102
MATERIAL
148
0.0
149
0.0
149
0.0
 93
        0
 94
      127
282
     0
 72
     0
 77
     0
171
     0
175
     0
179
     0
273
     0
  0
XRECORD
  5
992
102
{ACAD_REACTORS
330
98D
102
}
330
98D
100
AcDbXrecord
280
     1
270
     1
271
     1
  0
XRECORD
  5
98E
102
{ACAD_REACTORS
330
98D
102
}
330
98D
100
AcDbXrecord
280
     1
270
     1
271
     1
  0
XRECORD
  5
991
102
{ACAD_REACTORS
330
98D
102
}
330
98D
100
AcDbXrecord
280
     1
270
     1
271
     1
  0
XRECORD
  5
990
102
{ACAD_REACTORS
330
98D
102
}
330
98D
100
AcDbXrecord
280
     1
270
     1
271
     1
  0
XRECORD
  5
993
102
{ACAD_REACTORS
330
98D
102
}
330
98D
100
AcDbXrecord
280
     1
270
     1
271
     1
  0
XRECORD
  5
98F
102
{ACAD_REACTORS
330
98D
102
}
330
98D
100
AcDbXrecord
280
     1
270
     1
271
     1
  0
XRECORD
  5
9AC
102
{ACAD_REACTORS
330
8A6
102
}
330
8A6
100
AcDbXrecord
280
     1
102
MATERIAL
148
0.0
149
0.0
149
0.0
 93
        0
 94
      127
282
     0
 72
     0
 77
     0
171
     0
175
     0
179
     0
273
     0
  0
XRECORD
  5
8A8
102
{ACAD_REACTORS
330
8A6
102
}
330
8A6
100
AcDbXrecord
280
     1
270
     1
271
     1
  0
XRECORD
  5
8A7
102
{ACAD_REACTORS
330
8A6
102
}
330
8A6
100
AcDbXrecord
280
     1
270
     1
271
     1
  0
XRECORD
  5
8AB
102
{ACAD_REACTORS
330
8A6
102
}
330
8A6
100
AcDbXrecord
280
     1
270
     1
271
     1
  0
XRECORD
  5
8AA
102
{ACAD_REACTORS
330
8A6
102
}
330
8A6
100
AcDbXrecord
280
     1
270
     1
271
     1
  0
XRECORD
  5
8AC
102
{ACAD_REACTORS
330
8A6
102
}
330
8A6
100
AcDbXrecord
280
     1
270
     1
271
     1
  0
XRECORD
  5
8A9
102
{ACAD_REACTORS
330
8A6
102
}
330
8A6
100
AcDbXrecord
280
     1
270
     1
271
     1
  0
XRECORD
  5
9AB
102
{ACAD_REACTORS
330
89E
102
}
330
89E
100
AcDbXrecord
280
     1
102
MATERIAL
148
0.0
149
0.0
149
0.0
 93
        0
 94
      127
282
     0
 72
     0
 77
     0
171
     0
175
     0
179
     0
273
     0
  0
XRECORD
  5
8A0
102
{ACAD_REACTORS
330
89E
102
}
330
89E
100
AcDbXrecord
280
     1
270
     1
271
     1
  0
XRECORD
  5
89F
102
{ACAD_REACTORS
330
89E
102
}
330
89E
100
AcDbXrecord
280
     1
270
     1
271
     1
  0
XRECORD
  5
8A3
102
{ACAD_REACTORS
330
89E
102
}
330
89E
100
AcDbXrecord
280
     1
270
     1
271
     1
  0
XRECORD
  5
8A2
102
{ACAD_REACTORS
330
89E
102
}
330
89E
100
AcDbXrecord
280
     1
270
     1
271
     1
  0
XRECORD
  5
8A4
102
{ACAD_REACTORS
330
89E
102
}
330
89E
100
AcDbXrecord
280
     1
270
     1
271
     1
  0
XRECORD
  5
8A1
102
{ACAD_REACTORS
330
89E
102
}
330
89E
100
AcDbXrecord
280
     1
270
     1
271
     1
  0
XRECORD
  5
9AD
102
{ACAD_REACTORS
330
8AE
102
}
330
8AE
100
AcDbXrecord
280
     1
102
MATERIAL
148
0.0
149
0.0
149
0.0
 93
        0
 94
      127
282
     0
 72
     0
 77
     0
171
     0
175
     0
179
     0
273
     0
  0
XRECORD
  5
8B0
102
{ACAD_REACTORS
330
8AE
102
}
330
8AE
100
AcDbXrecord
280
     1
270
     1
271
     1
  0
XRECORD
  5
8AF
102
{ACAD_REACTORS
330
8AE
102
}
330
8AE
100
AcDbXrecord
280
     1
270
     1
271
     1
  0
XRECORD
  5
8B3
102
{ACAD_REACTORS
330
8AE
102
}
330
8AE
100
AcDbXrecord
280
     1
270
     1
271
     1
  0
XRECORD
  5
8B2
102
{ACAD_REACTORS
330
8AE
102
}
330
8AE
100
AcDbXrecord
280
     1
270
     1
271
     1
  0
XRECORD
  5
8B4
102
{ACAD_REACTORS
330
8AE
102
}
330
8AE
100
AcDbXrecord
280
     1
270
     1
271
     1
  0
XRECORD
  5
8B1
102
{ACAD_REACTORS
330
8AE
102
}
330
8AE
100
AcDbXrecord
280
     1
270
     1
271
     1
  0
CELLSTYLEMAP
  5
A81
102
{ACAD_REACTORS
330
9A0
102
}
330
9A0
100
AcDbCellStyleMap
 90
        3
300
CELLSTYLE
  1
TABLEFORMAT_BEGIN
 90
        5
170
     1
 91
        0
 92
    32768
 62
   257
 93
        1
300
CONTENTFORMAT
  1
CONTENTFORMAT_BEGIN
 90
        0
 91
        0
 92
        4
 93
        0
300

 40
0.0
140
1.0
 94
        5
 62
     0
340
11
144
0.25
309
CONTENTFORMAT_END
171
     1
301
MARGIN
  1
CELLMARGIN_BEGIN
 40
0.06
 40
0.06
 40
0.06
 40
0.06
 40
0.18
 40
0.18
309
CELLMARGIN_END
 94
        6
 95
        1
302
GRIDFORMAT
  1
GRIDFORMAT_BEGIN
 90
        0
 91
        1
 62
     0
 92
       -2
340
0
 93
        0
 40
0.045
309
GRIDFORMAT_END
 95
        2
302
GRIDFORMAT
  1
GRIDFORMAT_BEGIN
 90
        0
 91
        1
 62
     0
 92
       -2
340
0
 93
        0
 40
0.045
309
GRIDFORMAT_END
 95
        4
302
GRIDFORMAT
  1
GRIDFORMAT_BEGIN
 90
        0
 91
        1
 62
     0
 92
       -2
340
0
 93
        0
 40
0.045
309
GRIDFORMAT_END
 95
        8
302
GRIDFORMAT
  1
GRIDFORMAT_BEGIN
 90
        0
 91
        1
 62
     0
 92
       -2
340
0
 93
        0
 40
0.045
309
GRIDFORMAT_END
 95
       16
302
GRIDFORMAT
  1
GRIDFORMAT_BEGIN
 90
        0
 91
        1
 62
     0
 92
       -2
340
0
 93
        0
 40
0.045
309
GRIDFORMAT_END
 95
       32
302
GRIDFORMAT
  1
GRIDFORMAT_BEGIN
 90
        0
 91
        1
 62
     0
 92
       -2
340
0
 93
        0
 40
0.045
309
GRIDFORMAT_END
309
TABLEFORMAT_END
  1
CELLSTYLE_BEGIN
 90
        1
 91
        1
300
_TITLE
309
CELLSTYLE_END
300
CELLSTYLE
  1
TABLEFORMAT_BEGIN
 90
        5
170
     1
 91
        0
 92
        0
 62
   257
 93
        1
300
CONTENTFORMAT
  1
CONTENTFORMAT_BEGIN
 90
        0
 91
        0
 92
        4
 93
        0
300

 40
0.0
140
1.0
 94
        5
 62
     0
340
11
144
0.18
309
CONTENTFORMAT_END
171
     1
301
MARGIN
  1
CELLMARGIN_BEGIN
 40
0.06
 40
0.06
 40
0.06
 40
0.06
 40
0.18
 40
0.18
309
CELLMARGIN_END
 94
        6
 95
        1
302
GRIDFORMAT
  1
GRIDFORMAT_BEGIN
 90
        0
 91
        1
 62
     0
 92
       -2
340
0
 93
        0
 40
0.045
309
GRIDFORMAT_END
 95
        2
302
GRIDFORMAT
  1
GRIDFORMAT_BEGIN
 90
        0
 91
        1
 62
     0
 92
       -2
340
0
 93
        0
 40
0.045
309
GRIDFORMAT_END
 95
        4
302
GRIDFORMAT
  1
GRIDFORMAT_BEGIN
 90
        0
 91
        1
 62
     0
 92
       -2
340
0
 93
        0
 40
0.045
309
GRIDFORMAT_END
 95
        8
302
GRIDFORMAT
  1
GRIDFORMAT_BEGIN
 90
        0
 91
        1
 62
     0
 92
       -2
340
0
 93
        0
 40
0.045
309
GRIDFORMAT_END
 95
       16
302
GRIDFORMAT
  1
GRIDFORMAT_BEGIN
 90
        0
 91
        1
 62
     0
 92
       -2
340
0
 93
        0
 40
0.045
309
GRIDFORMAT_END
 95
       32
302
GRIDFORMAT
  1
GRIDFORMAT_BEGIN
 90
        0
 91
        1
 62
     0
 92
       -2
340
0
 93
        0
 40
0.045
309
GRIDFORMAT_END
309
TABLEFORMAT_END
  1
CELLSTYLE_BEGIN
 90
        2
 91
        1
300
_HEADER
309
CELLSTYLE_END
300
CELLSTYLE
  1
TABLEFORMAT_BEGIN
 90
        5
170
     1
 91
        0
 92
        0
 62
   257
 93
        1
300
CONTENTFORMAT
  1
CONTENTFORMAT_BEGIN
 90
        0
 91
        0
 92
        4
 93
        0
300

 40
0.0
140
1.0
 94
        2
 62
     0
340
11
144
0.18
309
CONTENTFORMAT_END
171
     1
301
MARGIN
  1
CELLMARGIN_BEGIN
 40
0.06
 40
0.06
 40
0.06
 40
0.06
 40
0.18
 40
0.18
309
CELLMARGIN_END
 94
        6
 95
        1
302
GRIDFORMAT
  1
GRIDFORMAT_BEGIN
 90
        0
 91
        1
 62
     0
 92
       -2
340
0
 93
        0
 40
0.045
309
GRIDFORMAT_END
 95
        2
302
GRIDFORMAT
  1
GRIDFORMAT_BEGIN
 90
        0
 91
        1
 62
     0
 92
       -2
340
0
 93
        0
 40
0.045
309
GRIDFORMAT_END
 95
        4
302
GRIDFORMAT
  1
GRIDFORMAT_BEGIN
 90
        0
 91
        1
 62
     0
 92
       -2
340
0
 93
        0
 40
0.045
309
GRIDFORMAT_END
 95
        8
302
GRIDFORMAT
  1
GRIDFORMAT_BEGIN
 90
        0
 91
        1
 62
     0
 92
       -2
340
0
 93
        0
 40
0.045
309
GRIDFORMAT_END
 95
       16
302
GRIDFORMAT
  1
GRIDFORMAT_BEGIN
 90
        0
 91
        1
 62
     0
 92
       -2
340
0
 93
        0
 40
0.045
309
GRIDFORMAT_END
 95
       32
302
GRIDFORMAT
  1
GRIDFORMAT_BEGIN
 90
        0
 91
        1
 62
     0
 92
       -2
340
0
 93
        0
 40
0.045
309
GRIDFORMAT_END
309
TABLEFORMAT_END
  1
CELLSTYLE_BEGIN
 90
        3
 91
        2
300
_DATA
309
CELLSTYLE_END
  0
XRECORD
  5
A89
102
{ACAD_REACTORS
330
9A0
102
}
330
9A0
100
AcDbXrecord
280
     1
102
ACAD_ROUNDTRIP_PRE2007_TABLESTYLE
 90
        4
 91
        0
  1

 92
        4
 93
        0
  2

 94
        4
 95
        0
  3

  0
ENDSEC
  0
EOF
