  0
SECTION
  2
HEADER
  9
$ACADVER
  1
AC1015
  9
$ACADMAINTVER
 70
    20
  9
$DWGCODEPAGE
  3
ANSI_1252
  9
$INSBASE
 10
0.0
 20
0.0
 30
0.0
  9
$EXTMIN
 10
0.0000000040756447
 20
3.392243385314941
 30
-0.0000000033307123
  9
$EXTMAX
 10
14.68500804901123
 20
4.650496959686278
 30
3.25
  9
$LIMMIN
 10
0.0
 20
0.0
  9
$LIMMAX
 10
12.0
 20
9.0
  9
$ORTHOMODE
 70
     0
  9
$REGENMODE
 70
     1
  9
$FILLMODE
 70
     1
  9
$QTEXTMODE
 70
     0
  9
$MIRRTEXT
 70
     1
  9
$LTSCALE
 40
1.0
  9
$ATTMODE
 70
     1
  9
$TEXTSIZE
 40
0.2
  9
$TRACEWID
 40
0.05
  9
$TEXTSTYLE
  7
Standard
  9
$CLAYER
  8
0
  9
$CELTYPE
  6
ByLayer
  9
$CECOLOR
 62
   256
  9
$CELTSCALE
 40
1.0
  9
$DISPSILH
 70
     0
  9
$DIMSCALE
 40
1.0
  9
$DIMASZ
 40
0.18
  9
$DIMEXO
 40
0.0625
  9
$DIMDLI
 40
0.38
  9
$DIMRND
 40
0.0
  9
$DIMDLE
 40
0.0
  9
$DIMEXE
 40
0.18
  9
$DIMTP
 40
0.0
  9
$DIMTM
 40
0.0
  9
$DIMTXT
 40
0.18
  9
$DIMCEN
 40
0.09
  9
$DIMTSZ
 40
0.0
  9
$DIMTOL
 70
     0
  9
$DIMLIM
 70
     0
  9
$DIMTIH
 70
     1
  9
$DIMTOH
 70
     1
  9
$DIMSE1
 70
     0
  9
$DIMSE2
 70
     0
  9
$DIMTAD
 70
     0
  9
$DIMZIN
 70
     0
  9
$DIMBLK
  1
ArchTick
  9
$DIMASO
 70
     1
  9
$DIMSHO
 70
     1
  9
$DIMPOST
  1

  9
$DIMAPOST
  1

  9
$DIMALT
 70
     0
  9
$DIMALTD
 70
     2
  9
$DIMALTF
 40
25.4
  9
$DIMLFAC
 40
1.0
  9
$DIMTOFL
 70
     0
  9
$DIMTVP
 40
0.0
  9
$DIMTIX
 70
     0
  9
$DIMSOXD
 70
     0
  9
$DIMSAH
 70
     0
  9
$DIMBLK1
  1

  9
$DIMBLK2
  1

  9
$DIMSTYLE
  2
Copy of Standard
  9
$DIMCLRD
 70
     0
  9
$DIMCLRE
 70
     0
  9
$DIMCLRT
 70
     0
  9
$DIMTFAC
 40
1.0
  9
$DIMGAP
 40
0.09
  9
$DIMJUST
 70
     0
  9
$DIMSD1
 70
     0
  9
$DIMSD2
 70
     0
  9
$DIMTOLJ
 70
     1
  9
$DIMTZIN
 70
     0
  9
$DIMALTZ
 70
     0
  9
$DIMALTTZ
 70
     0
  9
$DIMUPT
 70
     0
  9
$DIMDEC
 70
     4
  9
$DIMTDEC
 70
     4
  9
$DIMALTU
 70
     2
  9
$DIMALTTD
 70
     2
  9
$DIMTXSTY
  7
Standard
  9
$DIMAUNIT
 70
     0
  9
$DIMADEC
 70
     0
  9
$DIMALTRND
 40
0.0
  9
$DIMAZIN
 70
     0
  9
$DIMDSEP
 70
    46
  9
$DIMATFIT
 70
     3
  9
$DIMFRAC
 70
     0
  9
$DIMLDRBLK
  1

  9
$DIMLUNIT
 70
     4
  9
$DIMLWD
 70
    -2
  9
$DIMLWE
 70
    -2
  9
$DIMTMOVE
 70
     0
  9
$LUNITS
 70
     2
  9
$LUPREC
 70
     4
  9
$SKETCHINC
 40
0.1
  9
$FILLETRAD
 40
0.5
  9
$AUNITS
 70
     0
  9
$AUPREC
 70
     0
  9
$MENU
  1
.
  9
$ELEVATION
 40
0.0
  9
$PELEVATION
 40
0.0
  9
$THICKNESS
 40
0.0
  9
$LIMCHECK
 70
     0
  9
$CHAMFERA
 40
0.5
  9
$CHAMFERB
 40
0.5
  9
$CHAMFERC
 40
1.0
  9
$CHAMFERD
 40
0.0
  9
$SKPOLY
 70
     0
  9
$TDCREATE
 40
2452587.497350764
  9
$TDUCREATE
 40
2452587.705684097
  9
$TDUPDATE
 40
2454459.465605602
  9
$TDUUPDATE
 40
2454459.673938935
  9
$TDINDWG
 40
0.5970170139
  9
$TDUSRTIMER
 40
0.5970168287
  9
$USRTIMER
 70
     1
  9
$ANGBASE
 50
0.0
  9
$ANGDIR
 70
     0
  9
$PDMODE
 70
     0
  9
$PDSIZE
 40
0.0
  9
$PLINEWID
 40
0.0
  9
$SPLFRAME
 70
     0
  9
$SPLINETYPE
 70
     6
  9
$SPLINESEGS
 70
     8
  9
$HANDSEED
  5
1691
  9
$SURFTAB1
 70
     6
  9
$SURFTAB2
 70
     6
  9
$SURFTYPE
 70
     6
  9
$SURFU
 70
     6
  9
$SURFV
 70
     6
  9
$UCSBASE
  2

  9
$UCSNAME
  2

  9
$UCSORG
 10
0.0
 20
0.0
 30
0.0
  9
$UCSXDIR
 10
1.0
 20
0.0
 30
0.0
  9
$UCSYDIR
 10
0.0
 20
0.0
 30
1.0
  9
$UCSORTHOREF
  2

  9
$UCSORTHOVIEW
 70
     0
  9
$UCSORGTOP
 10
0.0
 20
0.0
 30
0.0
  9
$UCSORGBOTTOM
 10
0.0
 20
0.0
 30
0.0
  9
$UCSORGLEFT
 10
0.0
 20
0.0
 30
0.0
  9
$UCSORGRIGHT
 10
0.0
 20
0.0
 30
0.0
  9
$UCSORGFRONT
 10
0.0
 20
0.0
 30
0.0
  9
$UCSORGBACK
 10
0.0
 20
0.0
 30
0.0
  9
$PUCSBASE
  2

  9
$PUCSNAME
  2

  9
$PUCSORG
 10
0.0
 20
0.0
 30
0.0
  9
$PUCSXDIR
 10
1.0
 20
0.0
 30
0.0
  9
$PUCSYDIR
 10
0.0
 20
1.0
 30
0.0
  9
$PUCSORTHOREF
  2

  9
$PUCSORTHOVIEW
 70
     0
  9
$PUCSORGTOP
 10
0.0
 20
0.0
 30
0.0
  9
$PUCSORGBOTTOM
 10
0.0
 20
0.0
 30
0.0
  9
$PUCSORGLEFT
 10
0.0
 20
0.0
 30
0.0
  9
$PUCSORGRIGHT
 10
0.0
 20
0.0
 30
0.0
  9
$PUCSORGFRONT
 10
0.0
 20
0.0
 30
0.0
  9
$PUCSORGBACK
 10
0.0
 20
0.0
 30
0.0
  9
$USERI1
 70
     0
  9
$USERI2
 70
     0
  9
$USERI3
 70
     0
  9
$USERI4
 70
     0
  9
$USERI5
 70
     0
  9
$USERR1
 40
0.0
  9
$USERR2
 40
0.0
  9
$USERR3
 40
0.0
  9
$USERR4
 40
0.0
  9
$USERR5
 40
0.0
  9
$WORLDVIEW
 70
     1
  9
$SHADEDGE
 70
     3
  9
$SHADEDIF
 70
    70
  9
$TILEMODE
 70
     1
  9
$MAXACTVP
 70
    64
  9
$PINSBASE
 10
0.0
 20
0.0
 30
0.0
  9
$PLIMCHECK
 70
     0
  9
$PEXTMIN
 10
1.000000000000000E+20
 20
1.000000000000000E+20
 30
1.000000000000000E+20
  9
$PEXTMAX
 10
-1.000000000000000E+20
 20
-1.000000000000000E+20
 30
-1.000000000000000E+20
  9
$PLIMMIN
 10
0.0
 20
0.0
  9
$PLIMMAX
 10
12.0
 20
9.0
  9
$UNITMODE
 70
     0
  9
$VISRETAIN
 70
     1
  9
$PLINEGEN
 70
     0
  9
$PSLTSCALE
 70
     1
  9
$TREEDEPTH
 70
  3020
  9
$CMLSTYLE
  2
Standard
  9
$CMLJUST
 70
     0
  9
$CMLSCALE
 40
1.0
  9
$PROXYGRAPHICS
 70
     1
  9
$MEASUREMENT
 70
     0
  9
$CELWEIGHT
370
    -1
  9
$ENDCAPS
280
     0
  9
$JOINSTYLE
280
     0
  9
$LWDISPLAY
290
     0
  9
$INSUNITS
 70
     1
  9
$HYPERLINKBASE
  1

  9
$STYLESHEET
  1

  9
$XEDIT
290
     1
  9
$CEPSNTYPE
380
     0
  9
$PSTYLEMODE
290
     1
  9
$FINGERPRINTGUID
  2
{FDEAD576-A652-11D2-9A35-0060089B3A3F}
  9
$VERSIONGUID
  2
{7331999F-EE3D-4BDA-A338-20BE6E7F9929}
  9
$EXTNAMES
290
     1
  9
$PSVPSCALE
 40
0.0
  9
$OLESTARTUP
290
     0
  0
ENDSEC
  0
SECTION
  2
CLASSES
  0
CLASS
  1
ACDBDICTIONARYWDFLT
  2
AcDbDictionaryWithDefault
  3
ObjectDBX Classes
 90
        0
280
     0
281
     0
  0
CLASS
  1
ACDBPLACEHOLDER
  2
AcDbPlaceHolder
  3
ObjectDBX Classes
 90
        0
280
     0
281
     0
  0
CLASS
  1
LAYOUT
  2
AcDbLayout
  3
ObjectDBX Classes
 90
        0
280
     0
281
     0
  0
CLASS
  1
DICTIONARYVAR
  2
AcDbDictionaryVar
  3
ObjectDBX Classes
 90
        0
280
     0
281
     0
  0
CLASS
  1
TABLESTYLE
  2
AcDbTableStyle
  3
ObjectDBX Classes
 90
     4095
280
     0
281
     0
  0
CLASS
  1
SORTENTSTABLE
  2
AcDbSortentsTable
  3
ObjectDBX Classes
 90
        0
280
     0
281
     0
  0
CLASS
  1
MATERIAL
  2
AcDbMaterial
  3
ObjectDBX Classes
 90
     1153
280
     0
281
     0
  0
CLASS
  1
VISUALSTYLE
  2
AcDbVisualStyle
  3
ObjectDBX Classes
 90
     4095
280
     0
281
     0
  0
CLASS
  1
SCALE
  2
AcDbScale
  3
ObjectDBX Classes
 90
     1153
280
     0
281
     0
  0
CLASS
  1
MLEADERSTYLE
  2
AcDbMLeaderStyle
  3
ACDB_MLEADERSTYLE_CLASS
 90
     4095
280
     0
281
     0
  0
CLASS
  1
CELLSTYLEMAP
  2
AcDbCellStyleMap
  3
ObjectDBX Classes
 90
     1152
280
     0
281
     0
  0
ENDSEC
  0
SECTION
  2
TABLES
  0
TABLE
  2
VPORT
  5
8
330
0
100
AcDbSymbolTable
 70
     1
  0
VPORT
  5
86E
330
8
100
AcDbSymbolTableRecord
100
AcDbViewportTableRecord
  2
*Active
 70
     0
 10
0.0
 20
0.0
 11
1.0
 21
1.0
 12
2.837101177079893
 22
0.6416275637435846
 13
0.0
 23
0.0
 14
0.5
 24
0.5
 15
0.5
 25
0.5
 16
0.0
 26
-1.0
 36
0.0
 17
10.83548741324249
 27
2.373491021661431
 37
0.9833724406181639
 40
3.276639353057297
 41
1.952107279693486
 42
50.0
 43
0.0
 44
0.0
 50
0.0
 51
0.0
 71
     0
 72
   100
 73
     1
 74
     3
 75
     0
 76
     0
 77
     0
 78
     0
281
     0
 65
     1
110
0.0
120
0.0
130
0.0
111
1.0
121
0.0
131
0.0
112
0.0
122
0.0
132
1.0
 79
     0
146
0.0
  0
ENDTAB
  0
TABLE
  2
LTYPE
  5
5
330
0
100
AcDbSymbolTable
 70
     1
  0
LTYPE
  5
14
330
5
100
AcDbSymbolTableRecord
100
AcDbLinetypeTableRecord
  2
ByBlock
 70
     0
  3

 72
    65
 73
     0
 40
0.0
  0
LTYPE
  5
15
330
5
100
AcDbSymbolTableRecord
100
AcDbLinetypeTableRecord
  2
ByLayer
 70
     0
  3

 72
    65
 73
     0
 40
0.0
  0
LTYPE
  5
16
330
5
100
AcDbSymbolTableRecord
100
AcDbLinetypeTableRecord
  2
Continuous
 70
     0
  3
Solid line
 72
    65
 73
     0
 40
0.0
  0
ENDTAB
  0
TABLE
  2
LAYER
  5
2
330
0
100
AcDbSymbolTable
 70
     5
  0
LAYER
  5
10
102
{ACAD_XDICTIONARY
360
D85
102
}
330
2
100
AcDbSymbolTableRecord
100
AcDbLayerTableRecord
  2
0
 70
     0
 62
     7
  6
Continuous
370
    -3
390
F
  0
LAYER
  5
D2
102
{ACAD_XDICTIONARY
360
D87
102
}
330
2
100
AcDbSymbolTableRecord
100
AcDbLayerTableRecord
  2
Layer1
 70
     0
 62
     1
  6
Continuous
370
    -3
390
F
  0
LAYER
  5
5D4
330
2
100
AcDbSymbolTableRecord
100
AcDbLayerTableRecord
  2
Defpoints
 70
     0
 62
     7
  6
Continuous
290
     0
370
    -3
390
F
  0
LAYER
  5
798
102
{ACAD_XDICTIONARY
360
D89
102
}
330
2
100
AcDbSymbolTableRecord
100
AcDbLayerTableRecord
  2
HOLES
 70
     0
 62
     7
  6
Continuous
370
    -3
390
F
  0
LAYER
  5
8D9
102
{ACAD_XDICTIONARY
360
D8B
102
}
330
2
100
AcDbSymbolTableRecord
100
AcDbLayerTableRecord
  2
ASHADE
 70
     4
 62
     7
  6
Continuous
370
    -3
390
F
  0
ENDTAB
  0
TABLE
  2
STYLE
  5
3
330
0
100
AcDbSymbolTable
 70
     2
  0
STYLE
  5
11
330
3
100
AcDbSymbolTableRecord
100
AcDbTextStyleTableRecord
  2
Standard
 70
     0
 40
0.0
 41
1.0
 50
0.0
 71
     0
 42
0.2
  3
txt
  4

  0
STYLE
  5
8D3
330
3
100
AcDbSymbolTableRecord
100
AcDbTextStyleTableRecord
  2
ASHADE
 70
     0
 40
0.2
 41
1.0
 50
0.0
 71
     0
 42
0.2
  3
simplex
  4

  0
ENDTAB
  0
TABLE
  2
VIEW
  5
6
330
0
100
AcDbSymbolTable
 70
     0
  0
ENDTAB
  0
TABLE
  2
UCS
  5
7
330
0
100
AcDbSymbolTable
 70
     0
  0
ENDTAB
  0
TABLE
  2
APPID
  5
9
330
0
100
AcDbSymbolTable
 70
     7
  0
APPID
  5
12
330
9
100
AcDbSymbolTableRecord
100
AcDbRegAppTableRecord
  2
ACAD
 70
     0
  0
APPID
  5
8D0
330
9
100
AcDbSymbolTableRecord
100
AcDbRegAppTableRecord
  2
ACAD_MLEADERVER
 70
     0
  0
APPID
  5
8D4
330
9
100
AcDbSymbolTableRecord
100
AcDbRegAppTableRecord
  2
AVE_RENDER
 70
     0
  0
APPID
  5
8D5
330
9
100
AcDbSymbolTableRecord
100
AcDbRegAppTableRecord
  2
AVE_ENTITY_MATERIAL
 70
     0
  0
APPID
  5
8D6
330
9
100
AcDbSymbolTableRecord
100
AcDbRegAppTableRecord
  2
AVE_FINISH
 70
     0
  0
APPID
  5
8D7
330
9
100
AcDbSymbolTableRecord
100
AcDbRegAppTableRecord
  2
AVE_MATERIAL
 70
     0
  0
APPID
  5
8D8
330
9
100
AcDbSymbolTableRecord
100
AcDbRegAppTableRecord
  2
AVE_GLOBAL
 70
     0
  0
ENDTAB
  0
TABLE
  2
DIMSTYLE
  5
A
330
0
100
AcDbSymbolTable
 70
     3
100
AcDbDimStyleTable
 71
     0
  0
DIMSTYLE
105
27
330
A
100
AcDbSymbolTableRecord
100
AcDbDimStyleTableRecord
  2
Standard
 70
     0
340
11
  0
DIMSTYLE
105
243
330
A
100
AcDbSymbolTableRecord
100
AcDbDimStyleTableRecord
  2
Copy of Standard
 70
     0
277
     4
340
11
342
23F
  0
DIMSTYLE
105
799
330
A
100
AcDbSymbolTableRecord
100
AcDbDimStyleTableRecord
  2
COPY_OF_STANDARD
 70
     0
279
     2
340
11
  0
ENDTAB
  0
TABLE
  2
BLOCK_RECORD
  5
1
330
0
100
AcDbSymbolTable
 70
    13
  0
BLOCK_RECORD
  5
1F
330
1
100
AcDbSymbolTableRecord
100
AcDbBlockTableRecord
  2
*Model_Space
340
22
  0
BLOCK_RECORD
  5
1B
330
1
100
AcDbSymbolTableRecord
100
AcDbBlockTableRecord
  2
*Paper_Space
340
1E
  0
BLOCK_RECORD
  5
23
330
1
100
AcDbSymbolTableRecord
100
AcDbBlockTableRecord
  2
*Paper_Space0
340
26
  0
BLOCK_RECORD
  5
89
330
1
100
AcDbSymbolTableRecord
100
AcDbBlockTableRecord
  2
A$C402506B2
340
0
  0
BLOCK_RECORD
  5
23F
330
1
100
AcDbSymbolTableRecord
100
AcDbBlockTableRecord
  2
_ArchTick
340
0
  0
BLOCK_RECORD
  5
332
330
1
100
AcDbSymbolTableRecord
100
AcDbBlockTableRecord
  2
A$C62876B25
340
0
  0
BLOCK_RECORD
  5
376
330
1
100
AcDbSymbolTableRecord
100
AcDbBlockTableRecord
  2
A$C0CF7183B
340
0
  0
BLOCK_RECORD
  5
4B2
330
1
100
AcDbSymbolTableRecord
100
AcDbBlockTableRecord
  2
A$C371D6E50
340
0
  0
BLOCK_RECORD
  5
562
330
1
100
AcDbSymbolTableRecord
100
AcDbBlockTableRecord
  2
A$C69274768
340
0
  0
BLOCK_RECORD
  5
59A
330
1
100
AcDbSymbolTableRecord
100
AcDbBlockTableRecord
  2
A$C3BD243A1
340
0
  0
BLOCK_RECORD
  5
7FA
102
{ACAD_XDICTIONARY
360
80B
102
}
330
1
100
AcDbSymbolTableRecord
100
AcDbBlockTableRecord
  2
A$C6CF0041D
340
0
1001
ACAD
1000
DesignCenter Data
1002
{
1070
     1
1070
     1
1002
}
  0
BLOCK_RECORD
  5
8DA
330
1
100
AcDbSymbolTableRecord
100
AcDbBlockTableRecord
  2
AVE_GLOBAL
340
0
102
{BLKREFS
331
8DD
102
}
  0
BLOCK_RECORD
  5
8E3
330
1
100
AcDbSymbolTableRecord
100
AcDbBlockTableRecord
  2
AVE_RENDER
340
0
102
{BLKREFS
331
8E6
331
8E7
331
8E8
331
8E9
331
8EA
331
8EB
331
8EC
331
8ED
102
}
  0
BLOCK_RECORD
  5
D4A
330
1
100
AcDbSymbolTableRecord
100
AcDbBlockTableRecord
  2
RM_SDB
340
0
102
{BLKREFS
331
11FC
331
166F
102
}
  0
ENDTAB
  0
ENDSEC
  0
SECTION
  2
BLOCKS
  0
BLOCK
  5
20
330
1F
100
AcDbEntity
  8
0
100
AcDbBlockBegin
  2
*Model_Space
 70
     0
 10
0.0
 20
0.0
 30
0.0
  3
*Model_Space
  1

  0
ENDBLK
  5
21
330
1F
100
AcDbEntity
  8
0
100
AcDbBlockEnd
  0
BLOCK
  5
1C
330
1B
100
AcDbEntity
 67
     1
  8
0
100
AcDbBlockBegin
  2
*Paper_Space
 70
     0
 10
0.0
 20
0.0
 30
0.0
  3
*Paper_Space
  1

  0
ENDBLK
  5
1D
330
1B
100
AcDbEntity
 67
     1
  8
0
100
AcDbBlockEnd
  0
BLOCK
  5
24
330
23
100
AcDbEntity
 67
     1
  8
0
100
AcDbBlockBegin
  2
*Paper_Space0
 70
     0
 10
0.0
 20
0.0
 30
0.0
  3
*Paper_Space0
  1

  0
ENDBLK
  5
25
330
23
100
AcDbEntity
 67
     1
  8
0
100
AcDbBlockEnd
  0
BLOCK
  5
8B
330
89
100
AcDbEntity
  8
0
100
AcDbBlockBegin
  2
A$C402506B2
 70
     0
 10
0.0
 20
0.0
 30
0.0
  3
A$C402506B2
  1

  0
LINE
  5
8A
330
89
100
AcDbEntity
  8
0
100
AcDbLine
 10
1.99999997599076
 20
-0.0000000065864836
 30
0.0
 11
-0.000000024009239
 21
-0.0000000065864836
 31
0.0
  0
ENDBLK
  5
8C
330
89
100
AcDbEntity
  8
0
100
AcDbBlockEnd
  0
BLOCK
  5
241
330
23F
100
AcDbEntity
  8
0
100
AcDbBlockBegin
  2
_ArchTick
 70
     0
 10
0.0
 20
0.0
 30
0.0
  3
_ArchTick
  1

  0
LWPOLYLINE
  5
240
330
23F
100
AcDbEntity
  8
0
 62
     0
100
AcDbPolyline
 90
        2
 70
     0
 43
0.15
 10
-0.5
 20
-0.5
 10
0.5
 20
0.5
  0
ENDBLK
  5
242
330
23F
100
AcDbEntity
  8
0
100
AcDbBlockEnd
  0
BLOCK
  5
335
330
332
100
AcDbEntity
  8
0
100
AcDbBlockBegin
  2
A$C62876B25
 70
     0
 10
0.0
 20
0.0
 30
0.0
  3
A$C62876B25
  1

  0
ARC
  5
333
330
332
100
AcDbEntity
  8
0
100
AcDbCircle
 10
4.747076104803912
 20
-0.0146308894255172
 30
0.0
 40
5.365388799403604
100
AcDbArc
 50
18.5020939616608
 51
32.26026640746432
  0
LINE
  5
334
330
332
100
AcDbEntity
  8
0
100
AcDbLine
 10
0.0000000123864794
 20
0.0000000105636286
 30
0.0
 11
0.0000000123864794
 21
2.849231481021627
 31
0.0
  0
ENDBLK
  5
336
330
332
100
AcDbEntity
  8
0
100
AcDbBlockEnd
  0
BLOCK
  5
378
330
376
100
AcDbEntity
  8
0
100
AcDbBlockBegin
  2
A$C0CF7183B
 70
     0
 10
0.0
 20
0.0
 30
0.0
  3
A$C0CF7183B
  1

  0
ARC
  5
377
330
376
100
AcDbEntity
  8
0
100
AcDbCircle
 10
-4.537145498590048
 20
-1.10838087746436
 30
0.0
 40
5.365388799403604
100
AcDbArc
 50
11.92199408310056
 51
32.26026640746435
  0
ENDBLK
  5
379
330
376
100
AcDbEntity
  8
0
100
AcDbBlockEnd
  0
BLOCK
  5
4B4
330
4B2
100
AcDbEntity
  8
0
100
AcDbBlockBegin
  2
A$C371D6E50
 70
     0
 10
0.0
 20
0.0
 30
0.0
  3
A$C371D6E50
  1

  0
LINE
  5
4B3
330
4B2
100
AcDbEntity
  8
0
100
AcDbLine
 10
0.0
 20
0.0
 30
0.0
 11
0.0
 21
0.2187794715102882
 31
0.0
  0
ENDBLK
  5
4B5
330
4B2
100
AcDbEntity
  8
0
100
AcDbBlockEnd
  0
BLOCK
  5
564
330
562
100
AcDbEntity
  8
0
100
AcDbBlockBegin
  2
A$C69274768
 70
     0
 10
0.0
 20
0.0
 30
0.0
  3
A$C69274768
  1

  0
ARC
  5
563
330
562
100
AcDbEntity
  8
0
100
AcDbCircle
 10
-0.5175933990904609
 20
-0.2777095236602315
 30
0.0
 40
0.731212470009667
100
AcDbArc
 50
22.32087359577163
 51
44.93923083705086
  0
ENDBLK
  5
565
330
562
100
AcDbEntity
  8
0
100
AcDbBlockEnd
  0
BLOCK
  5
59C
330
59A
100
AcDbEntity
  8
0
100
AcDbBlockBegin
  2
A$C3BD243A1
 70
     0
 10
0.0
 20
0.0
 30
0.0
  3
A$C3BD243A1
  1

  0
3DSOLID
  5
59B
330
59A
100
AcDbEntity
  8
0
100
AcDbModelerGeometry
 70
     1
  1
koo lik n o         
  1
ni ^ *+0;:,4 ^ *+0\^ [ nh ^ LR nmqoqnqgmo QK o  
  1
mjqlffffffffffffff fqfffffffffffffffj:rooh n:rono 
  1
=0;& {rn {n {rn {rn |
  1
3*2/ {rn {rn {m {o |
  1
,7:33 {rn {rn {rn {l {rn {n |
  1
9><: {rn {k {j {m {rn {i 90-(>-; ,6183: |
  1
9><: {rn {h {g {m {rn {i 90-(>-; ,6183: |
  1
300/ {rn {rn {f {l |
  1
/3>1:r,*-9><: {rn rnqmkfhhhnhoikmnnf:roog rlqlfgofiomihgjkmkl:roof rfqmkllfmologhjhgli:roog rn o o o n o 90-(>-;@) V V V V |
  1
9><: {rn {no {nn {m {rn {nm -:):-,:; ,6183: |
  1
300/ {rn {rn {nl {k |
  1
<0:;8: {rn {nk {nj {ni {nh 90-(>-; {j {rn |
  1
9><: {rn {ng {nf {m {rn {nm -:):-,:; ,6183: |
  1
300/ {rn {rn {mo {h |
  1
/3>1:r,*-9><: {rn nqhkfffffghjommmgl rlqlfgofiomihgjkmkl:roof rmoqjoooooofmkllfng o n o o o rn 90-(>-;@) V V V V |
  1
<0:;8: {rn {mn {mm {ml {mk 90-(>-; {g {rn |
  1
<0:;8: {rn {mj {f {mi {mh -:):-,:; {j {rn |
  1
<0:;8: {rn {f {mj {mg {mf 90-(>-; {j {rn |
  1
<0:;8: {rn {lo {ln {f {nh -:):-,:; {lm {rn |
  1
:;8: {rn {ll {lk {ni {lj 90-(>-; |
  1
9><: {rn {li {lh {m {rn {lg 90-(>-; ,6183: |
  1
300/ {rn {rn {lf {no |
  1
<0:;8: {rn {ko {mi {ln {kn 90-(>-; {nn {rn |
  1
<0:;8: {rn {km {nl {kl {kk -:):-,:; {g {rn |
  1
<0:;8: {rn {nl {km {kj {ki 90-(>-; {g {rn |
  1
<0:;8: {rn {kh {kg {nl {mk -:):-,:; {kf {rn |
  1
:;8: {rn {jo {jn {ml {jm 90-(>-; |
  1
<0:;8: {rn {nj {nk {jl {jk 90-(>-; {j {rn |
  1
<0:;8: {rn {mo {jj {nk {mh 90-(>-; {nn {rn |
  1
:;8: {rn {ji {lk {nk {jh 90-(>-; |
  1
<0:;8: {rn {jg {jf {nj {mf -:):-,:; {lh {rn |
  1
:;8: {rn {io {ll {nj {in 90-(>-; |
  1
<0:;8: {rn {im {ni {jf {il -:):-,:; {lm {rn |
  1
<0:;8: {rn {ni {im {mo {kn -:):-,:; {lm {rn |
  1
300/ {rn {rn {im {ik |
  1
):-+:' {rn {nh {ij |
  1
):-+:' {rn {nh {ii |
  1
:336/,:r<*-): {rn rnqmkfhhhnhoikmnnf:roog nqhkffffffiionfok rlkqmhimhigkfklkmk rn o o o rlqilkfnfofifnlnkll o n V V |
  1
9><: {rn {ih {ig {m {rn {if 90-(>-; ,6183: |
  1
300/ {rn {rn {jf {ng |
  1
/3>1:r,*-9><: {rn lqkffffffghjommmgl lqkfffffffiionfok rfqmkllfmoofkkjnhmk:roog o n o o o rn 90-(>-;@) V V V V |
  1
<0:;8: {rn {ho {kl {kg {hn 90-(>-; {nf {rn |
  1
<0:;8: {rn {jj {mo {hm {hl 90-(>-; {nn {rn |
  1
:;8: {rn {lk {hk {ln {hj 90-(>-; |
  1
<0:;8: {rn {mm {mn {hi {hh 90-(>-; {g {rn |
  1
<0:;8: {rn {lf {hg {mn {kk 90-(>-; {nf {rn |
  1
:;8: {rn {hf {jn {mn {jh 90-(>-; |
  1
<0:;8: {rn {go {gn {mm {ki -:):-,:; {gm {rn |
  1
:;8: {rn {gl {jo {mm {in 90-(>-; |
  1
<0:;8: {rn {gk {ml {gn {gj -:):-,:; {kf {rn |
  1
<0:;8: {rn {ml {gk {lf {hn -:):-,:; {kf {rn |
  1
300/ {rn {rn {gk {gi |
  1
):-+:' {rn {mk {gh |
  1
):-+:' {rn {mk {gg |
  1
:336/,:r<*-): {rn rnqmkfhhhnhoikmnnf:roog nqhkffffffiionfok riqlnjlofjgnhjolfhm rn o o o rlqilkfnfomffnngmhm o n V V |
  1
<0:;8: {rn {gf {fo {mj {jk -:):-,:; {fn {rn |
  1
:;8: {rn {ji {io {jl {fm 90-(>-; |
  1
<0:;8: {rn {mi {ko {gf {fl 90-(>-; {nn {rn |
  1
):-+:' {rn {jk {fk |
  1
,+->687+r<*-): {rn rnqmkfhhhnhoikmnnf:roog rlqlfgofiomihgjkmkl:roof rfqmkllfmologhjhgli:roog o o rn V V |
  1
<0:;8: {rn {fj {mg {fo {fi 90-(>-; {lh {rn |
  1
<0:;8: {rn {mg {fj {lo {il 90-(>-; {lh {rn |
  1
):-+:' {rn {jk {fh |
  1
,+->687+r<*-): {rn rnqmkfhhhnhoikmnnf:roog lqkfffffffiionfok rfqmkllfmologhjhgli:roog o o rn V V |
  1
<0:;8: {rn {ln {lo {fg {ff -:):-,:; {lm {rn |
  1
:;8: {rn {noo {ll {lo {non 90-(>-; |
  1
9><: {rn {nom {nol {m {rn {nok 90-(>-; ,6183: |
  1
/061+ {rn rnqmkfhhhnhoikmnnf:roog lqkfffffffiionfok rlhqkimmokhgfhgkkog |
  1
/061+ {rn rnqmkfhhhnhoikmnnf:roog rlqlfgofiomihgjkmkl:roof rlhqkimmokhgfhgkkog |
  1
9><: {rn {noj {noi {m {rn {if 90-(>-; ,6183: |
  1
300/ {rn {rn {fg {li |
  1
/3>1:r,*-9><: {rn lqkffffffghjommmgl rlqlfgofiomihgjkmkl:roof rknqooooooofmkllfnj n o o o rn o 90-(>-;@) V V V V |
  1
<0:;8: {rn {hg {lf {noh {nog 90-(>-; {nf {rn |
  1
:;8: {rn {jn {nof {kg {nno 90-(>-; |
  1
<0:;8: {rn {fg {nnn {ko {hl -:):-,:; {ig {rn |
  1
:;8: {rn {hk {nnm {hm {nnl 90-(>-; |
  1
):-+:' {rn {ff {nnk |
  1
:336/,:r<*-): {rn nqhkffffflhgmimjkh rlqlfgofiomihgjkmkl:roof rlkqmhimhigkfklkmk o rn o lqilkfnfohmffhogok o o n V V |
  1
<0:;8: {rn {nnj {nni {km {hh -:):-,:; {nnh {rn |
  1
:;8: {rn {hf {gl {hi {nng 90-(>-; |
  1
<0:;8: {rn {kl {ho {nnj {nnf 90-(>-; {nf {rn |
  1
):-+:' {rn {hh {nmo |
  1
<0:;8: {rn {nmn {kj {nni {nmm 90-(>-; {gm {rn |
  1
<0:;8: {rn {kj {nmn {kh {gj 90-(>-; {gm {rn |
  1
300/ {rn {rn {gn {noj |
  1
):-+:' {rn {hh {nml |
  1
<0:;8: {rn {kg {kh {nmk {nmj -:):-,:; {kf {rn |
  1
:;8: {rn {nmi {jo {kh {nmh 90-(>-; |
  1
9><: {rn {nmg {nmf {m {rn {nlo 90-(>-; ,6183: |
  1
/061+ {rn rnqmkfhhhnhoikmnnf:roog lqkfffffffiionfok rfqjonmlhkkjijihghi |
  1
/061+ {rn rnqmkfhhhnhoikmnnf:roog rlqlfgofiomihgjkmkl:roof rfqjonmlhkkjijihghi |
  1
<0:;8: {rn {nln {jl {jj {fl -:):-,:; {fn {rn |
  1
<0:;8: {rn {jl {nln {jg {fi -:):-,:; {fn {rn |
  1
300/ {rn {rn {nln {nom |
  1
:336/,:r<*-): {rn rnqmkfhhhnhoikmnnf:roog nqhkffffffiionfok rliqogmmoihkgkmnmoh rn o o o rlqjhfmkonmhigofgof o n V V |
  1
:;8: {rn {nnm {ji {gf {nlm 90-(>-; |
  1
/061+ {rn rnqmkfhhhnhoikmnnf:roog rlqlfgofiomihgjkmkl:roof rlmqfjffjklhlihiojj |
  1
<0:;8: {rn {jf {jg {nll {nlk -:):-,:; {lh {rn |
  1
:;8: {rn {io {nlj {fo {nli 90-(>-; |
  1
/061+ {rn rnqmkfhhhnhoikmnnf:roog lqkfffffffiionfok rlmqfjffjklhlihiojj |
  1
<0:;8: {rn {nll {hm {im {ff 90-(>-; {ig {rn |
  1
:;8: {rn {hk {noo {im {nlh 90-(>-; |
  1
):-+:' {rn {ff {nlg |
  1
:336/,:r<*-): {rn nqhkffffflhgmimjkh lqkfffffffiionfok rlkqmhimhigkfklkmk o n o rlqilkfnfohmffhogok o o n V V |
  1
9><: {rn {nlf {nko {m {rn {nkn 90-(>-; ,6183: |
  1
300/ {rn {lm {nkm {ik |
  1
,/7:-:r,*-9><: {rn nqhkffffflhgmimjkh nqhkffffffiionfok rlkqmhimhigkfklkmk kqolkmkjkgfmnllnnf o o rn o n o 90-(>-;@) V V V V |
  1
9><: {rn {gi {gm {m {rn {lg 90-(>-; ,6183: |
  1
300/ {rn {rn {nmk {ih |
  1
<0:;8: {rn {nmk {nkl {ho {nog -:):-,:; {noi {rn |
  1
:;8: {rn {nof {nkk {noh {nnl 90-(>-; |
  1
):-+:' {rn {nmj {nkj |
  1
:336/,:r<*-): {rn nqhjooooooiihklj rlqlfgofiomihgjkmkl:roof riqlnjlofjgnhjolfhm o rn o lqilkfnfolfnkmohhi o o n V V |
  1
<0:;8: {rn {hm {nll {nln {nki 90-(>-; {ig {rn |
  1
):-+:' {rn {nki {nkh |
  1
,+->687+r<*-): {rn lqkffffffghjommmgl rlqlfgofiomihgjkmkl:roof rknqooooooofmkllfnj o o n V V |
  1
/061+ {rn lqkffffffghjommmgl rlqlfgofiomihgjkmkl:roof rlhqkimmokhljmnnlml |
  1
<0:;8: {rn {nkg {hi {hg {nnf -:):-,:; {nnh {rn |
  1
<0:;8: {rn {hi {nkg {go {nmm -:):-,:; {nnh {rn |
  1
300/ {rn {rn {nkg {nmg |
  1
,+->687+r<*-): {rn rnqmkfhhhnhoikmnnf:roog oqghkfffffiionfolfh rfqmkllfmojolnifgln:roog o n o V V |
  1
:;8: {rn {nkk {hf {nnj {nkf 90-(>-; |
  1
/061+ {rn rnqmkfhhhnhoikmnnf:roog rlqlfgofiomihgjkmkl:roof rfqmkllfmologhjhgli:roog |
  1
<0:;8: {rn {gn {go {njo {njn -:):-,:; {gm {rn |
  1
:;8: {rn {gl {njm {nni {njl 90-(>-; |
  1
/061+ {rn rnqmkfhhhnhoikmnnf:roog lqkfffffffiionfok rfqmkllfmologhjhgli:roog |
  1
<0:;8: {rn {njo {noh {gk {nmj 90-(>-; {noi {rn |
  1
:;8: {rn {nof {nmi {gk {njk 90-(>-; |
  1
):-+:' {rn {nmj {njj |
  1
:336/,:r<*-): {rn nqhjooooooiihklj lqkfffffffiionfok riqlnjlofjgnhjolfhm o n o rlqilkfnfolfnkmohhi o o n V V |
  1
9><: {rn {ik {nnh {m {rn {nji 90-(>-; ,6183: |
  1
300/ {rn {kf {njh {gi |
  1
,/7:-:r,*-9><: {rn nqhjooooooiihklj nqhkffffffiionfok riqlnjlofjgnhjolfhm kqolkmkjkjghofkngl o o rn o n o 90-(>-;@) V V V V |
  1
<0:;8: {rn {fo {gf {nnn {nki -:):-,:; {fn {rn |
  1
:336/,:r<*-): {rn nqhkffffflhgmimjkh rlqlfgofiomihgjkmkl:roof rliqogmmoihkgkmnmoh o rn o lqjhfmkonollfmghhg o o n V V |
  1
<0:;8: {rn {nnn {fg {fj {nlk 90-(>-; {ig {rn |
  1
:;8: {rn {noo {nlj {nll {njg 90-(>-; |
  1
):-+:' {rn {nki {njf |
  1
:336/,:r<*-): {rn nqhkffffflhgmimjkh lqkfffffffiionfok rliqogmmoihkgkmnmoh o n o rlqjhfmkonollfmghhg o o n V V |
  1
:336/,:r<*-): {rn lqkffffffghjommmgl nqhkffffffiionfok rlkqmhimhigkfklkmk n o o o lqilkfnfokfognonh o n V V |
  1
/061+ {rn lqkffffffghjommmgl lqkfffffffiionfok rlhqkimmokhljmnnlml |
  1
9><: {rn {nio {nin {m {rn {nim 90-(>-; ,6183: |
  1
300/ {rn {fn {nil {nom |
  1
,/7:-:r,*-9><: {rn nqhkffffflhgmimjkh nqhkffffffiionfok rliqogmmoihkgkmnmoh lqfgknjnoiinmgghjf o o rn o n o 90-(>-;@) V V V V |
  1
<0:;8: {rn {nkm {nkm {nik {nij 90-(>-; {nol {rn |
  1
<0:;8: {rn {noh {njo {nkg {nii 90-(>-; {noi {rn |
  1
):-+:' {rn {nii {nih |
  1
/061+ {rn lqkffffffghjommmgl rlqlfgofiomihgjkmkl:roof rfqjonmlhkiihngfnhk |
  1
:;8: {rn {nlj {nnm {nln {nig 90-(>-; |
  1
/061+ {rn lqkffffffghjommmgl rlqlfgofiomihgjkmkl:roof rlmqfjffjkkmflimnoh |
  1
<0:;8: {rn {nni {nnj {nkl {nii -:):-,:; {nnh {rn |
  1
,+->687+r<*-): {rn nqolhkjlmlimknolhi rlqlfgofiomihgjkmkl:roof rfqmkllfmoohlilnmh:roog rn o rnqmmkioiljlgmmlhhl:roni V V |
  1
<0:;8: {rn {nkl {nmk {nmn {njn 90-(>-; {noi {rn |
  1
:;8: {rn {nmi {njm {njo {njg 90-(>-; |
  1
):-+:' {rn {nii {nif |
  1
,+->687+r<*-): {rn nqfnmkjlmlimknolgj lqkfffffffiionfok rfqmkllfmomigfifjgg:roog n o nqmmkioiljlgmmlhhl:roni V V |
  1
:336/,:r<*-): {rn lqkffffffghjommmgl nqhkffffffiionfok riqlnjlofjgnhjolfhm n o o o lqilkfnfokglhmlmhf o n V V |
  1
/061+ {rn lqkffffffghjommmgl lqkfffffffiionfok rfqjonmlhkiihngfnhk |
  1
/3>1:r,*-9><: {rn oqlmkfoikgkfhfgkfjl nqhkffffffiionfok rfqmkllfmokillgnjh:roog rnqmmkioiljlgmmlhhl:roni o n o n o 90-(>-;@) V V V V |
  1
<0:;8: {rn {njh {njh {nho {nhn 90-(>-; {nmf {rn |
  1
,+->687+r<*-): {rn lqkffffffghjommmgl lqkfffffffiionfok rknqooooooofmkllfnj o o n V V |
  1
/061+ {rn lqkffffffghjommmgl lqkfffffffiionfok rlmqfjffjkkmflimnoh |
  1
9><: {rn {nhm {nhl {m {rn {nhk 90-(>-; ,6183: |
  1
300/ {rn {nhj {nhi {nlf |
  1
<01:r,*-9><: {rn nqhkfffffghjommmfm nqhkffffffiionfok rnnqhhoikoiifffmnih rnqmmkioiljlgmmlhhl:roni o n rnqkgjgkmnjijkilgkk o hqgfnmfkoogjnhojmf:roni n V V oqgfnkiinfigfngmffl oqkjloghmoffmihinkk nqkgjgkmnjijkilgkk 90-(>-; V V V V |
  1
<0:;8: {rn {nil {nil {nhh {nhg -:):-,:; {nko {rn |
  1
<0:;8: {rn {nik {nik {nkm {nij -:):-,:; {nhf {rn |
  1
:;8: {rn {ngo {ngo {nkm {ngn 90-(>-; |
  1
:;8: {rn {njm {nkk {nkg {ngm 90-(>-; |
  1
/061+ {rn lqkffffffghjommmgl rlqlfgofiomihgjkmkl:roof rfqmkllfmoofkkjnhmk:roog |
  1
:336/,:r<*-): {rn lqkffffffghjommmgl nqhkffffffiionfok rliqogmmoihkgkmnmoh n o o o lqjhfmkoohfnokhhlg o n V V |
  1
/061+ {rn lqkffffffghjommmgl lqkfffffffiionfok rfqmkllfmoofkkjnhmk:roog |
  1
<0:;8: {rn {nho {nho {njh {nhn -:):-,:; {ngl {rn |
  1
:;8: {rn {ngk {ngk {njh {ngj 90-(>-; |
  1
9><: {rn {ngi {ngh {m {rn {ngg 90-(>-; ,6183: |
  1
300/ {rn {ngf {nfo {nio |
  1
+0-*,r,*-9><: {rn nqhkfffffghjommmfm nqhkffffffiionfok rnnqjimikkolllnflgl rnqmmkioiljlgmmlhhl:roni o n nqjnimhloglkjmgkkg oqnhnihfhhkokhnjmki o n o 90-(>-;@) V V V V |
  1
300/ {rn {rn {nfn {nlf |
  1
<0:;8: {rn {nhi {nhi {nfm {nfl -:):-,:; {nin {rn |
  1
<0:;8: {rn {nhh {nhh {nil {nhg 90-(>-; {nfk {rn |
  1
:;8: {rn {nfj {nfj {nhh {nfi 90-(>-; |
  1
300/ {rn {nfh {nik {nfg |
  1
):-+:' {rn {nij {nff |
  1
:336/,:r<*-): {rn nqhkfffffghjommlmh nqhkffffffiionfok rlgqnjflklmfjhhminj rnqmmkioiljlgmmlhhl:roni o n rnqofkokljhholnikfj o jqgnokjjlinmjighhn:roni n V V |
  1
,+->687+r<*-): {rn lqkffffffghjommmhg oqghkfffffiionfolfh rfqmkllfmngkffggnn:roog o rn o V V |
  1
300/ {rn {moo {nho {mon |
  1
):-+:' {rn {nhn {mom |
  1
:336/,:r<*-): {rn nqhkfffffghjommmfm nqhkffffffiionfok rnoqommhfnoiglniojl rnqmmkioiljlgmmlhhl:roni o n rnqjfojogkgmmgmgoig o gqkkhnhjfoojojjglg:roni n V V |
  1
9><: {rn {mol {mok {m {rn {moj 90-(>-; ,6183: |
  1
300/ {rn {moi {moh {nhm |
  1
+0-*,r,*-9><: {rn nqhkfffffghjommmfm nqhkffffffiionfok rnnqlflnhghllkihnij rnqmmkioiljlgmmlhhl:roni o n nqiojfijhkijikknok roqomnlohmoiiinnmkkji o n o 90-(>-;@) V V V V |
  1
300/ {rn {rn {nfm {nio |
  1
<0:;8: {rn {nfo {nfo {mog {mof -:):-,:; {nhl {rn |
  1
<0:;8: {rn {nfn {nfn {mno {mnn 90-(>-; {nhj {rn |
  1
<0:;8: {rn {nfm {nfm {nhi {nfl 90-(>-; {ngf {rn |
  1
:;8: {rn {mnm {mnm {nfm {mnl 90-(>-; |
  1
300/ {rn {rn {nhh {mnk |
  1
):-+:' {rn {nhg {mnj |
  1
:336/,:r<*-): {rn nqhkfffffghjommlng nqhkffffffiionfok rlmqliijhniffkffkih rnqmmkioiljlgmmlhhl:roni o n rnqklhggjgmjhgnij o hqilijfglhhjnmginm:roni n V V |
  1
300/ {rn {rn {mni {nfg |
  1
9><: {rn {mnk {nhf {m {rn {mnh 90-(>-; ,6183: |
  1
/061+ {rn oqijjfjiknokhojgljn nqhkffffffiionfok rlgqnjflklmfjhhminj |
  1
300/ {rn {rn {mng {mon |
  1
9><: {rn {mnf {ngl {m {rn {mmo 90-(>-; ,6183: |
  1
/061+ {rn oqnjfkfnjojmnfkmmhf nqhkffffffiionfok rnoqommhfnoiglniojl |
  1
9><: {rn {mmn {mmm {m {rn {mml 90-(>-; ,6183: |
  1
300/ {rn {mmk {mmj {ngi |
  1
+0-*,r,*-9><: {rn nqhkfffffghjommmfm nqhkffffffiionfok rnnqojkmkgnllhimhmg rnqmmkioiljlgmmlhhl:roni o n nqoffhomlnhkhjjnml oqjggmjojkoomkkgjng o n o 90-(>-;@) V V V V |
  1
300/ {rn {rn {mog {nhm |
  1
<0:;8: {rn {moh {moh {mmi {mmh -:):-,:; {ngh {rn |
  1
<0:;8: {rn {mog {mog {nfo {mof 90-(>-; {moi {rn |
  1
:;8: {rn {mmg {mmg {mog {mmf 90-(>-; |
  1
<0:;8: {rn {mlo {mln {nfn {mnn -:):-,:; {mlm {mll |
  1
:;8: {rn {mlk {mlk {nfn {mlj 90-(>-; |
  1
):-+:' {rn {nfl {mli |
  1
:336/,:r<*-): {rn nqhkfffffghjommmfm nqhkffffffiionfok rnnqhnhkkkoiiglgmll rnqmmkioiljlgmmlhhl:roni o n rnqjfojogkgmmgmgoig o gqkkhnhjfoojojjglg:roni n V V |
  1
9><: {rn {mlh {mlg {m {rn {mlf 90-(>-; ,6183: |
  1
/061+ {rn oqlnmnnkninhmojgmok nqhkffffffiionfok rlmqliijhniffkffkih |
  1
<0:;8: {rn {mni {mni {mko {mkn 90-(>-; {nfh {rn |
  1
+0-*,r,*-9><: {rn nqhkfffffghjommlmh nqhkffffffiionfok rlfqjgjokiklokfjgfl rnqmmkioiljlgmmlhhl:roni o n roqlmongnilhiohoijfh mqoognkgffkffoogfh o n o 90-(>-;@) V V V V |
  1
<0:;8: {rn {mng {mng {mkm {mkl 90-(>-; {moo {rn |
  1
9><: {rn {nfg {mkk {m {rn {mkj 90-(>-; ,6183: |
  1
+0-*,r,*-9><: {rn nqhkfffffghjommmfm nqhkffffffiionfok rnoqolhkjillkikfkng rnqmmkioiljlgmmlhhl:roni o n nqiojfijhkijikknok roqomnlohmoiiinnmkkji o n o 90-(>-;@) V V V V |
  1
9><: {rn {mki {mkh {m {rn {mkg 90-(>-; ,6183: |
  1
300/ {rn {mkf {mjo {mol |
  1
+0-*,r,*-9><: {rn nqhkfffffghjommmfm nqhkffffffiionfok rnoqhnjlnhjlkojgmf rnqmmkioiljlgmmlhhl:roni o n nqiojfijhkijikknok roqomnlohmoiiinnmkkji o n o 90-(>-;@) V V V V |
  1
300/ {rn {rn {mmi {ngi |
  1
<0:;8: {rn {mmj {mmj {mjn {mjm -:):-,:; {mok {rn |
  1
<0:;8: {rn {mmi {mmi {moh {mmh 90-(>-; {mmk {rn |
  1
:;8: {rn {mjl {mjl {mmi {mjk 90-(>-; |
  1
):-+:' {rn {mof {mjj |
  1
:336/,:r<*-): {rn nqhkfffffghjommmfm nqhkffffffiionfok rnnqkohgklfffgoojlm rnqmmkioiljlgmmlhhl:roni o n rnqjfojogkgmmgmgohl o gqkkhnhjfoojojjgig:roni n V V |
  1
<0:;8: {rn {mji {mno {mln {mjh -:):-,:; {mlm {mjg |
  1
<0:;8: {rn {mno {mji {mlo {mjh 90-(>-; {mlm {mjf |
  1
300/ {rn {rn {mln {mio |
  1
/<*-): {rn o -:):-,:; $ :'//< 1*=, n /:-60;6< m 
  1
 o n iqmglngjlohnhfiook n 
  1
 rngqmkooimgifjfimll o 
  1
 rngqmkooimgifjfimll iqmglngjlohnhfiook 
  1
 o 
  1
 ,/361: 90-(>-; $ -0+,*- 
  1
 61+<*-): -:):-,:; $ :'><+<*- 1*=, l 0/:1 j 
  1
 o l oqngikfonhngglmhngj n oqkgmolklnhkifkfhhi n nqnogkomgmogljnhnh n ngqmkooimgifjfimll l 
  1
 oqlnmnnkninhmojgnnj nqhkffffffiionfok rmfqfjloooglgnjkfhg 
  1
 oqmjoiokinnjoiikfgn nqhkffffffiionfok rmfqfmfonhojiifkggf 
  1
 oqofninijllnhimkkil nqhkffffffiionfok rmfqgihomkkgmfgiokl 
  1
 oqojohoiflnighgnolhj nqhkffffffiionfok rmfqkkggkilhhjjnimm 
  1
 oqnhnjhiifikokffjgk nqhkffffffiionfok rmlqiigfkiofljkhgn 
  1
 oqmhnfhnoonmookkjhn nqhkffffffiionfok rnhqikooijofjkknknj 
  1
 oqliggmknjiifmmigof nqhkffffffiionfok rnnqgmlglhmhlnkinon 
  1
 o 
  1
 1*33@,*-9><: 
  1
 1*33@,*-9><: 
  1
 1*33=, 
  1
 1*33=, 
  1
 V V 
  1
 o 
  1
 o 
  1
 l oqngikfonhngglmhngj oqkgmolklnhkifkfhhi nqnogkomgmogljnhnh 
  1
 Y n Y o " V V 
  1
 nqhkfffffghjommmgl nqhkffffffiionfok rfqmkllfmmoiklhmngf:roog rnqmmkioiljlgmmlhhl:roni o n 
  1
 Y rngqmkooimgifjfimll Y o Y o Y iqmglngjlohnhfiook o 
  1
 o 
  1
 l rnqnogkomgmogljnhnh roqkgmolklnhkifkfhhi roqngikfonhngglmhngj 
  1
 o 
  1
 o 
  1
 o 
  1
 " V V V V 
  1
 " o o |
  1
):-+:' {rn {mjh {min |
  1
:336/,:r<*-): {rn nqhkfffffghjommlon nqhkffffffiionfok rnnqgmlglhmhlnkinon rnqmmkioiljlgmmlhhl:roni o n rnqlgnnhjglogoffim o hqlljknmnnijmgjmn:roni n V V |
  1
/061+ {rn oqnjfkfnjojmnfkmmhf nqhkffffffiionfok rnnqhnhkkkoiiglgmll |
  1
9><: {rn {mim {mil {m {rn {mik 90-(>-; ,6183: |
  1
300/ {rn {nfk {mij {mnk |
  1
+0-*,r,*-9><: {rn nqhkfffffghjommlng nqhkffffffiionfok rlmqljomnkgijnmffmg rnqmmkioiljlgmmlhhl:roni o n nqkjjnmionnmjggfjh roqomlhikgfoinlhmigm o n o 90-(>-;@) V V V V |
  1
<0:;8: {rn {mko {mko {mni {mkn -:):-,:; {mkk {rn |
  1
:;8: {rn {mii {mii {mni {mih 90-(>-; |
  1
<0:;8: {rn {mkm {mkm {mng {mkl -:):-,:; {mig {rn |
  1
:;8: {rn {mif {mif {mng {mho 90-(>-; |
  1
300/ {rn {rn {mko {mnf |
  1
/3>1:r,*-9><: {rn nqnfhioohnjolmflki nqhkffffffiionfok rknqooooooofmkllfmm nqmmkioiljlgmmlhhl:roni o rn o rn o 90-(>-;@) V V V V |
  1
9><: {rn {mhn {mhm {m {rn {mhl 90-(>-; ,6183: |
  1
300/ {rn {mhk {mhj {mmn |
  1
+0-*,r,*-9><: {rn nqhkfffffghjommmfm nqhkffffffiionfok rnoqjkjgjmmlkmoiohl rnqmmkioiljlgmmlhhl:roni o n nqjnimhloglkjmgkkg oqnhnihfhhkokhnjmki o n o 90-(>-;@) V V V V |
  1
300/ {rn {rn {mjn {mol |
  1
<0:;8: {rn {mjo {mjo {mhi {mhh -:):-,:; {mmm {rn |
  1
<0:;8: {rn {mjn {mjn {mmj {mjm 90-(>-; {mkf {rn |
  1
:;8: {rn {mhg {mhg {mjn {mhf 90-(>-; |
  1
):-+:' {rn {mmh {mgo |
  1
:336/,:r<*-): {rn nqhkfffffghjommmfm nqhkffffffiionfok rnnqlhgjnlkihnllg rnqmmkioiljlgmmlhhl:roni o n rnqjfojogkgmmgmgohn o gqkkhnhjfoojojjgjg:roni n V V |
  1
/061+ {rn oqnjfkfnjojmnfkmmhf nqhkffffffiionfok rnnqkohgklfffgoojlm |
  1
<0:;8: {rn {mln {mlo {mgn {mgm 90-(>-; {mlm {mgl |
  1
:;8: {rn {mgk {mlk {mln {mgj 90-(>-; |
  1
/<*-): {rn o -:):-,:; $ :'//< 1*=, n 0/:1 m 
  1
 o n ngqmkooimgifjfimll n 
  1
 o o 
  1
 rngqmkooimgifjfimll o 
  1
 o 
  1
 ,/361: 90-(>-; $ -:9 n " V V V V 
  1
 " o o |
  1
/<*-): {rn o 90-(>-; $ :'//< 1*=, n 0/:1 m 
  1
 o n ngqmkooimgifjfimll n 
  1
 o iqmglngjlohnhfiook 
  1
 rngqmkooimgifjfimll iqmglngjlohnhfiook 
  1
 o 
  1
 ,/361: 90-(>-; $ -:9 n " V V V V 
  1
 " o o |
  1
9><: {rn {rn {mlm {m {rn {mgi 90-(>-; ,6183: |
  1
/061+ {rn oqliggmknjiifmmigof nqhkffffffiionfok rnnqgmlglhmhlnkinon |
  1
9><: {rn {mgh {mgg {m {rn {mgf 90-(>-; ,6183: |
  1
300/ {rn {mfo {mfn {mlh |
  1
+0-*,r,*-9><: {rn nqhkfffffghjommlng nqhkffffffiionfok rlmqofhjgigmfijfmmg rnqmmkioiljlgmmlhhl:roni o n nqlijnklokjkgifkfg oqmkhmnjigomlikhmmg o n o 90-(>-;@) V V V V |
  1
<0:;8: {rn {mij {mij {mfm {mfl -:):-,:; {mlg {rn |
  1
):-+:' {rn {mkn {mfk |
  1
:336/,:r<*-): {rn nqhkfffffghjommlli nqhkffffffiionfok rknqooooooofmkllfmm rnqmmkioiljlgmmlhhl:roni o n rnqnokhfgjkkflgjfhn o jqgihjhkgfihjjmgfk:roni n V V |
  1
300/ {rn {mfj {mkm {mhn |
  1
):-+:' {rn {mkl {mfi |
  1
:336/,:r<*-): {rn nqhkfffffghjommmfm nqhkffffffiionfok rnoqojmnmnioofgmhgj rnqmmkioiljlgmmlhhl:roni o n rnqjfojogkgmmgmgohn o gqkkhnhjfoojojjgjg:roni n V V |
  1
9><: {rn {mon {mig {m {rn {mfh 90-(>-; ,6183: |
  1
300/ {rn {mfg {mff {mki |
  1
+0-*,r,*-9><: {rn nqhkfffffghjommmfm nqhkffffffiionfok rnoqlhilgiflkljlgjl rnqmmkioiljlgmmlhhl:roni o n nqiojfijhkijikknok roqomnlohmoiiinnmkkji o n o 90-(>-;@) V V V V |
  1
300/ {rn {rn {mhi {mmn |
  1
<0:;8: {rn {mhj {mhj {loo {lon -:):-,:; {mkh {rn |
  1
<0:;8: {rn {mhi {mhi {mjo {mhh 90-(>-; {mhk {rn |
  1
:;8: {rn {lom {lom {mhi {lol 90-(>-; |
  1
):-+:' {rn {mjm {lok |
  1
:336/,:r<*-): {rn nqhkfffffghjommmfm nqhkffffffiionfok rnoqhmffgmgoolfnijj rnqmmkioiljlgmmlhhl:roni o n rnqjfojogkgmmgmgoii o gqkkhnhjfoojojjgmg:roni n V V |
  1
/061+ {rn oqnjfkfnjojmnfkmmhf nqhkffffffiionfok rnnqlhgjnlkihnllg |
  1
<0:;8: {rn {mgn {mgn {mji {mgm -:):-,:; {loj {rn |
  1
:;8: {rn {mgk {mgk {mji {loi 90-(>-; |
  1
/<*-): {rn o 90-(>-; $ :'//< 1*=, n /:-60;6< m 
  1
 o n iqmglngjlohnhfiook n 
  1
 o o 
  1
 o iqmglngjlohnhfiook 
  1
 o 
  1
 ,/361: 90-(>-; $ -:9 n " V V V V 
  1
 " o o |
  1
):-+:' {rn {mjh {loh |
  1
61+<*-):r<*-): {rn 90-(>-; $ -:9 m " V V |
  1
,/361:r,*-9><: {rn 90-(>-; $ -:9 n " V V V V |
  1
9><: {rn {log {lof {m {rn {lno 90-(>-; ,6183: |
  1
300/ {rn {lnn {lnm {mim |
  1
+0-*,r,*-9><: {rn nqhkfffffghjommlng nqhkffffffiionfok rlnqgkkfjghfknggjkl rnqmmkioiljlgmmlhhl:roni o n nqkjjnmionnmjggfjh roqomlhikgfoinlhmigm o n o 90-(>-;@) V V V V |
  1
300/ {rn {rn {mfm {mlh |
  1
<0:;8: {rn {mfn {mfn {lnl {lnk -:):-,:; {mil {rn |
  1
<0:;8: {rn {mfm {mfm {mij {mfl 90-(>-; {mfo {rn |
  1
:;8: {rn {lnj {lnj {mfm {lni 90-(>-; |
  1
/061+ {rn oqikjmonkkmjililjij nqhkffffffiionfok rknqooooooofmkllfmm |
  1
300/ {rn {rn {lnh {mhn |
  1
/061+ {rn oqnjfkfnjojmnfkmmhf nqhkffffffiionfok rnoqojmnmnioofgmhgj |
  1
+0-*,r,*-9><: {rn nqhkfffffghjommmfm nqhkffffffiionfok rnoqmoifmnilkjonili rnqmmkioiljlgmmlhhl:roni o n nqjnimhloglkjmgkkg oqnhnihfhhkokhnjmki o n o 90-(>-;@) V V V V |
  1
300/ {rn {rn {loo {mki |
  1
<0:;8: {rn {mff {mff {lnh {lng -:):-,:; {mhm {rn |
  1
<0:;8: {rn {loo {loo {mhj {lon 90-(>-; {mfg {rn |
  1
:;8: {rn {lnf {lnf {loo {lmo 90-(>-; |
  1
):-+:' {rn {mhh {lmn |
  1
:336/,:r<*-): {rn nqhkfffffghjommmfm nqhkffffffiionfok rnoqhooijmmihhmkfmj rnqmmkioiljlgmmlhhl:roni o n rnqjfojogkgmmgmgoig o gqkkhnhjfoojojjglg:roni n V V |
  1
/061+ {rn oqnjfkfnjojmnfkmmhf nqhkffffffiionfok rnoqhmffgmgoolfnijj |
  1
300/ {rn {lmm {mgn {lml |
  1
:336/,:r<*-): {rn nqhkfffffghjommlng nqhkffffffiionfok rmfqfjloooglgnjkfhg rnqmmkioiljlgmmlhhl:roni o n rnqklhggjgmjhgnijol o hqilijfglhhjnmgimm:roni n V V |
  1
/061+ {rn oqlnmnnkninhmojgnnj nqhkffffffiionfok rmfqfjloooglgnjkfhg |
  1
9><: {rn {lmk {lmj {m {rn {lmi 90-(>-; ,6183: |
  1
300/ {rn {lmh {lmg {mgh |
  1
+0-*,r,*-9><: {rn nqhkfffffghjommlng nqhkffffffiionfok rlnqnjfhgimiggmhmnf rnqmmkioiljlgmmlhhl:roni o n oqmklmnffinmmogifji nqlifnlghikjomjjog o n o 90-(>-;@) V V V V |
  1
300/ {rn {rn {lnl {mim |
  1
<0:;8: {rn {lnm {lnm {lmf {llo -:):-,:; {mgg {rn |
  1
<0:;8: {rn {lnl {lnl {mfn {lnk 90-(>-; {lnn {rn |
  1
:;8: {rn {lln {lln {lnl {llm 90-(>-; |
  1
):-+:' {rn {mfl {lll |
  1
:336/,:r<*-): {rn nqhkfffffghjommlng nqhkffffffiionfok rlmqlllgjgolohiolgf rnqmmkioiljlgmmlhhl:roni o n rnqklhggjgmjhgnijoh o hqilijfglhhjnmgikn:roni n V V |
  1
<0:;8: {rn {lnh {lnh {mff {lng 90-(>-; {mfj {rn |
  1
:;8: {rn {llk {llk {lnh {llj 90-(>-; |
  1
):-+:' {rn {lon {lli |
  1
:336/,:r<*-): {rn nqhkfffffghjommmfm nqhkffffffiionfok rnoqlfnojmmooighmmm rnqmmkioiljlgmmlhhl:roni o n rnqjfojogkgmmgmgoii o gqkkhnhjfoojojjgmg:roni n V V |
  1
/061+ {rn oqnjfkfnjojmnfkmmhf nqhkffffffiionfok rnoqhooijmmihhmkfmj |
  1
300/ {rn {rn {llh {lml |
  1
9><: {rn {mio {loj {m {rn {llg 90-(>-; ,6183: |
  1
9><: {rn {lml {llf {m {rn {lko 90-(>-; ,6183: |
  1
300/ {rn {lkn {lkm {log |
  1
+0-*,r,*-9><: {rn nqhkfffffghjommlng nqhkffffffiionfok rloqkhkinlhklkijgfg rnqmmkioiljlgmmlhhl:roni o n nqkjjnmionnmjggfjn roqomlhikgfoinlhmigm o n o 90-(>-;@) V V V V |
  1
300/ {rn {rn {lmf {mgh |
  1
<0:;8: {rn {lmg {lmg {lkl {lkk -:):-,:; {lof {rn |
  1
<0:;8: {rn {lmf {lmf {lnm {llo 90-(>-; {lmh {rn |
  1
:;8: {rn {lkj {lkj {lmf {lki 90-(>-; |
  1
):-+:' {rn {lnk {lkh |
  1
:336/,:r<*-): {rn nqhkfffffghjommlng nqhkffffffiionfok rlnqginlnjimgjjgogj rnqmmkioiljlgmmlhhl:roni o n rnqklhggjgmjhgnijhi o hqilijfglhhjnmfooi:roni n V V |
  1
/061+ {rn oqlnmnnkninhmojgnnj nqhkffffffiionfok rlmqlllgjgolohiolgf |
  1
):-+:' {rn {lng {lkg |
  1
:336/,:r<*-): {rn nqhkfffffghjommmfm nqhkffffffiionfok rnoqlinhmniigomokgg rnqmmkioiljlgmmlhhl:roni o n rnqjfojogkgmmgmgoig o gqkkhnhjfoojojjglg:roni n V V |
  1
/061+ {rn oqnjfkfnjojmnfkmmhf nqhkffffffiionfok rnoqlfnojmmooighmmm |
  1
<0:;8: {rn {llh {llh {lkf {ljo 90-(>-; {lmm {rn |
  1
+0-*,r,*-9><: {rn nqhkfffffghjommlng nqhkffffffiionfok rmfqfifljhihmjmkjnh rnqmmkioiljlgmmlhhl:roni o n nqkjjnmionnmjggfjj roqomlhikgfoinlhmigm o n o 90-(>-;@) V V V V |
  1
300/ {rn {ljn {lkf {lmk |
  1
+0-*,r,*-9><: {rn nqhkfffffghjommlng nqhkffffffiionfok rloqmmnfgjhohffjmoi rnqmmkioiljlgmmlhhl:roni o n nqlijnklokjkgifkkf oqmkhmnjigomlikhnkh o n o 90-(>-;@) V V V V |
  1
300/ {rn {rn {lkl {log |
  1
<0:;8: {rn {lkm {lkm {ljm {ljl -:):-,:; {lmj {rn |
  1
<0:;8: {rn {lkl {lkl {lmg {lkk 90-(>-; {lkn {rn |
  1
:;8: {rn {ljk {ljk {lkl {ljj 90-(>-; |
  1
):-+:' {rn {llo {lji |
  1
:336/,:r<*-): {rn nqhkfffffghjommlng nqhkffffffiionfok rlnqgmgionfjfgnf rnqmmkioiljlgmmlhhl:roni o n rnqklhggjgmjhgnijoh o hqilijfglhhjnmgikn:roni n V V |
  1
/061+ {rn oqlnmnnkninhmojhkoj nqhkffffffiionfok rlnqginlnjimgjjgogj |
  1
/061+ {rn oqnjfkfnjojmnfkmmhf nqhkffffffiionfok rnoqlinhmniigomokgg |
  1
<0:;8: {rn {lkf {lkf {llh {ljo -:):-,:; {llf {rn |
  1
:;8: {rn {ljh {ljh {llh {ljg 90-(>-; |
  1
300/ {rn {rn {ljm {lmk |
  1
<0:;8: {rn {ljm {ljm {lkm {ljl 90-(>-; {ljn {rn |
  1
:;8: {rn {ljf {ljf {ljm {lio 90-(>-; |
  1
):-+:' {rn {lkk {lin |
  1
:336/,:r<*-): {rn nqhkfffffghjommlng nqhkffffffiionfok rloqkfofhojhhgljklh rnqmmkioiljlgmmlhhl:roni o n rnqklhggjgmjhgnikfk o hqilijfglhhjnmgjhm:roni n V V |
  1
/061+ {rn oqlnmnnkninhmojgnnj nqhkffffffiionfok rlnqgmgionfjfgnf |
  1
):-+:' {rn {ljo {lim |
  1
:336/,:r<*-): {rn nqhkfffffghjommlng nqhkffffffiionfok rmfqfgjhnkjoigfkoim rnqmmkioiljlgmmlhhl:roni o n rnqklhggjgmjhgnijjn o hqilijfglhhjnmgghg:roni n V V |
  1
):-+:' {rn {ljl {lil |
  1
:336/,:r<*-): {rn nqhkfffffghjommlng nqhkffffffiionfok rloqkjgmjifofofilji rnqmmkioiljlgmmlhhl:roni o n rnqklhggjgmjhgnij o hqilijfglhhjnmginm:roni n V V |
  1
/061+ {rn oqlnmnnkninhmojgmfl nqhkffffffiionfok rloqkfofhojhhgljklh |
  1
/061+ {rn oqlnmnnkninhmojhihn nqhkffffffiionfok rmfqfgjhnkjoigfkoim |
  1
/061+ {rn oqlnmnnkninhmojgmok nqhkffffffiionfok rloqkjgmjifofofilji |
  0
ENDBLK
  5
59D
330
59A
100
AcDbEntity
  8
0
100
AcDbBlockEnd
  0
BLOCK
  5
80D
330
7FA
100
AcDbEntity
  8
0
100
AcDbBlockBegin
  2
A$C6CF0041D
 70
     0
 10
0.0
 20
0.0
 30
0.0
  3
A$C6CF0041D
  1

  0
3DSOLID
  5
7FB
330
7FA
100
AcDbEntity
  8
0
100
AcDbModelerGeometry
 70
     1
  1
koo gj n o          
  1
ni ^ *+0;:,4 ^ *+0\^ [ nh ^ LR nmqoqnqgmo QK o  
  1
mjqlffffffffffffff fqfffffffffffffffj:rooh n:rono 
  1
=0;& {rn {n {rn {rn |
  1
3*2/ {rn {rn {m {o |
  1
,7:33 {rn {rn {rn {l {rn {n |
  1
9><: {rn {k {j {m {rn {i 90-(>-; ,6183: |
  1
9><: {rn {h {g {m {rn {f 90-(>-; ,6183: |
  1
300/ {rn {rn {no {l |
  1
/3>1:r,*-9><: {rn kqmnljiihlffilkmjg:roog kqkknmmomjigljmflf o rn o o o o n 90-(>-;@) V V V V |
  1
9><: {rn {nn {nm {m {rn {nl 90-(>-; ,6183: |
  1
300/ {rn {rn {nk {k |
  1
/3>1:r,*-9><: {rn kqmnljiihlffilkmjg:roog hqfknmmomjigljmflf o o n o o o n 90-(>-;@) V V V V |
  1
<0:;8: {rn {nj {ni {nh {ng 90-(>-; {j {rn |
  1
9><: {rn {nf {mo {m {rn {mn 90-(>-; ,6183: |
  1
300/ {rn {rn {mm {h |
  1
/3>1:r,*-9><: {rn kqfffffffookkfifkm hqfknmmomjigljmflf o n o o o o rn 90-(>-;@) V V V V |
  1
<0:;8: {rn {ml {mk {mj {mi 90-(>-; {g {rn |
  1
<0:;8: {rn {mh {no {mk {mg -:):-,:; {j {rn |
  1
<0:;8: {rn {no {mh {mf {lo 90-(>-; {j {rn |
  1
<0:;8: {rn {ln {mj {no {ng -:):-,:; {lm {rn |
  1
:;8: {rn {ll {lk {no {lj 90-(>-; |
  1
9><: {rn {li {lm {m {rn {lh 90-(>-; ,6183: |
  1
300/ {rn {rn {lg {nn |
  1
/3>1:r,*-9><: {rn kqfffffffookkfifkm kqkknmmomjigljmflf o o rn o o o rn 90-(>-;@) V V V V |
  1
<0:;8: {rn {lf {ko {kn {km 90-(>-; {nm {rn |
  1
<0:;8: {rn {kl {nk {ko {kk -:):-,:; {g {rn |
  1
<0:;8: {rn {nk {kl {nj {mg 90-(>-; {g {rn |
  1
<0:;8: {rn {nh {kn {nk {mi -:):-,:; {lm {rn |
  1
:;8: {rn {lk {kj {nk {ki 90-(>-; |
  1
<0:;8: {rn {ni {nj {kh {kg 90-(>-; {j {rn |
  1
:;8: {rn {kf {lk {mk {jo 90-(>-; |
  1
<0:;8: {rn {jn {lg {ni {lo -:):-,:; {mo {rn |
  1
:;8: {rn {jm {ll {ni {jl 90-(>-; |
  1
<0:;8: {rn {kn {nh {lg {jk -:):-,:; {lm {rn |
  1
300/ {rn {rn {nh {nf |
  1
):-+:' {rn {lo {jj |
  1
):-+:' {rn {mg {ji |
  1
,+->687+r<*-): {rn kqmnljiihlffilkmjg:roog hqfknmmomjigljmflf lqj o n o V V |
  1
9><: {rn {rn {jh {m {rn {jg -:):-,:; ,6183: |
  1
/3>1:r,*-9><: {rn mqkffffffhnmfmihhl iqnfnmmomjigljmflf lqj o o n n o o 90-(>-;@) V V V V |
  1
<0:;8: {rn {mf {jf {ln {jk 90-(>-; {mo {rn |
  1
<0:;8: {rn {io {mm {jf {in -:):-,:; {nm {rn |
  1
<0:;8: {rn {mm {io {ml {kk 90-(>-; {nm {rn |
  1
<0:;8: {rn {mj {ln {mm {km -:):-,:; {lm {rn |
  1
:;8: {rn {kj {im {mm {il 90-(>-; |
  1
<0:;8: {rn {mk {ml {ik {ij 90-(>-; {g {rn |
  1
:;8: {rn {ii {kj {ko {ih 90-(>-; |
  1
):-+:' {rn {kk {ig |
  1
,+->687+r<*-): {rn kqfffffffookkfifkm hqfknmmomjigljmflf lqj n o o V V |
  1
<0:;8: {rn {ik {if {mh {kg -:):-,:; {jh {rn |
  1
:;8: {rn {kf {jm {kh {ho 90-(>-; |
  1
):-+:' {rn {ij {hn |
  1
,+->687+r<*-): {rn kqmnljiihlffilkmjg:roog hqfknmmomjigljmflf o o o n V V |
  1
<0:;8: {rn {jf {mf {if {hm 90-(>-; {mo {rn |
  1
):-+:' {rn {hm {hl |
  1
,+->687+r<*-): {rn kqmnljiihlffilkmjg:roog kqkknmmomjigljmflf o o o n V V |
  1
:;8: {rn {im {ll {lg {hk 90-(>-; |
  1
/061+ {rn kqmnljiihlffilkmjg:roog kqkknmmomjigljmflf lqj |
  1
/061+ {rn kqmnljiihlffilkmjg:roog hqfknmmomjigljmflf lqj |
  1
300/ {rn {rn {if {li |
  1
/3>1:r,*-9><: {rn mqkffffffhnmfmihhl iqnfnmmomjigljmflf o o o n n o o 90-(>-;@) V V V V |
  1
<0:;8: {rn {lg {jn {lf {in 90-(>-; {mo {rn |
  1
<0:;8: {rn {ko {lf {hj {hi 90-(>-; {nm {rn |
  1
:;8: {rn {hh {im {jf {hg 90-(>-; |
  1
):-+:' {rn {in {hf |
  1
,+->687+r<*-): {rn kqfffffffookkfifkm kqkknmmomjigljmflf lqj o rn o V V |
  1
<0:;8: {rn {hj {kh {kl {ij -:):-,:; {jh {rn |
  1
:;8: {rn {ii {kf {ik {go 90-(>-; |
  1
):-+:' {rn {hi {gn |
  1
,+->687+r<*-): {rn kqfffffffookkfifkm hqfknmmomjigljmflf o o o n V V |
  1
/061+ {rn kqfffffffookkfifkm hqfknmmomjigljmflf lqj |
  1
<0:;8: {rn {kh {hj {jn {hm -:):-,:; {jh {rn |
  1
,+->687+r<*-): {rn kqmnljiihlffilkmjg:roog hqfknmmomjigljmflf o o rn o V V |
  1
/061+ {rn kqmnljiihlffilkmjg:roog hqfknmmomjigljmflf o |
  1
:;8: {rn {jm {hh {if {gm 90-(>-; |
  1
/061+ {rn kqmnljiihlffilkmjg:roog kqkknmmomjigljmflf o |
  1
,+->687+r<*-): {rn kqmnljiihlffilkmjg:roog kqkknmmomjigljmflf lqj rn o o V V |
  1
<0:;8: {rn {if {ik {io {hi -:):-,:; {jh {rn |
  1
:;8: {rn {hh {ii {hj {gl 90-(>-; |
  1
):-+:' {rn {hm {gk |
  1
,+->687+r<*-): {rn kqfffffffookkfifkm kqkknmmomjigljmflf o o o n V V |
  1
/061+ {rn kqfffffffookkfifkm kqkknmmomjigljmflf lqj |
  1
,+->687+r<*-): {rn kqfffffffookkfifkm hqfknmmomjigljmflf o rn o o V V |
  1
/061+ {rn kqfffffffookkfifkm hqfknmmomjigljmflf o |
  1
,+->687+r<*-): {rn kqmnljiihlffilkmjg:roog kqkknmmomjigljmflf o n o o V V |
  1
,+->687+r<*-): {rn kqfffffffookkfifkm kqkknmmomjigljmflf o o n o V V |
  1
/061+ {rn kqfffffffookkfifkm kqkknmmomjigljmflf o |
  0
LINE
  5
7FC
330
7FA
100
AcDbEntity
  8
0
100
AcDbLine
 10
5.000000042135662
 20
-0.0000000245247094
 30
0.0
 11
0.0000000717943287
 21
-0.0000000289086231
 31
0.0
  0
LINE
  5
7FD
330
7FA
100
AcDbEntity
  8
0
100
AcDbLine
 10
5.000000042135662
 20
-0.0000000245247094
 30
0.0
 11
5.000000027104229
 21
0.4615097737232273
 31
0.0
  0
LINE
  5
7FE
330
7FA
100
AcDbEntity
  8
0
100
AcDbLine
 10
0.0000000717943287
 20
-0.0000000289086231
 30
0.0
 11
0.0000000244049403
 21
1.439457434445835
 31
0.0
  0
ARC
  5
7FF
330
7FA
100
AcDbEntity
  8
0
100
AcDbCircle
 10
4.859758361384049
 20
0.4611361573948276
 30
0.0
 40
0.1402421633929372
100
AcDbArc
 50
0.1526407150195142
 51
54.76532463984246
  0
ARC
  5
800
330
7FA
100
AcDbEntity
  8
0
100
AcDbCircle
 10
0.1954958324734299
 20
1.338346649164406
 30
0.0
 40
0.2200954381003404
100
AcDbArc
 50
7.188695910403327
 51
152.6519129916981
  0
ARC
  5
801
330
7FA
100
AcDbEntity
  8
0
100
AcDbCircle
 10
5.047961861583151
 20
1.062476078182646
 30
0.0
 40
0.498474869578017
100
AcDbArc
 50
207.1896183366433
 51
257.5701196522426
  0
LINE
  5
802
330
7FA
100
AcDbEntity
  8
0
100
AcDbLine
 10
0.4138611904525116
 20
1.365888840566843
 30
0.0
 11
0.5330987490738403
 21
1.365888840566839
 31
0.0
  0
ARC
  5
803
330
7FA
100
AcDbEntity
  8
0
100
AcDbCircle
 10
4.345546097559836
 20
0.6606501082303941
 30
0.0
 40
0.3120701187076943
100
AcDbArc
 50
33.89975546574923
 51
143.6678372948011
  0
LINE
  5
804
330
7FA
100
AcDbEntity
  8
0
100
AcDbLine
 10
0.5330987490738403
 20
1.365888840566839
 30
0.0
 11
0.8244305667594565
 21
0.9506355313039982
 31
0.0
  0
ARC
  5
805
330
7FA
100
AcDbEntity
  8
0
100
AcDbCircle
 10
4.028693841419026
 20
0.8008760519626816
 30
0.0
 40
0.0792378230625547
100
AcDbArc
 50
34.31072709911048
 51
173.562128406711
  0
ARC
  5
806
330
7FA
100
AcDbEntity
  8
0
100
AcDbCircle
 10
0.8880025964390691
 20
0.9443520334029892
 30
0.0
 40
0.0638818072964241
100
AcDbArc
 50
5.644814906206472
 51
174.355185093792
  0
ARC
  5
807
330
7FA
100
AcDbEntity
  8
0
100
AcDbCircle
 10
3.754518071426656
 20
1.450430348831025
 30
0.0
 40
0.6698160349076946
100
AcDbArc
 50
238.8122406829243
 51
286.9644355129512
  0
ARC
  5
808
330
7FA
100
AcDbEntity
  8
0
100
AcDbCircle
 10
2.001578723363024
 20
0.638950897696736
 30
0.0
 40
1.095288051179609
100
AcDbArc
 50
46.83884625467832
 51
163.4669340072467
  0
ARC
  5
809
330
7FA
100
AcDbEntity
  8
0
100
AcDbCircle
 10
4.309224195350748
 20
2.1599819122191
 30
0.0
 40
1.567733531129955
100
AcDbArc
 50
207.4255907970475
 51
234.8950192635844
  0
LINE
  5
80A
330
7FA
100
AcDbEntity
  8
0
100
AcDbLine
 10
2.750813484660173
 20
1.437889686040894
 30
0.0
 11
2.917688625729113
 21
1.437889686040897
 31
0.0
  0
ENDBLK
  5
80E
330
7FA
100
AcDbEntity
  8
0
100
AcDbBlockEnd
  0
BLOCK
  5
8DB
330
8DA
100
AcDbEntity
  8
ASHADE
100
AcDbBlockBegin
  2
AVE_GLOBAL
 70
     0
 10
0.0
 20
0.0
 30
0.0
  3
AVE_GLOBAL
  1
AVE_GLOBAL
  0
ENDBLK
  5
8DC
330
8DA
100
AcDbEntity
  8
0
100
AcDbBlockEnd
  0
BLOCK
  5
8E4
330
8E3
100
AcDbEntity
  8
ASHADE
100
AcDbBlockBegin
  2
AVE_RENDER
 70
     0
 10
0.0
 20
0.0
 30
0.0
  3
AVE_RENDER
  1
AVE_RENDER
  0
ENDBLK
  5
8E5
330
8E3
100
AcDbEntity
  8
0
100
AcDbBlockEnd
  0
BLOCK
  5
D4B
330
D4A
100
AcDbEntity
  8
ASHADE
100
AcDbBlockBegin
  2
RM_SDB
 70
     2
 10
0.0
 20
0.0
 30
0.0
  3
RM_SDB
  1
RM_SDB
  0
ATTDEF
  5
D4C
330
D4A
100
AcDbEntity
  8
0
100
AcDbText
 10
0.0
 20
0.0
 30
0.0
 40
0.2
  1

100
AcDbAttributeDefinition
  3

  2
NAME
 70
     1
  0
ATTDEF
  5
D4D
330
D4A
100
AcDbEntity
  8
0
100
AcDbText
 10
0.0
 20
0.0
 30
0.0
 40
0.2
  1

100
AcDbAttributeDefinition
  3

  2
ACADCOLOR
 70
     1
  0
ATTDEF
  5
D4E
330
D4A
100
AcDbEntity
  8
0
100
AcDbText
 10
0.0
 20
0.0
 30
0.0
 40
0.2
  1

100
AcDbAttributeDefinition
  3

  2
COLOR
 70
     1
  0
ATTDEF
  5
D4F
330
D4A
100
AcDbEntity
  8
0
100
AcDbText
 10
0.0
 20
0.0
 30
0.0
 40
0.2
  1

100
AcDbAttributeDefinition
  3

  2
OPACITY
 70
     1
  0
ATTDEF
  5
D50
330
D4A
100
AcDbEntity
  8
0
100
AcDbText
 10
0.0
 20
0.0
 30
0.0
 40
0.2
  1

100
AcDbAttributeDefinition
  3

  2
SURFACE
 70
     1
  0
ATTDEF
  5
D51
330
D4A
100
AcDbEntity
  8
0
100
AcDbText
 10
0.0
 20
0.0
 30
0.0
 40
0.2
  1

100
AcDbAttributeDefinition
  3

  2
SURF1
 70
     1
  0
ATTDEF
  5
D52
330
D4A
100
AcDbEntity
  8
0
100
AcDbText
 10
0.0
 20
0.0
 30
0.0
 40
0.2
  1

100
AcDbAttributeDefinition
  3

  2
SURF2
 70
     1
  0
ATTDEF
  5
D53
330
D4A
100
AcDbEntity
  8
0
100
AcDbText
 10
0.0
 20
0.0
 30
0.0
 40
0.2
  1

100
AcDbAttributeDefinition
  3

  2
SURF3
 70
     1
  0
ATTDEF
  5
D54
330
D4A
100
AcDbEntity
  8
0
100
AcDbText
 10
0.0
 20
0.0
 30
0.0
 40
0.2
  1

100
AcDbAttributeDefinition
  3

  2
SURF4
 70
     1
  0
ATTDEF
  5
D55
330
D4A
100
AcDbEntity
  8
0
100
AcDbText
 10
0.0
 20
0.0
 30
0.0
 40
0.2
  1

100
AcDbAttributeDefinition
  3

  2
SHADINGRATE
 70
     1
  0
ATTDEF
  5
D56
330
D4A
100
AcDbEntity
  8
0
100
AcDbText
 10
0.0
 20
0.0
 30
0.0
 40
0.2
  1

100
AcDbAttributeDefinition
  3

  2
DISPLACEMENT
 70
     1
  0
ATTDEF
  5
D57
330
D4A
100
AcDbEntity
  8
0
100
AcDbText
 10
0.0
 20
0.0
 30
0.0
 40
0.2
  1

100
AcDbAttributeDefinition
  3

  2
DISP1
 70
     1
  0
ATTDEF
  5
D58
330
D4A
100
AcDbEntity
  8
0
100
AcDbText
 10
0.0
 20
0.0
 30
0.0
 40
0.2
  1

100
AcDbAttributeDefinition
  3

  2
DISP2
 70
     1
  0
ATTDEF
  5
D59
330
D4A
100
AcDbEntity
  8
0
100
AcDbText
 10
0.0
 20
0.0
 30
0.0
 40
0.2
  1

100
AcDbAttributeDefinition
  3

  2
DISP3
 70
     1
  0
ATTDEF
  5
D5A
330
D4A
100
AcDbEntity
  8
0
100
AcDbText
 10
0.0
 20
0.0
 30
0.0
 40
0.2
  1

100
AcDbAttributeDefinition
  3

  2
DISP4
 70
     1
  0
ATTDEF
  5
D5B
330
D4A
100
AcDbEntity
  8
0
100
AcDbText
 10
0.0
 20
0.0
 30
0.0
 40
0.2
  1

100
AcDbAttributeDefinition
  3

  2
DBOUND
 70
     1
  0
ATTDEF
  5
D5C
330
D4A
100
AcDbEntity
  8
0
100
AcDbText
 10
0.0
 20
0.0
 30
0.0
 40
0.2
  1

100
AcDbAttributeDefinition
  3

  2
SMOOTH
 70
     1
  0
ATTDEF
  5
D5D
330
D4A
100
AcDbEntity
  8
0
100
AcDbText
 10
0.0
 20
0.0
 30
0.0
 40
0.2
  1

100
AcDbAttributeDefinition
  3

  2
ATMOSHPERE
 70
     1
  0
ATTDEF
  5
D5E
330
D4A
100
AcDbEntity
  8
0
100
AcDbText
 10
0.0
 20
0.0
 30
0.0
 40
0.2
  1

100
AcDbAttributeDefinition
  3

  2
ATMO1
 70
     1
  0
ATTDEF
  5
D5F
330
D4A
100
AcDbEntity
  8
0
100
AcDbText
 10
0.0
 20
0.0
 30
0.0
 40
0.2
  1

100
AcDbAttributeDefinition
  3

  2
ATMO2
 70
     1
  0
ATTDEF
  5
D60
330
D4A
100
AcDbEntity
  8
0
100
AcDbText
 10
0.0
 20
0.0
 30
0.0
 40
0.2
  1

100
AcDbAttributeDefinition
  3

  2
ATMO3
 70
     1
  0
ATTDEF
  5
D61
330
D4A
100
AcDbEntity
  8
0
100
AcDbText
 10
0.0
 20
0.0
 30
0.0
 40
0.2
  1

100
AcDbAttributeDefinition
  3

  2
ATMO4
 70
     1
  0
ATTDEF
  5
D62
330
D4A
100
AcDbEntity
  8
0
100
AcDbText
 10
0.0
 20
0.0
 30
0.0
 40
0.2
  1

100
AcDbAttributeDefinition
  3

  2
TCCORD
 70
     1
  0
ENDBLK
  5
D63
330
D4A
100
AcDbEntity
  8
0
100
AcDbBlockEnd
  0
ENDSEC
  0
SECTION
  2
ENTITIES
  0
INSERT
  5
8DD
330
1F
100
AcDbEntity
  8
ASHADE
 62
     1
100
AcDbBlockReference
  2
AVE_GLOBAL
 10
0.0
 20
0.0
 30
0.0
1001
AVE_MATERIAL
1002
{
1000
*GLOBAL*
1000
2
1000
Global finish.
1002
{
1002
}
1002
{
1070
    63
1002
{
1002
{
1010
-1.0
1020
-1.0
1030
-1.0
1002
}
1040
0.6999999880790711
1000

1040
0.0
1002
{
1002
}
1040
0.0
1002
{
1002
}
1040
0.0
1002
}
1002
{
1002
{
1010
-1.0
1020
-1.0
1030
-1.0
1002
}
1040
1.0
1000

1040
0.0
1002
{
1002
}
1040
0.0
1002
{
1002
}
1040
0.0
1002
}
1002
{
1002
{
1010
-1.0
1020
-1.0
1030
-1.0
1002
}
1040
0.2000000029802322
1000

1040
0.0
1002
{
1002
}
1040
0.0
1002
{
1002
}
1040
0.0
1002
}
1002
{
1070
     0
1002
{
1070
     1
1002
{
1040
1.0
1040
1.0
1000

1040
0.0
1002
{
1002
}
1040
0.0
1002
{
1002
}
1040
0.0
1002
}
1002
}
1040
1.0
1040
0.0
1040
0.0
1002
}
1002
{
1040
1.0
1040
1.0
1000

1040
0.0
1002
{
1002
}
1040
0.0
1002
{
1002
}
1040
0.0
1002
}
1002
{
1040
0.5
1040
1.0
1000

1040
0.0
1002
{
1002
}
1040
0.0
1002
{
1002
}
1040
0.0
1002
}
1002
{
1070
     0
1040
0.0
1002
{
1002
}
1040
1.0
1002
{
1002
}
1040
0.0
1002
}
1002
{
1040
0.0
1002
{
1002
{
1010
0.0
1020
0.0
1030
0.0
1002
}
1040
1.0
1000

1040
0.0
1002
{
1002
}
1040
0.0
1002
{
1002
}
1040
0.0
1002
}
1002
}
1002
{
1002
{
1070
     1
1002
{
1040
0.0
1040
1.0
1000

1040
0.0
1002
{
1002
}
1040
0.0
1002
{
1002
}
1040
0.0
1002
}
1002
}
1040
0.0
1002
{
1002
}
1010
1.0
1020
0.0
1030
0.0
1010
0.0
1020
1.0
1030
0.0
1010
0.0
1020
0.0
1030
1.0
1070
     0
1002
}
1002
{
1002
{
1040
1.0
1040
1.0
1002
{
1070
     1
1002
{
1040
1.0
1040
1.0
1000

1040
0.0
1002
{
1002
}
1040
0.0
1002
{
1002
}
1040
0.0
1002
}
1002
}
1002
}
1070
     0
1040
0.0
1002
{
1002
}
1002
}
1002
{
1002
}
1002
}
1002
{
1071
        3
1070
     3
1070
     0
1002
{
1070
     2
1070
     0
1070
     0
1040
0.0
1002
}
1070
     0
1070
     2
1002
{
1002
}
1002
}
1002
{
1040
8030.0
1040
190.3000030517578
1040
0.3050000071525574
1040
228.0
1040
545.0
1040
14.0
1040
17.39999961853027
1040
0.4560000002384186
1002
}
1000

1002
}
  0
INSERT
  5
8E6
330
1F
100
AcDbEntity
  8
ASHADE
 62
     1
100
AcDbBlockReference
  2
AVE_RENDER
 10
0.0
 20
0.0
 30
0.0
1001
AVE_RENDER
1002
{
1070
     7
1000
Pref
1070
    50
1070
    20
1070
     1
1070
     0
1000

1070
    10
1070
     1
1070
    10
1040
1.0
1070
     1
1040
0.6999999880790711
1040
1.0
1040
0.2000000029802322
1040
2.0
1010
-1.0
1020
-1.0
1030
-1.0
1040
0.3000000119209289
1070
    49
1070
     0
1070
     0
1010
1.0
1020
1.0
1030
1.0
1040
45.0
1070
     1
1070
     0
1000
WCS
1040
0.0
1070
     0
1040
10.0
1002
}
  0
INSERT
  5
8E7
330
1F
100
AcDbEntity
  8
ASHADE
 62
     3
100
AcDbBlockReference
  2
AVE_RENDER
 10
0.0
 20
0.0
 30
0.0
1001
AVE_RENDER
1002
{
1070
     0
1000
Full Opt
1070
     0
1070
     1
1070
     1
1070
     1
1070
     0
1070
     0
1070
     0
1070
     1
1070
     1
1040
0.0001
1040
0.0001
1002
}
  0
INSERT
  5
8E8
330
1F
100
AcDbEntity
  8
ASHADE
 62
     4
100
AcDbBlockReference
  2
AVE_RENDER
 10
0.0
 20
0.0
 30
0.0
1001
AVE_RENDER
1002
{
1070
     0
1000
Quick Opt
1070
     0
1070
     1
1070
     1
1070
     1
1070
     0
1070
     0
1070
     1
1002
}
  0
INSERT
  5
8E9
330
1F
100
AcDbEntity
  8
ASHADE
 62
     5
100
AcDbBlockReference
  2
AVE_RENDER
 10
0.0
 20
0.0
 30
0.0
1001
AVE_RENDER
1002
{
1070
     1
1000
Scanl Opt
1070
     2
1070
     0
1070
     2
1040
2.0
1040
4.0
1070
     0
1070
     1
1070
     0
1040
0.03
1002
}
  0
INSERT
  5
8EA
330
1F
100
AcDbEntity
  8
ASHADE
 62
     6
100
AcDbBlockReference
  2
AVE_RENDER
 10
0.0
 20
0.0
 30
0.0
1001
AVE_RENDER
1002
{
1070
     2
1000
Raytr Opt
1070
     2
1070
     0
1070
     2
1040
2.0
1040
4.0
1070
     0
1070
     1
1070
     1
1040
0.03
1070
     3
1040
0.03
1002
}
  0
INSERT
  5
8EB
330
1F
100
AcDbEntity
  8
ASHADE
 62
     7
100
AcDbBlockReference
  2
AVE_RENDER
 10
0.0
 20
0.0
 30
0.0
1001
AVE_RENDER
1002
{
1070
     0
1000
RFile Opt
1070
     1
1070
   640
1070
   480
1070
 10000
1070
     1
1070
     8
1070
     8
1070
     0
1070
     0
1070
     0
1070
     0
1070
     0
1070
     0
1070
     0
1002
}
  0
INSERT
  5
8EC
330
1F
100
AcDbEntity
  8
ASHADE
 62
     8
100
AcDbBlockReference
  2
AVE_RENDER
 10
0.0
 20
0.0
 30
0.0
1001
AVE_RENDER
1002
{
1070
     0
1000
Fog Opt
1070
     0
1070
     0
1040
0.0
1040
1.0
1040
0.0
1040
1.0
1010
0.5
1020
0.5
1030
0.5
1002
}
  0
INSERT
  5
8ED
330
1F
100
AcDbEntity
  8
ASHADE
 62
     9
100
AcDbBlockReference
  2
AVE_RENDER
 10
0.0
 20
0.0
 30
0.0
1001
AVE_RENDER
1002
{
1070
     0
1000
BG Opt
1070
     0
1070
     0
1010
0.0
1020
0.0
1030
0.0
1010
1.0
1020
0.0
1030
0.0
1010
0.0
1020
1.0
1030
0.0
1010
0.0
1020
0.0
1030
1.0
1040
0.5
1040
0.5
1040
0.0
1000

1070
     1
1000

1070
     1
1070
     1
1040
1.0
1040
1.0
1040
0.0
1040
0.0
1070
     0
1002
}
  0
POLYLINE
  5
1218
330
1F
100
AcDbEntity
  8
0
 62
     7
100
AcDbPolyFaceMesh
 66
     1
 10
0.0
 20
0.0
 30
0.0
 70
    64
 71
   371
 72
   738
1001
AVE_ENTITY_MATERIAL
1002
{
1000

1002
{
1071
        0
1070
     0
1070
     0
1002
{
1070
     0
1070
     0
1070
     0
1040
0.0
1002
}
1070
     0
1070
     0
1002
{
1002
}
1002
}
1002
{
1002
}
1002
{
1002
}
1011
-11.4365148503555
1021
0.0
1031
-0.0000000033307123
1011
-10.4365148503555
1021
0.0
1031
-0.0000000033307123
1011
-11.4365148503555
1021
1.0
1031
-0.0000000033307123
1011
-11.4365148503555
1021
0.0
1031
0.9999999966692877
1002
}
  0
VERTEX
  5
1219
330
1218
100
AcDbEntity
  8
0
 62
     7
100
AcDbVertex
100
AcDbPolyFaceMeshVertex
 10
0.203065876268024
 20
4.650496959686278
 30
-0.0000000033307123
 70
   192
  0
VERTEX
  5
121A
330
1218
100
AcDbEntity
  8
0
 62
     7
100
AcDbVertex
100
AcDbPolyFaceMeshVertex
 10
0.4732589762436135
 20
4.650496959686278
 30
0.4186244573664619
 70
   192
  0
VERTEX
  5
121B
330
1218
100
AcDbEntity
  8
0
 62
     7
100
AcDbVertex
100
AcDbPolyFaceMeshVertex
 10
3.045427326463343
 20
4.650496959686278
 30
-0.0000000033307123
 70
   192
  0
VERTEX
  5
121C
330
1218
100
AcDbEntity
  8
0
 62
     7
100
AcDbVertex
100
AcDbPolyFaceMeshVertex
 10
0.5159540217148049
 20
4.650496959686278
 30
2.621687885768408
 70
   192
  0
VERTEX
  5
121D
330
1218
100
AcDbEntity
  8
0
 62
     7
100
AcDbVertex
100
AcDbPolyFaceMeshVertex
 10
2.766764644883753
 20
4.650496959686278
 30
2.391876455790991
 70
   192
  0
VERTEX
  5
121E
330
1218
100
AcDbEntity
  8
0
 62
     7
100
AcDbVertex
100
AcDbPolyFaceMeshVertex
 10
0.4817285578476139
 20
4.650496959686278
 30
2.391876455790991
 70
   192
  0
VERTEX
  5
121F
330
1218
100
AcDbEntity
  8
0
 62
     7
100
AcDbVertex
100
AcDbPolyFaceMeshVertex
 10
2.732539181016564
 20
4.650496959686278
 30
2.621687885768408
 70
   192
  0
VERTEX
  5
1220
330
1218
100
AcDbEntity
  8
0
 62
     7
100
AcDbVertex
100
AcDbPolyFaceMeshVertex
 10
3.045427326463343
 20
4.650496959686278
 30
3.249999996669287
 70
   192
  0
VERTEX
  5
1221
330
1218
100
AcDbEntity
  8
0
 62
     7
100
AcDbVertex
100
AcDbPolyFaceMeshVertex
 10
2.775235180162065
 20
4.650496959686278
 30
2.831375595576758
 70
   192
  0
VERTEX
  5
1222
330
1218
100
AcDbEntity
  8
0
 62
     7
100
AcDbVertex
100
AcDbPolyFaceMeshVertex
 10
0.4732589762436135
 20
4.650496959686278
 30
2.831375595576758
 70
   192
  0
VERTEX
  5
1223
330
1218
100
AcDbEntity
  8
0
 62
     7
100
AcDbVertex
100
AcDbPolyFaceMeshVertex
 10
0.4817285578476139
 20
4.650496959686278
 30
0.8581235375475834
 70
   192
  0
VERTEX
  5
1224
330
1218
100
AcDbEntity
  8
0
 62
     7
100
AcDbVertex
100
AcDbPolyFaceMeshVertex
 10
0.5159282725082637
 20
4.650496959686278
 30
0.6283592548441841
 70
   192
  0
VERTEX
  5
1225
330
1218
100
AcDbEntity
  8
0
 62
     7
100
AcDbVertex
100
AcDbPolyFaceMeshVertex
 10
0.4877100031601139
 20
4.650496959686278
 30
0.6764292683672858
 70
   192
  0
VERTEX
  5
1226
330
1218
100
AcDbEntity
  8
0
 62
     7
100
AcDbVertex
100
AcDbPolyFaceMeshVertex
 10
2.766764644883753
 20
4.650496959686278
 30
0.8581235375475834
 70
   192
  0
VERTEX
  5
1227
330
1218
100
AcDbEntity
  8
0
 62
     7
100
AcDbVertex
100
AcDbPolyFaceMeshVertex
 10
0.5272979777084537
 20
4.650496959686278
 30
2.676815029628271
 70
   192
  0
VERTEX
  5
1228
330
1218
100
AcDbEntity
  8
0
 62
     7
100
AcDbVertex
100
AcDbPolyFaceMeshVertex
 10
2.721195225022905
 20
4.650496959686278
 30
2.676815029628271
 70
   192
  0
VERTEX
  5
1229
330
1218
100
AcDbEntity
  8
0
 62
     7
100
AcDbVertex
100
AcDbPolyFaceMeshVertex
 10
0.203065876268024
 20
4.650496959686278
 30
3.249999996669287
 70
   192
  0
VERTEX
  5
122A
330
1218
100
AcDbEntity
  8
0
 62
     7
100
AcDbVertex
100
AcDbPolyFaceMeshVertex
 10
0.3070821802841444
 20
4.650496959686278
 30
2.976940390117162
 70
   192
  0
VERTEX
  5
122B
330
1218
100
AcDbEntity
  8
0
 62
     7
100
AcDbVertex
100
AcDbPolyFaceMeshVertex
 10
0.203065876268024
 20
4.650496959686278
 30
3.012396093852514
 70
   192
  0
VERTEX
  5
122C
330
1218
100
AcDbEntity
  8
0
 62
     7
100
AcDbVertex
100
AcDbPolyFaceMeshVertex
 10
0.400753978990192
 20
4.650496959686278
 30
2.914602514750952
 70
   192
  0
VERTEX
  5
122D
330
1218
100
AcDbEntity
  8
0
 62
     7
100
AcDbVertex
100
AcDbPolyFaceMeshVertex
 10
0.5200262110458543
 20
4.650496959686278
 30
2.732150312907691
 70
   192
  0
VERTEX
  5
122E
330
1218
100
AcDbEntity
  8
0
 62
     7
100
AcDbVertex
100
AcDbPolyFaceMeshVertex
 10
0.4877243082748635
 20
4.650496959686278
 30
2.573561665065283
 70
   192
  0
VERTEX
  5
122F
330
1218
100
AcDbEntity
  8
0
 62
     7
100
AcDbVertex
100
AcDbPolyFaceMeshVertex
 10
0.446823124192834
 20
4.650496959686278
 30
2.536249634273047
 70
   192
  0
VERTEX
  5
1230
330
1218
100
AcDbEntity
  8
0
 62
     7
100
AcDbVertex
100
AcDbPolyFaceMeshVertex
 10
0.2864437144027949
 20
4.650496959686278
 30
2.259639259822364
 70
   192
  0
VERTEX
  5
1231
330
1218
100
AcDbEntity
  8
0
 62
     7
100
AcDbVertex
100
AcDbPolyFaceMeshVertex
 10
0.1308488886581642
 20
4.650496959686278
 30
1.173851844317908
 70
   192
  0
VERTEX
  5
1232
330
1218
100
AcDbEntity
  8
0
 62
     7
100
AcDbVertex
100
AcDbPolyFaceMeshVertex
 10
0.1308488886581642
 20
4.650496959686278
 30
2.076148029811377
 70
   192
  0
VERTEX
  5
1233
330
1218
100
AcDbEntity
  8
0
 62
     7
100
AcDbVertex
100
AcDbPolyFaceMeshVertex
 10
0.2864437144027949
 20
4.650496959686278
 30
0.9903607931208563
 70
   192
  0
VERTEX
  5
1234
330
1218
100
AcDbEntity
  8
0
 62
     7
100
AcDbVertex
100
AcDbPolyFaceMeshVertex
 10
0.0337677042709537
 20
4.650496959686278
 30
1.860993739612097
 70
   192
  0
VERTEX
  5
1235
330
1218
100
AcDbEntity
  8
0
 62
     7
100
AcDbVertex
100
AcDbPolyFaceMeshVertex
 10
0.0337677042709537
 20
4.650496959686278
 30
1.389006253726476
 70
   192
  0
VERTEX
  5
1236
330
1218
100
AcDbEntity
  8
0
 62
     7
100
AcDbVertex
100
AcDbPolyFaceMeshVertex
 10
0.0000000040756447
 20
4.650496959686278
 30
1.624999996669287
 70
   192
  0
VERTEX
  5
1237
330
1218
100
AcDbEntity
  8
0
 62
     7
100
AcDbVertex
100
AcDbPolyFaceMeshVertex
 10
0.446823124192834
 20
4.650496959686278
 30
0.7137504186701728
 70
   192
  0
VERTEX
  5
1238
330
1218
100
AcDbEntity
  8
0
 62
     7
100
AcDbVertex
100
AcDbPolyFaceMeshVertex
 10
2.732564930223102
 20
4.650496959686278
 30
0.6283592548441841
 70
   192
  0
VERTEX
  5
1239
330
1218
100
AcDbEntity
  8
0
 62
     7
100
AcDbVertex
100
AcDbPolyFaceMeshVertex
 10
0.5272970240341444
 20
4.650496959686278
 30
0.5732089843821479
 70
   192
  0
VERTEX
  5
123A
330
1218
100
AcDbEntity
  8
0
 62
     7
100
AcDbVertex
100
AcDbPolyFaceMeshVertex
 10
0.400753978990192
 20
4.650496959686278
 30
0.3353975679945899
 70
   192
  0
VERTEX
  5
123B
330
1218
100
AcDbEntity
  8
0
 62
     7
100
AcDbVertex
100
AcDbPolyFaceMeshVertex
 10
0.3070821802841444
 20
4.650496959686278
 30
0.2730596926283789
 70
   192
  0
VERTEX
  5
123C
330
1218
100
AcDbEntity
  8
0
 62
     7
100
AcDbVertex
100
AcDbPolyFaceMeshVertex
 10
0.203065876268024
 20
4.650496959686278
 30
0.2376039739918661
 70
   192
  0
VERTEX
  5
123D
330
1218
100
AcDbEntity
  8
0
 62
     7
100
AcDbVertex
100
AcDbPolyFaceMeshVertex
 10
2.775235180162065
 20
4.650496959686278
 30
0.4186244573664619
 70
   192
  0
VERTEX
  5
123E
330
1218
100
AcDbEntity
  8
0
 62
     7
100
AcDbVertex
100
AcDbPolyFaceMeshVertex
 10
0.5200262110458543
 20
4.650496959686278
 30
0.517849561221595
 70
   192
  0
VERTEX
  5
123F
330
1218
100
AcDbEntity
  8
0
 62
     7
100
AcDbVertex
100
AcDbPolyFaceMeshVertex
 10
2.728466991685504
 20
4.650496959686278
 30
0.517849561221595
 70
   192
  0
VERTEX
  5
1240
330
1218
100
AcDbEntity
  8
0
 62
     7
100
AcDbVertex
100
AcDbPolyFaceMeshVertex
 10
2.941411022447223
 20
4.650496959686278
 30
0.2730596926283789
 70
   192
  0
VERTEX
  5
1241
330
1218
100
AcDbEntity
  8
0
 62
     7
100
AcDbVertex
100
AcDbPolyFaceMeshVertex
 10
3.045427326463343
 20
4.650496959686278
 30
0.2376039739918661
 70
   192
  0
VERTEX
  5
1242
330
1218
100
AcDbEntity
  8
0
 62
     7
100
AcDbVertex
100
AcDbPolyFaceMeshVertex
 10
2.847739223741173
 20
4.650496959686278
 30
0.3353975679945899
 70
   192
  0
VERTEX
  5
1243
330
1218
100
AcDbEntity
  8
0
 62
     7
100
AcDbVertex
100
AcDbPolyFaceMeshVertex
 10
2.721196178697223
 20
4.650496959686278
 30
0.5732089843821479
 70
   192
  0
VERTEX
  5
1244
330
1218
100
AcDbEntity
  8
0
 62
     7
100
AcDbVertex
100
AcDbPolyFaceMeshVertex
 10
2.760783199571253
 20
4.650496959686278
 30
0.6764292683672858
 70
   192
  0
VERTEX
  5
1245
330
1218
100
AcDbEntity
  8
0
 62
     7
100
AcDbVertex
100
AcDbPolyFaceMeshVertex
 10
2.801670078538531
 20
4.650496959686278
 30
0.7137504186701728
 70
   192
  0
VERTEX
  5
1246
330
1218
100
AcDbEntity
  8
0
 62
     7
100
AcDbVertex
100
AcDbPolyFaceMeshVertex
 10
2.962049488328574
 20
4.650496959686278
 30
0.9903607931208563
 70
   192
  0
VERTEX
  5
1247
330
1218
100
AcDbEntity
  8
0
 62
     7
100
AcDbVertex
100
AcDbPolyFaceMeshVertex
 10
3.117644314073205
 20
4.650496959686278
 30
2.076148029811377
 70
   192
  0
VERTEX
  5
1248
330
1218
100
AcDbEntity
  8
0
 62
     7
100
AcDbVertex
100
AcDbPolyFaceMeshVertex
 10
3.117644314073205
 20
4.650496959686278
 30
1.173851844317908
 70
   192
  0
VERTEX
  5
1249
330
1218
100
AcDbEntity
  8
0
 62
     7
100
AcDbVertex
100
AcDbPolyFaceMeshVertex
 10
2.962049488328574
 20
4.650496959686278
 30
2.259639259822364
 70
   192
  0
VERTEX
  5
124A
330
1218
100
AcDbEntity
  8
0
 62
     7
100
AcDbVertex
100
AcDbPolyFaceMeshVertex
 10
3.214725498460413
 20
4.650496959686278
 30
1.389006253726476
 70
   192
  0
VERTEX
  5
124B
330
1218
100
AcDbEntity
  8
0
 62
     7
100
AcDbVertex
100
AcDbPolyFaceMeshVertex
 10
3.214725498460413
 20
4.650496959686278
 30
1.860993739612097
 70
   192
  0
VERTEX
  5
124C
330
1218
100
AcDbEntity
  8
0
 62
     7
100
AcDbVertex
100
AcDbPolyFaceMeshVertex
 10
3.248493198655724
 20
4.650496959686278
 30
1.624999996669287
 70
   192
  0
VERTEX
  5
124D
330
1218
100
AcDbEntity
  8
0
 62
     7
100
AcDbVertex
100
AcDbPolyFaceMeshVertex
 10
2.760768894456504
 20
4.650496959686278
 30
2.573561665065283
 70
   192
  0
VERTEX
  5
124E
330
1218
100
AcDbEntity
  8
0
 62
     7
100
AcDbVertex
100
AcDbPolyFaceMeshVertex
 10
2.801670078538531
 20
4.650496959686278
 30
2.536249634273047
 70
   192
  0
VERTEX
  5
124F
330
1218
100
AcDbEntity
  8
0
 62
     7
100
AcDbVertex
100
AcDbPolyFaceMeshVertex
 10
2.728466991685504
 20
4.650496959686278
 30
2.732150312907691
 70
   192
  0
VERTEX
  5
1250
330
1218
100
AcDbEntity
  8
0
 62
     7
100
AcDbVertex
100
AcDbPolyFaceMeshVertex
 10
2.847739223741173
 20
4.650496959686278
 30
2.914602514750952
 70
   192
  0
VERTEX
  5
1251
330
1218
100
AcDbEntity
  8
0
 62
     7
100
AcDbVertex
100
AcDbPolyFaceMeshVertex
 10
2.941411022447223
 20
4.650496959686278
 30
2.976940390117162
 70
   192
  0
VERTEX
  5
1252
330
1218
100
AcDbEntity
  8
0
 62
     7
100
AcDbVertex
100
AcDbPolyFaceMeshVertex
 10
3.045427326463343
 20
4.650496959686278
 30
3.012396093852514
 70
   192
  0
VERTEX
  5
1253
330
1218
100
AcDbEntity
  8
0
 62
     7
100
AcDbVertex
100
AcDbPolyFaceMeshVertex
 10
0.5052423517929246
 20
4.098466396331787
 30
3.249999996669287
 70
   192
  0
VERTEX
  5
1254
330
1218
100
AcDbEntity
  8
0
 62
     7
100
AcDbVertex
100
AcDbPolyFaceMeshVertex
 10
2.923984531663531
 20
4.358253955841063
 30
3.249999996669287
 70
   192
  0
VERTEX
  5
1255
330
1218
100
AcDbEntity
  8
0
 62
     7
100
AcDbVertex
100
AcDbPolyFaceMeshVertex
 10
0.324508671067834
 20
4.358253955841063
 30
3.249999996669287
 70
   192
  0
VERTEX
  5
1256
330
1218
100
AcDbEntity
  8
0
 62
     7
100
AcDbVertex
100
AcDbPolyFaceMeshVertex
 10
2.743250850938434
 20
4.098466396331787
 30
3.249999996669287
 70
   192
  0
VERTEX
  5
1257
330
1218
100
AcDbEntity
  8
0
 62
     7
100
AcDbVertex
100
AcDbPolyFaceMeshVertex
 10
2.511469845079064
 20
3.882985830307006
 30
3.249999996669287
 70
   192
  0
VERTEX
  5
1258
330
1218
100
AcDbEntity
  8
0
 62
     7
100
AcDbVertex
100
AcDbPolyFaceMeshVertex
 10
1.938908581040973
 20
3.621793270111082
 30
3.249999996669287
 70
   192
  0
VERTEX
  5
1259
330
1218
100
AcDbEntity
  8
0
 62
     7
100
AcDbVertex
100
AcDbPolyFaceMeshVertex
 10
2.239215854905724
 20
3.721641302108763
 30
3.249999996669287
 70
   192
  0
VERTEX
  5
125A
330
1218
100
AcDbEntity
  8
0
 62
     7
100
AcDbVertex
100
AcDbPolyFaceMeshVertex
 10
1.624246601365683
 20
3.5879967212677
 30
3.249999996669287
 70
   192
  0
VERTEX
  5
125B
330
1218
100
AcDbEntity
  8
0
 62
     7
100
AcDbVertex
100
AcDbPolyFaceMeshVertex
 10
1.309584621690394
 20
3.621793270111082
 30
3.249999996669287
 70
   192
  0
VERTEX
  5
125C
330
1218
100
AcDbEntity
  8
0
 62
     7
100
AcDbVertex
100
AcDbPolyFaceMeshVertex
 10
1.009277347825644
 20
3.721641302108763
 30
3.249999996669287
 70
   192
  0
VERTEX
  5
125D
330
1218
100
AcDbEntity
  8
0
 62
     7
100
AcDbVertex
100
AcDbPolyFaceMeshVertex
 10
0.7370233576523049
 20
3.882985830307006
 30
3.249999996669287
 70
   192
  0
VERTEX
  5
125E
330
1218
100
AcDbEntity
  8
0
 62
     7
100
AcDbVertex
100
AcDbPolyFaceMeshVertex
 10
2.511469845079064
 20
3.882985830307006
 30
-0.0000000033307121
 70
   192
  0
VERTEX
  5
125F
330
1218
100
AcDbEntity
  8
0
 62
     7
100
AcDbVertex
100
AcDbPolyFaceMeshVertex
 10
0.5052423517929246
 20
4.098466396331787
 30
-0.0000000033307121
 70
   192
  0
VERTEX
  5
1260
330
1218
100
AcDbEntity
  8
0
 62
     7
100
AcDbVertex
100
AcDbPolyFaceMeshVertex
 10
2.743250850938434
 20
4.098466396331787
 30
-0.0000000033307121
 70
   192
  0
VERTEX
  5
1261
330
1218
100
AcDbEntity
  8
0
 62
     7
100
AcDbVertex
100
AcDbPolyFaceMeshVertex
 10
0.7370233576523049
 20
3.882985830307006
 30
-0.0000000033307121
 70
   192
  0
VERTEX
  5
1262
330
1218
100
AcDbEntity
  8
0
 62
     7
100
AcDbVertex
100
AcDbPolyFaceMeshVertex
 10
1.938908581040973
 20
3.621793270111082
 30
-0.000000003330712
 70
   192
  0
VERTEX
  5
1263
330
1218
100
AcDbEntity
  8
0
 62
     7
100
AcDbVertex
100
AcDbPolyFaceMeshVertex
 10
1.009277347825644
 20
3.721641302108763
 30
-0.0000000033307121
 70
   192
  0
VERTEX
  5
1264
330
1218
100
AcDbEntity
  8
0
 62
     7
100
AcDbVertex
100
AcDbPolyFaceMeshVertex
 10
2.239215854905724
 20
3.721641302108763
 30
-0.0000000033307121
 70
   192
  0
VERTEX
  5
1265
330
1218
100
AcDbEntity
  8
0
 62
     7
100
AcDbVertex
100
AcDbPolyFaceMeshVertex
 10
1.309584621690394
 20
3.621793270111082
 30
-0.000000003330712
 70
   192
  0
VERTEX
  5
1266
330
1218
100
AcDbEntity
  8
0
 62
     7
100
AcDbVertex
100
AcDbPolyFaceMeshVertex
 10
1.624246601365683
 20
3.5879967212677
 30
-0.000000003330712
 70
   192
  0
VERTEX
  5
1267
330
1218
100
AcDbEntity
  8
0
 62
     7
100
AcDbVertex
100
AcDbPolyFaceMeshVertex
 10
0.324508671067834
 20
4.358253955841063
 30
-0.0000000033307122
 70
   192
  0
VERTEX
  5
1268
330
1218
100
AcDbEntity
  8
0
 62
     7
100
AcDbVertex
100
AcDbPolyFaceMeshVertex
 10
2.923984531663531
 20
4.358253955841063
 30
-0.0000000033307122
 70
   192
  0
VERTEX
  5
1269
330
1218
100
AcDbEntity
  8
0
 62
     7
100
AcDbVertex
100
AcDbPolyFaceMeshVertex
 10
2.743250850938434
 20
4.098466396331787
 30
0.2376039739918661
 70
   192
  0
VERTEX
  5
126A
330
1218
100
AcDbEntity
  8
0
 62
     7
100
AcDbVertex
100
AcDbPolyFaceMeshVertex
 10
2.923984531663531
 20
4.358253955841063
 30
0.2376039739918661
 70
   192
  0
VERTEX
  5
126B
330
1218
100
AcDbEntity
  8
0
 62
     7
100
AcDbVertex
100
AcDbPolyFaceMeshVertex
 10
2.239215854905724
 20
3.721641302108763
 30
0.2376039739918661
 70
   192
  0
VERTEX
  5
126C
330
1218
100
AcDbEntity
  8
0
 62
     7
100
AcDbVertex
100
AcDbPolyFaceMeshVertex
 10
2.511469845079064
 20
3.882985830307006
 30
0.2376039739918661
 70
   192
  0
VERTEX
  5
126D
330
1218
100
AcDbEntity
  8
0
 62
     7
100
AcDbVertex
100
AcDbPolyFaceMeshVertex
 10
1.624246601365683
 20
3.5879967212677
 30
0.2376039739918661
 70
   192
  0
VERTEX
  5
126E
330
1218
100
AcDbEntity
  8
0
 62
     7
100
AcDbVertex
100
AcDbPolyFaceMeshVertex
 10
1.938908581040973
 20
3.621793270111082
 30
0.2376039739918661
 70
   192
  0
VERTEX
  5
126F
330
1218
100
AcDbEntity
  8
0
 62
     7
100
AcDbVertex
100
AcDbPolyFaceMeshVertex
 10
1.009277347825644
 20
3.721641302108763
 30
0.2376039739918661
 70
   192
  0
VERTEX
  5
1270
330
1218
100
AcDbEntity
  8
0
 62
     7
100
AcDbVertex
100
AcDbPolyFaceMeshVertex
 10
1.309584621690394
 20
3.621793270111082
 30
0.2376039739918661
 70
   192
  0
VERTEX
  5
1271
330
1218
100
AcDbEntity
  8
0
 62
     7
100
AcDbVertex
100
AcDbPolyFaceMeshVertex
 10
0.5052423517929246
 20
4.098466396331787
 30
0.2376039739918661
 70
   192
  0
VERTEX
  5
1272
330
1218
100
AcDbEntity
  8
0
 62
     7
100
AcDbVertex
100
AcDbPolyFaceMeshVertex
 10
0.7370233576523049
 20
3.882985830307006
 30
0.2376039739918661
 70
   192
  0
VERTEX
  5
1273
330
1218
100
AcDbEntity
  8
0
 62
     7
100
AcDbVertex
100
AcDbPolyFaceMeshVertex
 10
0.324508671067834
 20
4.358253955841063
 30
0.2376039739918661
 70
   192
  0
VERTEX
  5
1274
330
1218
100
AcDbEntity
  8
0
 62
     7
100
AcDbVertex
100
AcDbPolyFaceMeshVertex
 10
0.4501047175155826
 20
4.233616828918457
 30
0.2484069880318594
 70
   192
  0
VERTEX
  5
1275
330
1218
100
AcDbEntity
  8
0
 62
     7
100
AcDbVertex
100
AcDbPolyFaceMeshVertex
 10
0.4438333552108951
 20
4.530642986297606
 30
0.3313912119936895
 70
   192
  0
VERTEX
  5
1276
330
1218
100
AcDbEntity
  8
0
 62
     7
100
AcDbVertex
100
AcDbPolyFaceMeshVertex
 10
0.6466512720810123
 20
4.373576641082762
 30
0.4656625356745673
 70
   192
  0
VERTEX
  5
1277
330
1218
100
AcDbEntity
  8
0
 62
     7
100
AcDbVertex
100
AcDbPolyFaceMeshVertex
 10
0.5671863596664651
 20
4.316989898681639
 30
0.3313912119936895
 70
   192
  0
VERTEX
  5
1278
330
1218
100
AcDbEntity
  8
0
 62
     7
100
AcDbVertex
100
AcDbPolyFaceMeshVertex
 10
0.7960634272323848
 20
4.201145648956297
 30
0.4656625356745673
 70
   192
  0
VERTEX
  5
1279
330
1218
100
AcDbEntity
  8
0
 62
     7
100
AcDbVertex
100
AcDbPolyFaceMeshVertex
 10
0.7287435572372623
 20
4.130542755126953
 30
0.3313912119936895
 70
   192
  0
VERTEX
  5
127A
330
1218
100
AcDbEntity
  8
0
 62
     7
100
AcDbVertex
100
AcDbPolyFaceMeshVertex
 10
0.8449592631088442
 20
3.857124090194701
 30
0.2484069880318594
 70
   192
  0
VERTEX
  5
127B
330
1218
100
AcDbEntity
  8
0
 62
     7
100
AcDbVertex
100
AcDbPolyFaceMeshVertex
 10
1.075499538682574
 20
4.023809432983397
 30
0.517849561221595
 70
   192
  0
VERTEX
  5
127C
330
1218
100
AcDbEntity
  8
0
 62
     7
100
AcDbVertex
100
AcDbPolyFaceMeshVertex
 10
1.178204540513634
 20
3.955559015274046
 30
0.4656625356745673
 70
   192
  0
VERTEX
  5
127D
330
1218
100
AcDbEntity
  8
0
 62
     7
100
AcDbVertex
100
AcDbPolyFaceMeshVertex
 10
1.341666225694293
 20
3.922897815704345
 30
0.517849561221595
 70
   192
  0
VERTEX
  5
127E
330
1218
100
AcDbEntity
  8
0
 62
     7
100
AcDbVertex
100
AcDbPolyFaceMeshVertex
 10
0.9226665537582636
 20
3.978039741516113
 30
0.3313912119936895
 70
   192
  0
VERTEX
  5
127F
330
1218
100
AcDbEntity
  8
0
 62
     7
100
AcDbVertex
100
AcDbPolyFaceMeshVertex
 10
1.141946796678183
 20
3.864993095397948
 30
0.3313912119936895
 70
   192
  0
VERTEX
  5
1280
330
1218
100
AcDbEntity
  8
0
 62
     7
100
AcDbVertex
100
AcDbPolyFaceMeshVertex
 10
1.624246601365683
 20
3.772037506103515
 30
0.3313912119936895
 70
   192
  0
VERTEX
  5
1281
330
1218
100
AcDbEntity
  8
0
 62
     7
100
AcDbVertex
100
AcDbPolyFaceMeshVertex
 10
1.624246601365683
 20
3.869591236114501
 30
0.4656625356745673
 70
   192
  0
VERTEX
  5
1282
330
1218
100
AcDbEntity
  8
0
 62
     7
100
AcDbVertex
100
AcDbPolyFaceMeshVertex
 10
1.378659252427691
 20
3.795488357543944
 30
0.3313912119936895
 70
   192
  0
VERTEX
  5
1283
330
1218
100
AcDbEntity
  8
0
 62
     7
100
AcDbVertex
100
AcDbPolyFaceMeshVertex
 10
2.159966472886683
 20
3.731555938720703
 30
0.2484069880318594
 70
   192
  0
VERTEX
  5
1284
330
1218
100
AcDbEntity
  8
0
 62
     7
100
AcDbVertex
100
AcDbPolyFaceMeshVertex
 10
2.618936542771933
 20
4.026518344879149
 30
0.2484069880318594
 70
   192
  0
VERTEX
  5
1285
330
1218
100
AcDbEntity
  8
0
 62
     7
100
AcDbVertex
100
AcDbPolyFaceMeshVertex
 10
2.172993664048796
 20
4.023809432983397
 30
0.517849561221595
 70
   192
  0
VERTEX
  5
1286
330
1218
100
AcDbEntity
  8
0
 62
     7
100
AcDbVertex
100
AcDbPolyFaceMeshVertex
 10
2.273084644578574
 20
4.060107231140135
 30
0.4656625356745673
 70
   192
  0
VERTEX
  5
1287
330
1218
100
AcDbEntity
  8
0
 62
     7
100
AcDbVertex
100
AcDbPolyFaceMeshVertex
 10
2.407288555406214
 20
4.185470104217528
 30
0.517849561221595
 70
   192
  0
VERTEX
  5
1288
330
1218
100
AcDbEntity
  8
0
 62
     7
100
AcDbVertex
100
AcDbPolyFaceMeshVertex
 10
2.106546406053183
 20
3.864993095397948
 30
0.3313912119936895
 70
   192
  0
VERTEX
  5
1289
330
1218
100
AcDbEntity
  8
0
 62
     7
100
AcDbVertex
100
AcDbPolyFaceMeshVertex
 10
2.325826648973102
 20
3.978039741516113
 30
0.3313912119936895
 70
   192
  0
VERTEX
  5
128A
330
1218
100
AcDbEntity
  8
0
 62
     7
100
AcDbVertex
100
AcDbPolyFaceMeshVertex
 10
2.798388485215783
 20
4.233616828918457
 30
0.2484069880318594
 70
   192
  0
VERTEX
  5
128B
330
1218
100
AcDbEntity
  8
0
 62
     7
100
AcDbVertex
100
AcDbPolyFaceMeshVertex
 10
2.681306843064904
 20
4.316989898681639
 30
0.3313912119936895
 70
   192
  0
VERTEX
  5
128C
330
1218
100
AcDbEntity
  8
0
 62
     7
100
AcDbVertex
100
AcDbPolyFaceMeshVertex
 10
2.519749645494103
 20
4.130542755126953
 30
0.3313912119936895
 70
   192
  0
VERTEX
  5
128D
330
1218
100
AcDbEntity
  8
0
 62
     7
100
AcDbVertex
100
AcDbPolyFaceMeshVertex
 10
2.601841930650353
 20
4.373576641082762
 30
0.4656625356745673
 70
   192
  0
VERTEX
  5
128E
330
1218
100
AcDbEntity
  8
0
 62
     7
100
AcDbVertex
100
AcDbPolyFaceMeshVertex
 10
2.715921406053183
 20
4.571167945861816
 30
0.4656625356745673
 70
   192
  0
VERTEX
  5
128F
330
1218
100
AcDbEntity
  8
0
 62
     7
100
AcDbVertex
100
AcDbPolyFaceMeshVertex
 10
2.596101764939904
 20
4.398489952087402
 30
0.517849561221595
 70
   192
  0
VERTEX
  5
1290
330
1218
100
AcDbEntity
  8
0
 62
     7
100
AcDbVertex
100
AcDbPolyFaceMeshVertex
 10
2.935403827928183
 20
4.47093391418457
 30
0.2484069880318594
 70
   192
  0
VERTEX
  5
1291
330
1218
100
AcDbEntity
  8
0
 62
     7
100
AcDbVertex
100
AcDbPolyFaceMeshVertex
 10
0.6523914377914651
 20
4.398489952087402
 30
0.517849561221595
 70
   192
  0
VERTEX
  5
1292
330
1218
100
AcDbEntity
  8
0
 62
     7
100
AcDbVertex
100
AcDbPolyFaceMeshVertex
 10
0.8412046473251528
 20
4.185470104217528
 30
0.517849561221595
 70
   192
  0
VERTEX
  5
1293
330
1218
100
AcDbEntity
  8
0
 62
     7
100
AcDbVertex
100
AcDbPolyFaceMeshVertex
 10
1.851372722886674
 20
3.891279220581053
 30
0.4656625356745673
 70
   192
  0
VERTEX
  5
1294
330
1218
100
AcDbEntity
  8
0
 62
     7
100
AcDbVertex
100
AcDbPolyFaceMeshVertex
 10
1.351457599900843
 20
3.654352664947508
 30
0.2484069880318594
 70
   192
  0
VERTEX
  5
1295
330
1218
100
AcDbEntity
  8
0
 62
     7
100
AcDbVertex
100
AcDbPolyFaceMeshVertex
 10
1.624246601365683
 20
3.628304481506346
 30
0.2484069880318594
 70
   192
  0
VERTEX
  5
1296
330
1218
100
AcDbEntity
  8
0
 62
     7
100
AcDbVertex
100
AcDbPolyFaceMeshVertex
 10
1.869834903977984
 20
3.795488357543944
 30
0.3313912119936895
 70
   192
  0
VERTEX
  5
1297
330
1218
100
AcDbEntity
  8
0
 62
     7
100
AcDbVertex
100
AcDbPolyFaceMeshVertex
 10
1.624246601365683
 20
3.888596534729002
 30
0.517849561221595
 70
   192
  0
VERTEX
  5
1298
330
1218
100
AcDbEntity
  8
0
 62
     7
100
AcDbVertex
100
AcDbPolyFaceMeshVertex
 10
1.906826977037074
 20
3.922897815704345
 30
0.517849561221595
 70
   192
  0
VERTEX
  5
1299
330
1218
100
AcDbEntity
  8
0
 62
     7
100
AcDbVertex
100
AcDbPolyFaceMeshVertex
 10
2.403533939622523
 20
3.857124090194701
 30
0.2484069880318594
 70
   192
  0
VERTEX
  5
129A
330
1218
100
AcDbEntity
  8
0
 62
     7
100
AcDbVertex
100
AcDbPolyFaceMeshVertex
 10
1.897036556504843
 20
3.654352664947508
 30
0.2484069880318594
 70
   192
  0
VERTEX
  5
129B
330
1218
100
AcDbEntity
  8
0
 62
     7
100
AcDbVertex
100
AcDbPolyFaceMeshVertex
 10
1.088526729844684
 20
3.731555938720703
 30
0.2484069880318594
 70
   192
  0
VERTEX
  5
129C
330
1218
100
AcDbEntity
  8
0
 62
     7
100
AcDbVertex
100
AcDbPolyFaceMeshVertex
 10
0.6295566599594338
 20
4.026518344879149
 30
0.2484069880318594
 70
   192
  0
VERTEX
  5
129D
330
1218
100
AcDbEntity
  8
0
 62
     7
100
AcDbVertex
100
AcDbPolyFaceMeshVertex
 10
0.3130893748031838
 20
4.47093391418457
 30
0.2484069880318594
 70
   192
  0
VERTEX
  5
129E
330
1218
100
AcDbEntity
  8
0
 62
     7
100
AcDbVertex
100
AcDbPolyFaceMeshVertex
 10
0.5325717966781838
 20
4.571167945861816
 30
0.4656625356745673
 70
   192
  0
VERTEX
  5
129F
330
1218
100
AcDbEntity
  8
0
 62
     7
100
AcDbVertex
100
AcDbPolyFaceMeshVertex
 10
0.9754085581527949
 20
4.060107231140135
 30
0.4656625356745673
 70
   192
  0
VERTEX
  5
12A0
330
1218
100
AcDbEntity
  8
0
 62
     7
100
AcDbVertex
100
AcDbPolyFaceMeshVertex
 10
1.397121433519004
 20
3.891279220581053
 30
0.4656625356745673
 70
   192
  0
VERTEX
  5
12A1
330
1218
100
AcDbEntity
  8
0
 62
     7
100
AcDbVertex
100
AcDbPolyFaceMeshVertex
 10
2.070289615892054
 20
3.955559015274046
 30
0.4656625356745673
 70
   192
  0
VERTEX
  5
12A2
330
1218
100
AcDbEntity
  8
0
 62
     7
100
AcDbVertex
100
AcDbPolyFaceMeshVertex
 10
2.452429775498984
 20
4.201145648956297
 30
0.4656625356745673
 70
   192
  0
VERTEX
  5
12A3
330
1218
100
AcDbEntity
  8
0
 62
     7
100
AcDbVertex
100
AcDbPolyFaceMeshVertex
 10
2.804659847520476
 20
4.530642986297606
 30
0.3313912119936895
 70
   192
  0
VERTEX
  5
12A4
330
1218
100
AcDbEntity
  8
0
 62
     7
100
AcDbVertex
100
AcDbPolyFaceMeshVertex
 10
0.7435579340683241
 20
4.182893276214598
 30
0.7137504186701728
 70
   192
  0
VERTEX
  5
12A5
330
1218
100
AcDbEntity
  8
0
 62
     7
100
AcDbVertex
100
AcDbPolyFaceMeshVertex
 10
0.8990726511703748
 20
4.115769863128662
 30
0.6571073498797371
 70
   192
  0
VERTEX
  5
12A6
330
1218
100
AcDbEntity
  8
0
 62
     7
100
AcDbVertex
100
AcDbPolyFaceMeshVertex
 10
0.9619236033188052
 20
4.009812831878662
 30
0.7137504186701728
 70
   192
  0
VERTEX
  5
12A7
330
1218
100
AcDbEntity
  8
0
 62
     7
100
AcDbVertex
100
AcDbPolyFaceMeshVertex
 10
0.729310993455524
 20
4.309554100036621
 30
0.5672310557436897
 70
   192
  0
VERTEX
  5
12A8
330
1218
100
AcDbEntity
  8
0
 62
     7
100
AcDbVertex
100
AcDbPolyFaceMeshVertex
 10
0.9136467020736933
 20
4.134941577911376
 30
0.5672310557436897
 70
   192
  0
VERTEX
  5
12A9
330
1218
100
AcDbEntity
  8
0
 62
     7
100
AcDbVertex
100
AcDbPolyFaceMeshVertex
 10
1.213210109971644
 20
3.889413356781004
 30
0.7137504186701728
 70
   192
  0
VERTEX
  5
12AA
330
1218
100
AcDbEntity
  8
0
 62
     7
100
AcDbVertex
100
AcDbPolyFaceMeshVertex
 10
1.366649631761193
 20
3.899445533752441
 30
0.6571073498797371
 70
   192
  0
VERTEX
  5
12AB
330
1218
100
AcDbEntity
  8
0
 62
     7
100
AcDbVertex
100
AcDbPolyFaceMeshVertex
 10
1.484926227830523
 20
3.827679395675658
 30
0.7137504186701728
 70
   192
  0
VERTEX
  5
12AC
330
1218
100
AcDbEntity
  8
0
 62
     7
100
AcDbVertex
100
AcDbPolyFaceMeshVertex
 10
1.763566974900843
 20
3.827679395675658
 30
0.7137504186701728
 70
   192
  0
VERTEX
  5
12AD
330
1218
100
AcDbEntity
  8
0
 62
     7
100
AcDbVertex
100
AcDbPolyFaceMeshVertex
 10
1.881843570970172
 20
3.899445533752441
 30
0.6571073498797371
 70
   192
  0
VERTEX
  5
12AE
330
1218
100
AcDbEntity
  8
0
 62
     7
100
AcDbVertex
100
AcDbPolyFaceMeshVertex
 10
2.035283092759723
 20
3.889413356781004
 30
0.7137504186701728
 70
   192
  0
VERTEX
  5
12AF
330
1218
100
AcDbEntity
  8
0
 62
     7
100
AcDbVertex
100
AcDbPolyFaceMeshVertex
 10
2.286569599412565
 20
4.009812831878662
 30
0.7137504186701728
 70
   192
  0
VERTEX
  5
12B0
330
1218
100
AcDbEntity
  8
0
 62
     7
100
AcDbVertex
100
AcDbPolyFaceMeshVertex
 10
2.349420551560992
 20
4.115769863128662
 30
0.6571073498797371
 70
   192
  0
VERTEX
  5
12B1
330
1218
100
AcDbEntity
  8
0
 62
     7
100
AcDbVertex
100
AcDbPolyFaceMeshVertex
 10
2.504936222337363
 20
4.182893276214598
 30
0.7137504186701728
 70
   192
  0
VERTEX
  5
12B2
330
1218
100
AcDbEntity
  8
0
 62
     7
100
AcDbVertex
100
AcDbPolyFaceMeshVertex
 10
2.679528240464804
 20
4.400052547454833
 30
0.7137504186701728
 70
   192
  0
VERTEX
  5
12B3
330
1218
100
AcDbEntity
  8
0
 62
     7
100
AcDbVertex
100
AcDbPolyFaceMeshVertex
 10
2.682949070237754
 20
4.508430480957031
 30
0.6571073498797371
 70
   192
  0
VERTEX
  5
12B4
330
1218
100
AcDbEntity
  8
0
 62
     7
100
AcDbVertex
100
AcDbPolyFaceMeshVertex
 10
0.5655441324936135
 20
4.508430480957031
 30
0.6571073498797371
 70
   192
  0
VERTEX
  5
12B5
330
1218
100
AcDbEntity
  8
0
 62
     7
100
AcDbVertex
100
AcDbPolyFaceMeshVertex
 10
2.334846500657672
 20
4.134941577911376
 30
0.5672310557436897
 70
   192
  0
VERTEX
  5
12B6
330
1218
100
AcDbEntity
  8
0
 62
     7
100
AcDbVertex
100
AcDbPolyFaceMeshVertex
 10
2.117282871507281
 20
4.004038333892821
 30
0.5672310557436897
 70
   192
  0
VERTEX
  5
12B7
330
1218
100
AcDbEntity
  8
0
 62
     7
100
AcDbVertex
100
AcDbPolyFaceMeshVertex
 10
1.131210331224083
 20
4.004038333892821
 30
0.5672310557436897
 70
   192
  0
VERTEX
  5
12B8
330
1218
100
AcDbEntity
  8
0
 62
     7
100
AcDbVertex
100
AcDbPolyFaceMeshVertex
 10
1.371827129624964
 20
3.922964811325073
 30
0.5672310557436897
 70
   192
  0
VERTEX
  5
12B9
330
1218
100
AcDbEntity
  8
0
 62
     7
100
AcDbVertex
100
AcDbPolyFaceMeshVertex
 10
0.7109565775619747
 20
4.29396343231201
 30
0.6571073498797371
 70
   192
  0
VERTEX
  5
12BA
330
1218
100
AcDbEntity
  8
0
 62
     7
100
AcDbVertex
100
AcDbPolyFaceMeshVertex
 10
2.519182209275843
 20
4.309554100036621
 30
0.5672310557436897
 70
   192
  0
VERTEX
  5
12BB
330
1218
100
AcDbEntity
  8
0
 62
     7
100
AcDbVertex
100
AcDbPolyFaceMeshVertex
 10
1.624246601365683
 20
3.895512580871582
 30
0.5672310557436897
 70
   192
  0
VERTEX
  5
12BC
330
1218
100
AcDbEntity
  8
0
 62
     7
100
AcDbVertex
100
AcDbPolyFaceMeshVertex
 10
1.876666073106402
 20
3.922964811325073
 30
0.5672310557436897
 70
   192
  0
VERTEX
  5
12BD
330
1218
100
AcDbEntity
  8
0
 62
     7
100
AcDbVertex
100
AcDbPolyFaceMeshVertex
 10
0.5868206064926334
 20
4.519711017608641
 30
0.5672310557436897
 70
   192
  0
VERTEX
  5
12BE
330
1218
100
AcDbEntity
  8
0
 62
     7
100
AcDbVertex
100
AcDbPolyFaceMeshVertex
 10
0.5689649622665645
 20
4.400052547454833
 30
0.7137504186701728
 70
   192
  0
VERTEX
  5
12BF
330
1218
100
AcDbEntity
  8
0
 62
     7
100
AcDbVertex
100
AcDbPolyFaceMeshVertex
 10
1.121098522447223
 20
3.982181549072265
 30
0.6571073498797371
 70
   192
  0
VERTEX
  5
12C0
330
1218
100
AcDbEntity
  8
0
 62
     7
100
AcDbVertex
100
AcDbPolyFaceMeshVertex
 10
1.624246601365683
 20
3.871430397033691
 30
0.6571073498797371
 70
   192
  0
VERTEX
  5
12C1
330
1218
100
AcDbEntity
  8
0
 62
     7
100
AcDbVertex
100
AcDbPolyFaceMeshVertex
 10
2.127395633958453
 20
3.982181549072265
 30
0.6571073498797371
 70
   192
  0
VERTEX
  5
12C2
330
1218
100
AcDbEntity
  8
0
 62
     7
100
AcDbVertex
100
AcDbPolyFaceMeshVertex
 10
2.537536625169394
 20
4.29396343231201
 30
0.6571073498797371
 70
   192
  0
VERTEX
  5
12C3
330
1218
100
AcDbEntity
  8
0
 62
     7
100
AcDbVertex
100
AcDbPolyFaceMeshVertex
 10
2.661672596238734
 20
4.519711017608641
 30
0.5672310557436897
 70
   192
  0
VERTEX
  5
12C4
330
1218
100
AcDbEntity
  8
0
 62
     7
100
AcDbVertex
100
AcDbPolyFaceMeshVertex
 10
2.437163357041955
 20
4.164036273956297
 30
0.8581235375475834
 70
   192
  0
VERTEX
  5
12C5
330
1218
100
AcDbEntity
  8
0
 62
     7
100
AcDbVertex
100
AcDbPolyFaceMeshVertex
 10
2.631764416001914
 20
4.387074947357176
 30
0.8581235375475834
 70
   192
  0
VERTEX
  5
12C6
330
1218
100
AcDbEntity
  8
0
 62
     7
100
AcDbVertex
100
AcDbPolyFaceMeshVertex
 10
1.918049816392533
 20
3.888713359832763
 30
0.8581235375475834
 70
   192
  0
VERTEX
  5
12C7
330
1218
100
AcDbEntity
  8
0
 62
     7
100
AcDbVertex
100
AcDbPolyFaceMeshVertex
 10
2.194472317002894
 20
3.994574069976806
 30
0.8581235375475834
 70
   192
  0
VERTEX
  5
12C8
330
1218
100
AcDbEntity
  8
0
 62
     7
100
AcDbVertex
100
AcDbPolyFaceMeshVertex
 10
1.330443386338824
 20
3.888713359832763
 30
0.8581235375475834
 70
   192
  0
VERTEX
  5
12C9
330
1218
100
AcDbEntity
  8
0
 62
     7
100
AcDbVertex
100
AcDbPolyFaceMeshVertex
 10
1.624246601365683
 20
3.85271668434143
 30
0.8581235375475834
 70
   192
  0
VERTEX
  5
12CA
330
1218
100
AcDbEntity
  8
0
 62
     7
100
AcDbVertex
100
AcDbPolyFaceMeshVertex
 10
0.8113298456894142
 20
4.164036273956297
 30
0.8581235375475834
 70
   192
  0
VERTEX
  5
12CB
330
1218
100
AcDbEntity
  8
0
 62
     7
100
AcDbVertex
100
AcDbPolyFaceMeshVertex
 10
1.054020885728473
 20
3.994574069976806
 30
0.8581235375475834
 70
   192
  0
VERTEX
  5
12CC
330
1218
100
AcDbEntity
  8
0
 62
     7
100
AcDbVertex
100
AcDbPolyFaceMeshVertex
 10
0.6167287867294551
 20
4.387074947357176
 30
0.8581235375475834
 70
   192
  0
VERTEX
  5
12CD
330
1218
100
AcDbEntity
  8
0
 62
     7
100
AcDbVertex
100
AcDbPolyFaceMeshVertex
 10
0.1728191416488833
 20
4.532169342041014
 30
2.081676002986426
 70
   192
  0
VERTEX
  5
12CE
330
1218
100
AcDbEntity
  8
0
 62
     7
100
AcDbVertex
100
AcDbPolyFaceMeshVertex
 10
0.316189770005824
 20
4.585268020629881
 30
2.266234632976049
 70
   192
  0
VERTEX
  5
12CF
330
1218
100
AcDbEntity
  8
0
 62
     7
100
AcDbVertex
100
AcDbPolyFaceMeshVertex
 10
0.0821867029892261
 20
4.498602867126463
 30
1.862368818767065
 70
   192
  0
VERTEX
  5
12D0
330
1218
100
AcDbEntity
  8
0
 62
     7
100
AcDbVertex
100
AcDbPolyFaceMeshVertex
 10
0.0821867029892261
 20
4.498602867126463
 30
1.387631174571508
 70
   192
  0
VERTEX
  5
12D1
330
1218
100
AcDbEntity
  8
0
 62
     7
100
AcDbVertex
100
AcDbPolyFaceMeshVertex
 10
0.316189770005824
 20
4.585268020629881
 30
0.9837654199671698
 70
   192
  0
VERTEX
  5
12D2
330
1218
100
AcDbEntity
  8
0
 62
     7
100
AcDbVertex
100
AcDbPolyFaceMeshVertex
 10
0.4084243815170546
 20
3.913993835449218
 30
1.624999996669287
 70
   192
  0
VERTEX
  5
12D3
330
1218
100
AcDbEntity
  8
0
 62
     7
100
AcDbVertex
100
AcDbPolyFaceMeshVertex
 10
0.2006664316879565
 20
4.182394981384276
 30
1.624999996669287
 70
   192
  0
VERTEX
  5
12D4
330
1218
100
AcDbEntity
  8
0
 62
     7
100
AcDbVertex
100
AcDbPolyFaceMeshVertex
 10
0.2287178080307246
 20
4.199879646301268
 30
1.387631174571508
 70
   192
  0
VERTEX
  5
12D5
330
1218
100
AcDbEntity
  8
0
 62
     7
100
AcDbVertex
100
AcDbPolyFaceMeshVertex
 10
0.5024318735824842
 20
4.003354549407958
 30
2.081676002986426
 70
   192
  0
VERTEX
  5
12D6
330
1218
100
AcDbEntity
  8
0
 62
     7
100
AcDbVertex
100
AcDbPolyFaceMeshVertex
 10
0.3107376139389224
 20
4.251002788543701
 30
2.081676002986426
 70
   192
  0
VERTEX
  5
12D7
330
1218
100
AcDbEntity
  8
0
 62
     7
100
AcDbVertex
100
AcDbPolyFaceMeshVertex
 10
0.2287178080307246
 20
4.199879646301268
 30
1.862368818767065
 70
   192
  0
VERTEX
  5
12D8
330
1218
100
AcDbEntity
  8
0
 62
     7
100
AcDbVertex
100
AcDbPolyFaceMeshVertex
 10
0.6132440607773049
 20
4.108689308166503
 30
0.9837654199671698
 70
   192
  0
VERTEX
  5
12D9
330
1218
100
AcDbEntity
  8
0
 62
     7
100
AcDbVertex
100
AcDbPolyFaceMeshVertex
 10
0.6167287867294551
 20
4.387074947357176
 30
2.391876455790991
 70
   192
  0
VERTEX
  5
12DA
330
1218
100
AcDbEntity
  8
0
 62
     7
100
AcDbVertex
100
AcDbPolyFaceMeshVertex
 10
0.6132440607773049
 20
4.108689308166503
 30
2.266234632976049
 70
   192
  0
VERTEX
  5
12DB
330
1218
100
AcDbEntity
  8
0
 62
     7
100
AcDbVertex
100
AcDbPolyFaceMeshVertex
 10
0.8113298456894142
 20
4.164036273956297
 30
2.391876455790991
 70
   192
  0
VERTEX
  5
12DC
330
1218
100
AcDbEntity
  8
0
 62
     7
100
AcDbVertex
100
AcDbPolyFaceMeshVertex
 10
0.4323816340194942
 20
3.936767339706419
 30
1.387631174571508
 70
   192
  0
VERTEX
  5
12DD
330
1218
100
AcDbEntity
  8
0
 62
     7
100
AcDbVertex
100
AcDbPolyFaceMeshVertex
 10
0.3107376139389224
 20
4.251002788543701
 30
1.168323990352148
 70
   192
  0
VERTEX
  5
12DE
330
1218
100
AcDbEntity
  8
0
 62
     7
100
AcDbVertex
100
AcDbPolyFaceMeshVertex
 10
0.5024318735824842
 20
4.003354549407958
 30
1.168323990352148
 70
   192
  0
VERTEX
  5
12DF
330
1218
100
AcDbEntity
  8
0
 62
     7
100
AcDbVertex
100
AcDbPolyFaceMeshVertex
 10
0.6659584086166639
 20
3.692908287048338
 30
1.624999996669287
 70
   192
  0
VERTEX
  5
12E0
330
1218
100
AcDbEntity
  8
0
 62
     7
100
AcDbVertex
100
AcDbPolyFaceMeshVertex
 10
0.4323816340194942
 20
3.936767339706419
 30
1.862368818767065
 70
   192
  0
VERTEX
  5
12E1
330
1218
100
AcDbEntity
  8
0
 62
     7
100
AcDbVertex
100
AcDbPolyFaceMeshVertex
 10
0.740053180955524
 20
3.799363374710083
 30
2.081676002986426
 70
   192
  0
VERTEX
  5
12E2
330
1218
100
AcDbEntity
  8
0
 62
     7
100
AcDbVertex
100
AcDbPolyFaceMeshVertex
 10
0.6848411600815041
 20
3.720038175582884
 30
1.387631174571508
 70
   192
  0
VERTEX
  5
12E3
330
1218
100
AcDbEntity
  8
0
 62
     7
100
AcDbVertex
100
AcDbPolyFaceMeshVertex
 10
0.9627246897445846
 20
3.528189659118651
 30
1.624999996669287
 70
   192
  0
VERTEX
  5
12E4
330
1218
100
AcDbEntity
  8
0
 62
     7
100
AcDbVertex
100
AcDbPolyFaceMeshVertex
 10
0.6848411600815041
 20
3.720038175582884
 30
1.862368818767065
 70
   192
  0
VERTEX
  5
12E5
330
1218
100
AcDbEntity
  8
0
 62
     7
100
AcDbVertex
100
AcDbPolyFaceMeshVertex
 10
1.013873104356402
 20
3.647380828857421
 30
2.081676002986426
 70
   192
  0
VERTEX
  5
12E6
330
1218
100
AcDbEntity
  8
0
 62
     7
100
AcDbVertex
100
AcDbPolyFaceMeshVertex
 10
1.074165348313922
 20
3.787878274917602
 30
0.9837654199671698
 70
   192
  0
VERTEX
  5
12E7
330
1218
100
AcDbEntity
  8
0
 62
     7
100
AcDbVertex
100
AcDbPolyFaceMeshVertex
 10
1.054020885728473
 20
3.994574069976806
 30
2.391876455790991
 70
   192
  0
VERTEX
  5
12E8
330
1218
100
AcDbEntity
  8
0
 62
     7
100
AcDbVertex
100
AcDbPolyFaceMeshVertex
 10
1.074165348313922
 20
3.787878274917602
 30
2.266234632976049
 70
   192
  0
VERTEX
  5
12E9
330
1218
100
AcDbEntity
  8
0
 62
     7
100
AcDbVertex
100
AcDbPolyFaceMeshVertex
 10
1.330443386338824
 20
3.888713359832763
 30
2.391876455790991
 70
   192
  0
VERTEX
  5
12EA
330
1218
100
AcDbEntity
  8
0
 62
     7
100
AcDbVertex
100
AcDbPolyFaceMeshVertex
 10
1.343458179734824
 20
3.703387022018431
 30
0.9837654199671698
 70
   192
  0
VERTEX
  5
12EB
330
1218
100
AcDbEntity
  8
0
 62
     7
100
AcDbVertex
100
AcDbPolyFaceMeshVertex
 10
1.312682155870074
 20
3.553628921508788
 30
1.168323990352148
 70
   192
  0
VERTEX
  5
12EC
330
1218
100
AcDbEntity
  8
0
 62
     7
100
AcDbVertex
100
AcDbPolyFaceMeshVertex
 10
0.9757595103012342
 20
3.558565378189086
 30
1.387631174571508
 70
   192
  0
VERTEX
  5
12ED
330
1218
100
AcDbEntity
  8
0
 62
     7
100
AcDbVertex
100
AcDbPolyFaceMeshVertex
 10
0.740053180955524
 20
3.799363374710083
 30
1.168323990352148
 70
   192
  0
VERTEX
  5
12EE
330
1218
100
AcDbEntity
  8
0
 62
     7
100
AcDbVertex
100
AcDbPolyFaceMeshVertex
 10
1.013873104356402
 20
3.647380828857421
 30
1.168323990352148
 70
   192
  0
VERTEX
  5
12EF
330
1218
100
AcDbEntity
  8
0
 62
     7
100
AcDbVertex
100
AcDbPolyFaceMeshVertex
 10
1.286573414109824
 20
3.426581382751463
 30
1.624999996669287
 70
   192
  0
VERTEX
  5
12F0
330
1218
100
AcDbEntity
  8
0
 62
     7
100
AcDbVertex
100
AcDbPolyFaceMeshVertex
 10
0.9757595103012342
 20
3.558565378189086
 30
1.862368818767065
 70
   192
  0
VERTEX
  5
12F1
330
1218
100
AcDbEntity
  8
0
 62
     7
100
AcDbVertex
100
AcDbPolyFaceMeshVertex
 10
1.312682155870074
 20
3.553628921508788
 30
2.081676002986426
 70
   192
  0
VERTEX
  5
12F2
330
1218
100
AcDbEntity
  8
0
 62
     7
100
AcDbVertex
100
AcDbPolyFaceMeshVertex
 10
1.624246601365683
 20
3.52194595336914
 30
1.168323990352148
 70
   192
  0
VERTEX
  5
12F3
330
1218
100
AcDbEntity
  8
0
 62
     7
100
AcDbVertex
100
AcDbPolyFaceMeshVertex
 10
1.293227199815394
 20
3.458959102630615
 30
1.387631174571508
 70
   192
  0
VERTEX
  5
12F4
330
1218
100
AcDbEntity
  8
0
 62
     7
100
AcDbVertex
100
AcDbPolyFaceMeshVertex
 10
1.624246601365683
 20
3.392243385314941
 30
1.624999996669287
 70
   192
  0
VERTEX
  5
12F5
330
1218
100
AcDbEntity
  8
0
 62
     7
100
AcDbVertex
100
AcDbPolyFaceMeshVertex
 10
1.293227199815394
 20
3.458959102630615
 30
1.862368818767065
 70
   192
  0
VERTEX
  5
12F6
330
1218
100
AcDbEntity
  8
0
 62
     7
100
AcDbVertex
100
AcDbPolyFaceMeshVertex
 10
1.624246601365683
 20
3.52194595336914
 30
2.081676002986426
 70
   192
  0
VERTEX
  5
12F7
330
1218
100
AcDbEntity
  8
0
 62
     7
100
AcDbVertex
100
AcDbPolyFaceMeshVertex
 10
1.624246601365683
 20
3.674833536148071
 30
0.9837654199671698
 70
   192
  0
VERTEX
  5
12F8
330
1218
100
AcDbEntity
  8
0
 62
     7
100
AcDbVertex
100
AcDbPolyFaceMeshVertex
 10
1.935811046861283
 20
3.553628921508788
 30
1.168323990352148
 70
   192
  0
VERTEX
  5
12F9
330
1218
100
AcDbEntity
  8
0
 62
     7
100
AcDbVertex
100
AcDbPolyFaceMeshVertex
 10
2.174327854417443
 20
3.787878274917602
 30
0.9837654199671698
 70
   192
  0
VERTEX
  5
12FA
330
1218
100
AcDbEntity
  8
0
 62
     7
100
AcDbVertex
100
AcDbPolyFaceMeshVertex
 10
2.234620098374964
 20
3.647380828857421
 30
1.168323990352148
 70
   192
  0
VERTEX
  5
12FB
330
1218
100
AcDbEntity
  8
0
 62
     7
100
AcDbVertex
100
AcDbPolyFaceMeshVertex
 10
2.272733692430133
 20
3.558565378189086
 30
1.387631174571508
 70
   192
  0
VERTEX
  5
12FC
330
1218
100
AcDbEntity
  8
0
 62
     7
100
AcDbVertex
100
AcDbPolyFaceMeshVertex
 10
2.563652042649863
 20
3.720038175582884
 30
1.387631174571508
 70
   192
  0
VERTEX
  5
12FD
330
1218
100
AcDbEntity
  8
0
 62
     7
100
AcDbVertex
100
AcDbPolyFaceMeshVertex
 10
2.582535747789023
 20
3.692908287048338
 30
1.624999996669287
 70
   192
  0
VERTEX
  5
12FE
330
1218
100
AcDbEntity
  8
0
 62
     7
100
AcDbVertex
100
AcDbPolyFaceMeshVertex
 10
2.272733692430133
 20
3.558565378189086
 30
1.862368818767065
 70
   192
  0
VERTEX
  5
12FF
330
1218
100
AcDbEntity
  8
0
 62
     7
100
AcDbVertex
100
AcDbPolyFaceMeshVertex
 10
2.234620098374964
 20
3.647380828857421
 30
2.081676002986426
 70
   192
  0
VERTEX
  5
1300
330
1218
100
AcDbEntity
  8
0
 62
     7
100
AcDbVertex
100
AcDbPolyFaceMeshVertex
 10
1.955266002915973
 20
3.458959102630615
 30
1.862368818767065
 70
   192
  0
VERTEX
  5
1301
330
1218
100
AcDbEntity
  8
0
 62
     7
100
AcDbVertex
100
AcDbPolyFaceMeshVertex
 10
1.961919788621544
 20
3.426581382751463
 30
1.624999996669287
 70
   192
  0
VERTEX
  5
1302
330
1218
100
AcDbEntity
  8
0
 62
     7
100
AcDbVertex
100
AcDbPolyFaceMeshVertex
 10
2.285769466661093
 20
3.528189659118651
 30
1.624999996669287
 70
   192
  0
VERTEX
  5
1303
330
1218
100
AcDbEntity
  8
0
 62
     7
100
AcDbVertex
100
AcDbPolyFaceMeshVertex
 10
2.508440021775834
 20
3.799363374710083
 30
2.081676002986426
 70
   192
  0
VERTEX
  5
1304
330
1218
100
AcDbEntity
  8
0
 62
     7
100
AcDbVertex
100
AcDbPolyFaceMeshVertex
 10
2.194472317002894
 20
3.994574069976806
 30
2.391876455790991
 70
   192
  0
VERTEX
  5
1305
330
1218
100
AcDbEntity
  8
0
 62
     7
100
AcDbVertex
100
AcDbPolyFaceMeshVertex
 10
2.421100620530724
 20
3.924848079681396
 30
2.266234632976049
 70
   192
  0
VERTEX
  5
1306
330
1218
100
AcDbEntity
  8
0
 62
     7
100
AcDbVertex
100
AcDbPolyFaceMeshVertex
 10
2.437163357041955
 20
4.164036273956297
 30
2.391876455790991
 70
   192
  0
VERTEX
  5
1307
330
1218
100
AcDbEntity
  8
0
 62
     7
100
AcDbVertex
100
AcDbPolyFaceMeshVertex
 10
2.840068821214313
 20
3.913993835449218
 30
1.624999996669287
 70
   192
  0
VERTEX
  5
1308
330
1218
100
AcDbEntity
  8
0
 62
     7
100
AcDbVertex
100
AcDbPolyFaceMeshVertex
 10
2.563652042649863
 20
3.720038175582884
 30
1.862368818767065
 70
   192
  0
VERTEX
  5
1309
330
1218
100
AcDbEntity
  8
0
 62
     7
100
AcDbVertex
100
AcDbPolyFaceMeshVertex
 10
2.746061329148883
 20
4.003354549407958
 30
2.081676002986426
 70
   192
  0
VERTEX
  5
130A
330
1218
100
AcDbEntity
  8
0
 62
     7
100
AcDbVertex
100
AcDbPolyFaceMeshVertex
 10
2.635250095628375
 20
4.108689308166503
 30
0.9837654199671698
 70
   192
  0
VERTEX
  5
130B
330
1218
100
AcDbEntity
  8
0
 62
     7
100
AcDbVertex
100
AcDbPolyFaceMeshVertex
 10
2.746061329148883
 20
4.003354549407958
 30
1.168323990352148
 70
   192
  0
VERTEX
  5
130C
330
1218
100
AcDbEntity
  8
0
 62
     7
100
AcDbVertex
100
AcDbPolyFaceMeshVertex
 10
2.937755588792443
 20
4.251002788543701
 30
1.168323990352148
 70
   192
  0
VERTEX
  5
130D
330
1218
100
AcDbEntity
  8
0
 62
     7
100
AcDbVertex
100
AcDbPolyFaceMeshVertex
 10
2.816111568711875
 20
3.936767339706419
 30
1.387631174571508
 70
   192
  0
VERTEX
  5
130E
330
1218
100
AcDbEntity
  8
0
 62
     7
100
AcDbVertex
100
AcDbPolyFaceMeshVertex
 10
2.508440021775834
 20
3.799363374710083
 30
1.168323990352148
 70
   192
  0
VERTEX
  5
130F
330
1218
100
AcDbEntity
  8
0
 62
     7
100
AcDbVertex
100
AcDbPolyFaceMeshVertex
 10
3.047826771043414
 20
4.182394981384276
 30
1.624999996669287
 70
   192
  0
VERTEX
  5
1310
330
1218
100
AcDbEntity
  8
0
 62
     7
100
AcDbVertex
100
AcDbPolyFaceMeshVertex
 10
2.816111568711875
 20
3.936767339706419
 30
1.862368818767065
 70
   192
  0
VERTEX
  5
1311
330
1218
100
AcDbEntity
  8
0
 62
     7
100
AcDbVertex
100
AcDbPolyFaceMeshVertex
 10
2.937755588792443
 20
4.251002788543701
 30
2.081676002986426
 70
   192
  0
VERTEX
  5
1312
330
1218
100
AcDbEntity
  8
0
 62
     7
100
AcDbVertex
100
AcDbPolyFaceMeshVertex
 10
2.808008198045374
 20
4.331874847412108
 30
2.266234632976049
 70
   192
  0
VERTEX
  5
1313
330
1218
100
AcDbEntity
  8
0
 62
     7
100
AcDbVertex
100
AcDbPolyFaceMeshVertex
 10
2.808008198045374
 20
4.331874847412108
 30
0.9837654199671698
 70
   192
  0
VERTEX
  5
1314
330
1218
100
AcDbEntity
  8
0
 62
     7
100
AcDbVertex
100
AcDbPolyFaceMeshVertex
 10
3.075674061082484
 20
4.532169342041014
 30
1.168323990352148
 70
   192
  0
VERTEX
  5
1315
330
1218
100
AcDbEntity
  8
0
 62
     7
100
AcDbVertex
100
AcDbPolyFaceMeshVertex
 10
3.019775394700644
 20
4.199879646301268
 30
1.387631174571508
 70
   192
  0
VERTEX
  5
1316
330
1218
100
AcDbEntity
  8
0
 62
     7
100
AcDbVertex
100
AcDbPolyFaceMeshVertex
 10
3.197302822373984
 20
4.487123012542723
 30
1.624999996669287
 70
   192
  0
VERTEX
  5
1317
330
1218
100
AcDbEntity
  8
0
 62
     7
100
AcDbVertex
100
AcDbPolyFaceMeshVertex
 10
3.019775394700644
 20
4.199879646301268
 30
1.862368818767065
 70
   192
  0
VERTEX
  5
1318
330
1218
100
AcDbEntity
  8
0
 62
     7
100
AcDbVertex
100
AcDbPolyFaceMeshVertex
 10
3.075674061082484
 20
4.532169342041014
 30
2.081676002986426
 70
   192
  0
VERTEX
  5
1319
330
1218
100
AcDbEntity
  8
0
 62
     7
100
AcDbVertex
100
AcDbPolyFaceMeshVertex
 10
2.631764416001914
 20
4.387074947357176
 30
2.391876455790991
 70
   192
  0
VERTEX
  5
131A
330
1218
100
AcDbEntity
  8
0
 62
     7
100
AcDbVertex
100
AcDbPolyFaceMeshVertex
 10
1.955266002915973
 20
3.458959102630615
 30
1.387631174571508
 70
   192
  0
VERTEX
  5
131B
330
1218
100
AcDbEntity
  8
0
 62
     7
100
AcDbVertex
100
AcDbPolyFaceMeshVertex
 10
1.624246601365683
 20
3.425297737121582
 30
1.387631174571508
 70
   192
  0
VERTEX
  5
131C
330
1218
100
AcDbEntity
  8
0
 62
     7
100
AcDbVertex
100
AcDbPolyFaceMeshVertex
 10
1.624246601365683
 20
3.425297737121582
 30
1.862368818767065
 70
   192
  0
VERTEX
  5
131D
330
1218
100
AcDbEntity
  8
0
 62
     7
100
AcDbVertex
100
AcDbPolyFaceMeshVertex
 10
1.624246601365683
 20
3.674833536148071
 30
2.266234632976049
 70
   192
  0
VERTEX
  5
131E
330
1218
100
AcDbEntity
  8
0
 62
     7
100
AcDbVertex
100
AcDbPolyFaceMeshVertex
 10
1.905035022996544
 20
3.703387022018431
 30
2.266234632976049
 70
   192
  0
VERTEX
  5
131F
330
1218
100
AcDbEntity
  8
0
 62
     7
100
AcDbVertex
100
AcDbPolyFaceMeshVertex
 10
1.935811046861283
 20
3.553628921508788
 30
2.081676002986426
 70
   192
  0
VERTEX
  5
1320
330
1218
100
AcDbEntity
  8
0
 62
     7
100
AcDbVertex
100
AcDbPolyFaceMeshVertex
 10
1.624246601365683
 20
3.85271668434143
 30
2.391876455790991
 70
   192
  0
VERTEX
  5
1321
330
1218
100
AcDbEntity
  8
0
 62
     7
100
AcDbVertex
100
AcDbPolyFaceMeshVertex
 10
1.918049816392533
 20
3.888713359832763
 30
2.391876455790991
 70
   192
  0
VERTEX
  5
1322
330
1218
100
AcDbEntity
  8
0
 62
     7
100
AcDbVertex
100
AcDbPolyFaceMeshVertex
 10
2.421100620530724
 20
3.924848079681396
 30
0.9837654199671698
 70
   192
  0
VERTEX
  5
1323
330
1218
100
AcDbEntity
  8
0
 62
     7
100
AcDbVertex
100
AcDbPolyFaceMeshVertex
 10
1.905035022996544
 20
3.703387022018431
 30
0.9837654199671698
 70
   192
  0
VERTEX
  5
1324
330
1218
100
AcDbEntity
  8
0
 62
     7
100
AcDbVertex
100
AcDbPolyFaceMeshVertex
 10
0.8273925822006447
 20
3.924848079681396
 30
0.9837654199671698
 70
   192
  0
VERTEX
  5
1325
330
1218
100
AcDbEntity
  8
0
 62
     7
100
AcDbVertex
100
AcDbPolyFaceMeshVertex
 10
0.4404850046859928
 20
4.331874847412108
 30
0.9837654199671698
 70
   192
  0
VERTEX
  5
1326
330
1218
100
AcDbEntity
  8
0
 62
     7
100
AcDbVertex
100
AcDbPolyFaceMeshVertex
 10
0.1728191416488833
 20
4.532169342041014
 30
1.168323990352148
 70
   192
  0
VERTEX
  5
1327
330
1218
100
AcDbEntity
  8
0
 62
     7
100
AcDbVertex
100
AcDbPolyFaceMeshVertex
 10
0.0511903803573848
 20
4.487123012542723
 30
1.624999996669287
 70
   192
  0
VERTEX
  5
1328
330
1218
100
AcDbEntity
  8
0
 62
     7
100
AcDbVertex
100
AcDbPolyFaceMeshVertex
 10
0.4404850046859928
 20
4.331874847412108
 30
2.266234632976049
 70
   192
  0
VERTEX
  5
1329
330
1218
100
AcDbEntity
  8
0
 62
     7
100
AcDbVertex
100
AcDbPolyFaceMeshVertex
 10
0.8273925822006447
 20
3.924848079681396
 30
2.266234632976049
 70
   192
  0
VERTEX
  5
132A
330
1218
100
AcDbEntity
  8
0
 62
     7
100
AcDbVertex
100
AcDbPolyFaceMeshVertex
 10
1.343458179734824
 20
3.703387022018431
 30
2.266234632976049
 70
   192
  0
VERTEX
  5
132B
330
1218
100
AcDbEntity
  8
0
 62
     7
100
AcDbVertex
100
AcDbPolyFaceMeshVertex
 10
2.174327854417443
 20
3.787878274917602
 30
2.266234632976049
 70
   192
  0
VERTEX
  5
132C
330
1218
100
AcDbEntity
  8
0
 62
     7
100
AcDbVertex
100
AcDbPolyFaceMeshVertex
 10
2.635250095628375
 20
4.108689308166503
 30
2.266234632976049
 70
   192
  0
VERTEX
  5
132D
330
1218
100
AcDbEntity
  8
0
 62
     7
100
AcDbVertex
100
AcDbPolyFaceMeshVertex
 10
2.932303432725543
 20
4.585268020629881
 30
2.266234632976049
 70
   192
  0
VERTEX
  5
132E
330
1218
100
AcDbEntity
  8
0
 62
     7
100
AcDbVertex
100
AcDbPolyFaceMeshVertex
 10
3.166306499742145
 20
4.498602867126463
 30
1.862368818767065
 70
   192
  0
VERTEX
  5
132F
330
1218
100
AcDbEntity
  8
0
 62
     7
100
AcDbVertex
100
AcDbPolyFaceMeshVertex
 10
3.166306499742145
 20
4.498602867126463
 30
1.387631174571508
 70
   192
  0
VERTEX
  5
1330
330
1218
100
AcDbEntity
  8
0
 62
     7
100
AcDbVertex
100
AcDbPolyFaceMeshVertex
 10
2.932303432725543
 20
4.585268020629881
 30
0.9837654199671698
 70
   192
  0
VERTEX
  5
1331
330
1218
100
AcDbEntity
  8
0
 62
     7
100
AcDbVertex
100
AcDbPolyFaceMeshVertex
 10
2.504936222337363
 20
4.182893276214598
 30
2.536249634273047
 70
   192
  0
VERTEX
  5
1332
330
1218
100
AcDbEntity
  8
0
 62
     7
100
AcDbVertex
100
AcDbPolyFaceMeshVertex
 10
2.679528240464804
 20
4.400052547454833
 30
2.536249634273047
 70
   192
  0
VERTEX
  5
1333
330
1218
100
AcDbEntity
  8
0
 62
     7
100
AcDbVertex
100
AcDbPolyFaceMeshVertex
 10
2.035283092759723
 20
3.889413356781004
 30
2.536249634273047
 70
   192
  0
VERTEX
  5
1334
330
1218
100
AcDbEntity
  8
0
 62
     7
100
AcDbVertex
100
AcDbPolyFaceMeshVertex
 10
2.286569599412565
 20
4.009812831878662
 30
2.536249634273047
 70
   192
  0
VERTEX
  5
1335
330
1218
100
AcDbEntity
  8
0
 62
     7
100
AcDbVertex
100
AcDbPolyFaceMeshVertex
 10
1.484926227830523
 20
3.827679395675658
 30
2.536249634273047
 70
   192
  0
VERTEX
  5
1336
330
1218
100
AcDbEntity
  8
0
 62
     7
100
AcDbVertex
100
AcDbPolyFaceMeshVertex
 10
1.763566974900843
 20
3.827679395675658
 30
2.536249634273047
 70
   192
  0
VERTEX
  5
1337
330
1218
100
AcDbEntity
  8
0
 62
     7
100
AcDbVertex
100
AcDbPolyFaceMeshVertex
 10
0.9619236033188052
 20
4.009812831878662
 30
2.536249634273047
 70
   192
  0
VERTEX
  5
1338
330
1218
100
AcDbEntity
  8
0
 62
     7
100
AcDbVertex
100
AcDbPolyFaceMeshVertex
 10
1.213210109971644
 20
3.889413356781004
 30
2.536249634273047
 70
   192
  0
VERTEX
  5
1339
330
1218
100
AcDbEntity
  8
0
 62
     7
100
AcDbVertex
100
AcDbPolyFaceMeshVertex
 10
0.5689649622665645
 20
4.400052547454833
 30
2.536249634273047
 70
   192
  0
VERTEX
  5
133A
330
1218
100
AcDbEntity
  8
0
 62
     7
100
AcDbVertex
100
AcDbPolyFaceMeshVertex
 10
0.7435579340683241
 20
4.182893276214598
 30
2.536249634273047
 70
   192
  0
VERTEX
  5
133B
330
1218
100
AcDbEntity
  8
0
 62
     7
100
AcDbVertex
100
AcDbPolyFaceMeshVertex
 10
2.349420551560992
 20
4.115769863128662
 30
2.592892643458837
 70
   192
  0
VERTEX
  5
133C
330
1218
100
AcDbEntity
  8
0
 62
     7
100
AcDbVertex
100
AcDbPolyFaceMeshVertex
 10
1.881843570970172
 20
3.899445533752441
 30
2.592892643458837
 70
   192
  0
VERTEX
  5
133D
330
1218
100
AcDbEntity
  8
0
 62
     7
100
AcDbVertex
100
AcDbPolyFaceMeshVertex
 10
2.117282871507281
 20
4.004038333892821
 30
2.682769056804174
 70
   192
  0
VERTEX
  5
133E
330
1218
100
AcDbEntity
  8
0
 62
     7
100
AcDbVertex
100
AcDbPolyFaceMeshVertex
 10
1.876666073106402
 20
3.922964811325073
 30
2.682769056804174
 70
   192
  0
VERTEX
  5
133F
330
1218
100
AcDbEntity
  8
0
 62
     7
100
AcDbVertex
100
AcDbPolyFaceMeshVertex
 10
1.366649631761193
 20
3.899445533752441
 30
2.592892643458837
 70
   192
  0
VERTEX
  5
1340
330
1218
100
AcDbEntity
  8
0
 62
     7
100
AcDbVertex
100
AcDbPolyFaceMeshVertex
 10
0.8990726511703748
 20
4.115769863128662
 30
2.592892643458837
 70
   192
  0
VERTEX
  5
1341
330
1218
100
AcDbEntity
  8
0
 62
     7
100
AcDbVertex
100
AcDbPolyFaceMeshVertex
 10
0.5655441324936135
 20
4.508430480957031
 30
2.592892643458837
 70
   192
  0
VERTEX
  5
1342
330
1218
100
AcDbEntity
  8
0
 62
     7
100
AcDbVertex
100
AcDbPolyFaceMeshVertex
 10
2.682949070237754
 20
4.508430480957031
 30
2.592892643458837
 70
   192
  0
VERTEX
  5
1343
330
1218
100
AcDbEntity
  8
0
 62
     7
100
AcDbVertex
100
AcDbPolyFaceMeshVertex
 10
1.906826977037074
 20
3.922897815704345
 30
2.732150312907691
 70
   192
  0
VERTEX
  5
1344
330
1218
100
AcDbEntity
  8
0
 62
     7
100
AcDbVertex
100
AcDbPolyFaceMeshVertex
 10
1.121098522447223
 20
3.982181549072265
 30
2.592892643458837
 70
   192
  0
VERTEX
  5
1345
330
1218
100
AcDbEntity
  8
0
 62
     7
100
AcDbVertex
100
AcDbPolyFaceMeshVertex
 10
1.131210331224083
 20
4.004038333892821
 30
2.682769056804174
 70
   192
  0
VERTEX
  5
1346
330
1218
100
AcDbEntity
  8
0
 62
     7
100
AcDbVertex
100
AcDbPolyFaceMeshVertex
 10
1.341666225694293
 20
3.922897815704345
 30
2.732150312907691
 70
   192
  0
VERTEX
  5
1347
330
1218
100
AcDbEntity
  8
0
 62
     7
100
AcDbVertex
100
AcDbPolyFaceMeshVertex
 10
1.075499538682574
 20
4.023809432983397
 30
2.732150312907691
 70
   192
  0
VERTEX
  5
1348
330
1218
100
AcDbEntity
  8
0
 62
     7
100
AcDbVertex
100
AcDbPolyFaceMeshVertex
 10
0.7109565775619747
 20
4.29396343231201
 30
2.592892643458837
 70
   192
  0
VERTEX
  5
1349
330
1218
100
AcDbEntity
  8
0
 62
     7
100
AcDbVertex
100
AcDbPolyFaceMeshVertex
 10
0.729310993455524
 20
4.309554100036621
 30
2.682769056804174
 70
   192
  0
VERTEX
  5
134A
330
1218
100
AcDbEntity
  8
0
 62
     7
100
AcDbVertex
100
AcDbPolyFaceMeshVertex
 10
0.6523914377914651
 20
4.398489952087402
 30
2.732150312907691
 70
   192
  0
VERTEX
  5
134B
330
1218
100
AcDbEntity
  8
0
 62
     7
100
AcDbVertex
100
AcDbPolyFaceMeshVertex
 10
2.172993664048796
 20
4.023809432983397
 30
2.732150312907691
 70
   192
  0
VERTEX
  5
134C
330
1218
100
AcDbEntity
  8
0
 62
     7
100
AcDbVertex
100
AcDbPolyFaceMeshVertex
 10
2.127395633958453
 20
3.982181549072265
 30
2.592892643458837
 70
   192
  0
VERTEX
  5
134D
330
1218
100
AcDbEntity
  8
0
 62
     7
100
AcDbVertex
100
AcDbPolyFaceMeshVertex
 10
2.407288555406214
 20
4.185470104217528
 30
2.732150312907691
 70
   192
  0
VERTEX
  5
134E
330
1218
100
AcDbEntity
  8
0
 62
     7
100
AcDbVertex
100
AcDbPolyFaceMeshVertex
 10
2.519182209275843
 20
4.309554100036621
 30
2.682769056804174
 70
   192
  0
VERTEX
  5
134F
330
1218
100
AcDbEntity
  8
0
 62
     7
100
AcDbVertex
100
AcDbPolyFaceMeshVertex
 10
2.596101764939904
 20
4.398489952087402
 30
2.732150312907691
 70
   192
  0
VERTEX
  5
1350
330
1218
100
AcDbEntity
  8
0
 62
     7
100
AcDbVertex
100
AcDbPolyFaceMeshVertex
 10
2.537536625169394
 20
4.29396343231201
 30
2.592892643458837
 70
   192
  0
VERTEX
  5
1351
330
1218
100
AcDbEntity
  8
0
 62
     7
100
AcDbVertex
100
AcDbPolyFaceMeshVertex
 10
1.624246601365683
 20
3.895512580871582
 30
2.682769056804174
 70
   192
  0
VERTEX
  5
1352
330
1218
100
AcDbEntity
  8
0
 62
     7
100
AcDbVertex
100
AcDbPolyFaceMeshVertex
 10
1.624246601365683
 20
3.888596534729002
 30
2.732150312907691
 70
   192
  0
VERTEX
  5
1353
330
1218
100
AcDbEntity
  8
0
 62
     7
100
AcDbVertex
100
AcDbPolyFaceMeshVertex
 10
1.624246601365683
 20
3.871430397033691
 30
2.592892643458837
 70
   192
  0
VERTEX
  5
1354
330
1218
100
AcDbEntity
  8
0
 62
     7
100
AcDbVertex
100
AcDbPolyFaceMeshVertex
 10
0.5868206064926334
 20
4.519711017608641
 30
2.682769056804174
 70
   192
  0
VERTEX
  5
1355
330
1218
100
AcDbEntity
  8
0
 62
     7
100
AcDbVertex
100
AcDbPolyFaceMeshVertex
 10
0.8412046473251528
 20
4.185470104217528
 30
2.732150312907691
 70
   192
  0
VERTEX
  5
1356
330
1218
100
AcDbEntity
  8
0
 62
     7
100
AcDbVertex
100
AcDbPolyFaceMeshVertex
 10
0.9136467020736933
 20
4.134941577911376
 30
2.682769056804174
 70
   192
  0
VERTEX
  5
1357
330
1218
100
AcDbEntity
  8
0
 62
     7
100
AcDbVertex
100
AcDbPolyFaceMeshVertex
 10
1.371827129624964
 20
3.922964811325073
 30
2.682769056804174
 70
   192
  0
VERTEX
  5
1358
330
1218
100
AcDbEntity
  8
0
 62
     7
100
AcDbVertex
100
AcDbPolyFaceMeshVertex
 10
2.334846500657672
 20
4.134941577911376
 30
2.682769056804174
 70
   192
  0
VERTEX
  5
1359
330
1218
100
AcDbEntity
  8
0
 62
     7
100
AcDbVertex
100
AcDbPolyFaceMeshVertex
 10
2.661672596238734
 20
4.519711017608641
 30
2.682769056804174
 70
   192
  0
VERTEX
  5
135A
330
1218
100
AcDbEntity
  8
0
 62
     7
100
AcDbVertex
100
AcDbPolyFaceMeshVertex
 10
0.5325717966781838
 20
4.571167945861816
 30
2.784337517268653
 70
   192
  0
VERTEX
  5
135B
330
1218
100
AcDbEntity
  8
0
 62
     7
100
AcDbVertex
100
AcDbPolyFaceMeshVertex
 10
0.3130893748031838
 20
4.47093391418457
 30
3.001593109614844
 70
   192
  0
VERTEX
  5
135C
330
1218
100
AcDbEntity
  8
0
 62
     7
100
AcDbVertex
100
AcDbPolyFaceMeshVertex
 10
0.4438333552108951
 20
4.530642986297606
 30
2.918608900554174
 70
   192
  0
VERTEX
  5
135D
330
1218
100
AcDbEntity
  8
0
 62
     7
100
AcDbVertex
100
AcDbPolyFaceMeshVertex
 10
0.5052423517929246
 20
4.098466396331787
 30
3.012396093852514
 70
   192
  0
VERTEX
  5
135E
330
1218
100
AcDbEntity
  8
0
 62
     7
100
AcDbVertex
100
AcDbPolyFaceMeshVertex
 10
0.6295566599594338
 20
4.026518344879149
 30
3.001593109614844
 70
   192
  0
VERTEX
  5
135F
330
1218
100
AcDbEntity
  8
0
 62
     7
100
AcDbVertex
100
AcDbPolyFaceMeshVertex
 10
0.7370233576523049
 20
3.882985830307006
 30
3.012396093852514
 70
   192
  0
VERTEX
  5
1360
330
1218
100
AcDbEntity
  8
0
 62
     7
100
AcDbVertex
100
AcDbPolyFaceMeshVertex
 10
0.5671863596664651
 20
4.316989898681639
 30
2.918608900554174
 70
   192
  0
VERTEX
  5
1361
330
1218
100
AcDbEntity
  8
0
 62
     7
100
AcDbVertex
100
AcDbPolyFaceMeshVertex
 10
0.7287435572372623
 20
4.130542755126953
 30
2.918608900554174
 70
   192
  0
VERTEX
  5
1362
330
1218
100
AcDbEntity
  8
0
 62
     7
100
AcDbVertex
100
AcDbPolyFaceMeshVertex
 10
0.6466512720810123
 20
4.373576641082762
 30
2.784337517268653
 70
   192
  0
VERTEX
  5
1363
330
1218
100
AcDbEntity
  8
0
 62
     7
100
AcDbVertex
100
AcDbPolyFaceMeshVertex
 10
0.9754085581527949
 20
4.060107231140135
 30
2.784337517268653
 70
   192
  0
VERTEX
  5
1364
330
1218
100
AcDbEntity
  8
0
 62
     7
100
AcDbVertex
100
AcDbPolyFaceMeshVertex
 10
1.009277347825644
 20
3.721641302108763
 30
3.012396093852514
 70
   192
  0
VERTEX
  5
1365
330
1218
100
AcDbEntity
  8
0
 62
     7
100
AcDbVertex
100
AcDbPolyFaceMeshVertex
 10
1.088526729844684
 20
3.731555938720703
 30
3.001593109614844
 70
   192
  0
VERTEX
  5
1366
330
1218
100
AcDbEntity
  8
0
 62
     7
100
AcDbVertex
100
AcDbPolyFaceMeshVertex
 10
1.309584621690394
 20
3.621793270111082
 30
3.012396093852514
 70
   192
  0
VERTEX
  5
1367
330
1218
100
AcDbEntity
  8
0
 62
     7
100
AcDbVertex
100
AcDbPolyFaceMeshVertex
 10
0.9226665537582636
 20
3.978039741516113
 30
2.918608900554174
 70
   192
  0
VERTEX
  5
1368
330
1218
100
AcDbEntity
  8
0
 62
     7
100
AcDbVertex
100
AcDbPolyFaceMeshVertex
 10
1.141946796678183
 20
3.864993095397948
 30
2.918608900554174
 70
   192
  0
VERTEX
  5
1369
330
1218
100
AcDbEntity
  8
0
 62
     7
100
AcDbVertex
100
AcDbPolyFaceMeshVertex
 10
1.624246601365683
 20
3.869591236114501
 30
2.784337517268653
 70
   192
  0
VERTEX
  5
136A
330
1218
100
AcDbEntity
  8
0
 62
     7
100
AcDbVertex
100
AcDbPolyFaceMeshVertex
 10
1.624246601365683
 20
3.772037506103515
 30
2.918608900554174
 70
   192
  0
VERTEX
  5
136B
330
1218
100
AcDbEntity
  8
0
 62
     7
100
AcDbVertex
100
AcDbPolyFaceMeshVertex
 10
1.397121433519004
 20
3.891279220581053
 30
2.784337517268653
 70
   192
  0
VERTEX
  5
136C
330
1218
100
AcDbEntity
  8
0
 62
     7
100
AcDbVertex
100
AcDbPolyFaceMeshVertex
 10
1.869834903977984
 20
3.795488357543944
 30
2.918608900554174
 70
   192
  0
VERTEX
  5
136D
330
1218
100
AcDbEntity
  8
0
 62
     7
100
AcDbVertex
100
AcDbPolyFaceMeshVertex
 10
2.070289615892054
 20
3.955559015274046
 30
2.784337517268653
 70
   192
  0
VERTEX
  5
136E
330
1218
100
AcDbEntity
  8
0
 62
     7
100
AcDbVertex
100
AcDbPolyFaceMeshVertex
 10
1.938908581040973
 20
3.621793270111082
 30
3.012396093852514
 70
   192
  0
VERTEX
  5
136F
330
1218
100
AcDbEntity
  8
0
 62
     7
100
AcDbVertex
100
AcDbPolyFaceMeshVertex
 10
2.159966472886683
 20
3.731555938720703
 30
3.001593109614844
 70
   192
  0
VERTEX
  5
1370
330
1218
100
AcDbEntity
  8
0
 62
     7
100
AcDbVertex
100
AcDbPolyFaceMeshVertex
 10
2.239215854905724
 20
3.721641302108763
 30
3.012396093852514
 70
   192
  0
VERTEX
  5
1371
330
1218
100
AcDbEntity
  8
0
 62
     7
100
AcDbVertex
100
AcDbPolyFaceMeshVertex
 10
2.106546406053183
 20
3.864993095397948
 30
2.918608900554174
 70
   192
  0
VERTEX
  5
1372
330
1218
100
AcDbEntity
  8
0
 62
     7
100
AcDbVertex
100
AcDbPolyFaceMeshVertex
 10
2.325826648973102
 20
3.978039741516113
 30
2.918608900554174
 70
   192
  0
VERTEX
  5
1373
330
1218
100
AcDbEntity
  8
0
 62
     7
100
AcDbVertex
100
AcDbPolyFaceMeshVertex
 10
2.511469845079064
 20
3.882985830307006
 30
3.012396093852514
 70
   192
  0
VERTEX
  5
1374
330
1218
100
AcDbEntity
  8
0
 62
     7
100
AcDbVertex
100
AcDbPolyFaceMeshVertex
 10
2.618936542771933
 20
4.026518344879149
 30
3.001593109614844
 70
   192
  0
VERTEX
  5
1375
330
1218
100
AcDbEntity
  8
0
 62
     7
100
AcDbVertex
100
AcDbPolyFaceMeshVertex
 10
2.743250850938434
 20
4.098466396331787
 30
3.012396093852514
 70
   192
  0
VERTEX
  5
1376
330
1218
100
AcDbEntity
  8
0
 62
     7
100
AcDbVertex
100
AcDbPolyFaceMeshVertex
 10
2.519749645494103
 20
4.130542755126953
 30
2.918608900554174
 70
   192
  0
VERTEX
  5
1377
330
1218
100
AcDbEntity
  8
0
 62
     7
100
AcDbVertex
100
AcDbPolyFaceMeshVertex
 10
2.452429775498984
 20
4.201145648956297
 30
2.784337517268653
 70
   192
  0
VERTEX
  5
1378
330
1218
100
AcDbEntity
  8
0
 62
     7
100
AcDbVertex
100
AcDbPolyFaceMeshVertex
 10
2.681306843064904
 20
4.316989898681639
 30
2.918608900554174
 70
   192
  0
VERTEX
  5
1379
330
1218
100
AcDbEntity
  8
0
 62
     7
100
AcDbVertex
100
AcDbPolyFaceMeshVertex
 10
2.601841930650353
 20
4.373576641082762
 30
2.784337517268653
 70
   192
  0
VERTEX
  5
137A
330
1218
100
AcDbEntity
  8
0
 62
     7
100
AcDbVertex
100
AcDbPolyFaceMeshVertex
 10
2.715921406053183
 20
4.571167945861816
 30
2.784337517268653
 70
   192
  0
VERTEX
  5
137B
330
1218
100
AcDbEntity
  8
0
 62
     7
100
AcDbVertex
100
AcDbPolyFaceMeshVertex
 10
2.935403827928183
 20
4.47093391418457
 30
3.001593109614844
 70
   192
  0
VERTEX
  5
137C
330
1218
100
AcDbEntity
  8
0
 62
     7
100
AcDbVertex
100
AcDbPolyFaceMeshVertex
 10
2.923984531663531
 20
4.358253955841063
 30
3.012396093852514
 70
   192
  0
VERTEX
  5
137D
330
1218
100
AcDbEntity
  8
0
 62
     7
100
AcDbVertex
100
AcDbPolyFaceMeshVertex
 10
1.378659252427691
 20
3.795488357543944
 30
2.918608900554174
 70
   192
  0
VERTEX
  5
137E
330
1218
100
AcDbEntity
  8
0
 62
     7
100
AcDbVertex
100
AcDbPolyFaceMeshVertex
 10
1.624246601365683
 20
3.628304481506346
 30
3.001593109614844
 70
   192
  0
VERTEX
  5
137F
330
1218
100
AcDbEntity
  8
0
 62
     7
100
AcDbVertex
100
AcDbPolyFaceMeshVertex
 10
1.897036556504843
 20
3.654352664947508
 30
3.001593109614844
 70
   192
  0
VERTEX
  5
1380
330
1218
100
AcDbEntity
  8
0
 62
     7
100
AcDbVertex
100
AcDbPolyFaceMeshVertex
 10
1.624246601365683
 20
3.5879967212677
 30
3.012396093852514
 70
   192
  0
VERTEX
  5
1381
330
1218
100
AcDbEntity
  8
0
 62
     7
100
AcDbVertex
100
AcDbPolyFaceMeshVertex
 10
2.273084644578574
 20
4.060107231140135
 30
2.784337517268653
 70
   192
  0
VERTEX
  5
1382
330
1218
100
AcDbEntity
  8
0
 62
     7
100
AcDbVertex
100
AcDbPolyFaceMeshVertex
 10
1.851372722886674
 20
3.891279220581053
 30
2.784337517268653
 70
   192
  0
VERTEX
  5
1383
330
1218
100
AcDbEntity
  8
0
 62
     7
100
AcDbVertex
100
AcDbPolyFaceMeshVertex
 10
1.178204540513634
 20
3.955559015274046
 30
2.784337517268653
 70
   192
  0
VERTEX
  5
1384
330
1218
100
AcDbEntity
  8
0
 62
     7
100
AcDbVertex
100
AcDbPolyFaceMeshVertex
 10
0.7960634272323848
 20
4.201145648956297
 30
2.784337517268653
 70
   192
  0
VERTEX
  5
1385
330
1218
100
AcDbEntity
  8
0
 62
     7
100
AcDbVertex
100
AcDbPolyFaceMeshVertex
 10
0.324508671067834
 20
4.358253955841063
 30
3.012396093852514
 70
   192
  0
VERTEX
  5
1386
330
1218
100
AcDbEntity
  8
0
 62
     7
100
AcDbVertex
100
AcDbPolyFaceMeshVertex
 10
0.4501047175155826
 20
4.233616828918457
 30
3.001593109614844
 70
   192
  0
VERTEX
  5
1387
330
1218
100
AcDbEntity
  8
0
 62
     7
100
AcDbVertex
100
AcDbPolyFaceMeshVertex
 10
0.8449592631088442
 20
3.857124090194701
 30
3.001593109614844
 70
   192
  0
VERTEX
  5
1388
330
1218
100
AcDbEntity
  8
0
 62
     7
100
AcDbVertex
100
AcDbPolyFaceMeshVertex
 10
1.351457599900843
 20
3.654352664947508
 30
3.001593109614844
 70
   192
  0
VERTEX
  5
1389
330
1218
100
AcDbEntity
  8
0
 62
     7
100
AcDbVertex
100
AcDbPolyFaceMeshVertex
 10
2.403533939622523
 20
3.857124090194701
 30
3.001593109614844
 70
   192
  0
VERTEX
  5
138A
330
1218
100
AcDbEntity
  8
0
 62
     7
100
AcDbVertex
100
AcDbPolyFaceMeshVertex
 10
2.798388485215783
 20
4.233616828918457
 30
3.001593109614844
 70
   192
  0
VERTEX
  5
138B
330
1218
100
AcDbEntity
  8
0
 62
     7
100
AcDbVertex
100
AcDbPolyFaceMeshVertex
 10
2.804659847520476
 20
4.530642986297606
 30
2.918608900554174
 70
   192
  0
VERTEX
  5
138C
330
1218
100
AcDbEntity
  8
0
 62
     7
100
AcDbFaceRecord
 10
0.0
 20
0.0
 30
0.0
 70
   128
 71
     1
 72
     2
 73
     3
  0
VERTEX
  5
138D
330
1218
100
AcDbEntity
  8
0
 62
     7
100
AcDbFaceRecord
 10
0.0
 20
0.0
 30
0.0
 70
   128
 71
     4
 72
     5
 73
     6
  0
VERTEX
  5
138E
330
1218
100
AcDbEntity
  8
0
 62
     7
100
AcDbFaceRecord
 10
0.0
 20
0.0
 30
0.0
 70
   128
 71
     4
 72
     7
 73
     5
  0
VERTEX
  5
138F
330
1218
100
AcDbEntity
  8
0
 62
     7
100
AcDbFaceRecord
 10
0.0
 20
0.0
 30
0.0
 70
   128
 71
     8
 72
     9
 73
    10
  0
VERTEX
  5
1390
330
1218
100
AcDbEntity
  8
0
 62
     7
100
AcDbFaceRecord
 10
0.0
 20
0.0
 30
0.0
 70
   128
 71
    11
 72
    12
 73
    13
  0
VERTEX
  5
1391
330
1218
100
AcDbEntity
  8
0
 62
     7
100
AcDbFaceRecord
 10
0.0
 20
0.0
 30
0.0
 70
   128
 71
    11
 72
     5
 73
    14
  0
VERTEX
  5
1392
330
1218
100
AcDbEntity
  8
0
 62
     7
100
AcDbFaceRecord
 10
0.0
 20
0.0
 30
0.0
 70
   128
 71
    11
 72
     6
 73
     5
  0
VERTEX
  5
1393
330
1218
100
AcDbEntity
  8
0
 62
     7
100
AcDbFaceRecord
 10
0.0
 20
0.0
 30
0.0
 70
   128
 71
    15
 72
    16
 73
     7
  0
VERTEX
  5
1394
330
1218
100
AcDbEntity
  8
0
 62
     7
100
AcDbFaceRecord
 10
0.0
 20
0.0
 30
0.0
 70
   128
 71
    17
 72
     8
 73
    10
  0
VERTEX
  5
1395
330
1218
100
AcDbEntity
  8
0
 62
     7
100
AcDbFaceRecord
 10
0.0
 20
0.0
 30
0.0
 70
   128
 71
    18
 72
    19
 73
    17
  0
VERTEX
  5
1396
330
1218
100
AcDbEntity
  8
0
 62
     7
100
AcDbFaceRecord
 10
0.0
 20
0.0
 30
0.0
 70
   128
 71
    20
 72
    18
 73
    17
  0
VERTEX
  5
1397
330
1218
100
AcDbEntity
  8
0
 62
     7
100
AcDbFaceRecord
 10
0.0
 20
0.0
 30
0.0
 70
   128
 71
    20
 72
    17
 73
    10
  0
VERTEX
  5
1398
330
1218
100
AcDbEntity
  8
0
 62
     7
100
AcDbFaceRecord
 10
0.0
 20
0.0
 30
0.0
 70
   128
 71
    21
 72
    10
 73
     9
  0
VERTEX
  5
1399
330
1218
100
AcDbEntity
  8
0
 62
     7
100
AcDbFaceRecord
 10
0.0
 20
0.0
 30
0.0
 70
   128
 71
    15
 72
     7
 73
     4
  0
VERTEX
  5
139A
330
1218
100
AcDbEntity
  8
0
 62
     7
100
AcDbFaceRecord
 10
0.0
 20
0.0
 30
0.0
 70
   128
 71
    22
 72
     4
 73
     6
  0
VERTEX
  5
139B
330
1218
100
AcDbEntity
  8
0
 62
     7
100
AcDbFaceRecord
 10
0.0
 20
0.0
 30
0.0
 70
   128
 71
    23
 72
    22
 73
     6
  0
VERTEX
  5
139C
330
1218
100
AcDbEntity
  8
0
 62
     7
100
AcDbFaceRecord
 10
0.0
 20
0.0
 30
0.0
 70
   128
 71
    24
 72
     6
 73
    11
  0
VERTEX
  5
139D
330
1218
100
AcDbEntity
  8
0
 62
     7
100
AcDbFaceRecord
 10
0.0
 20
0.0
 30
0.0
 70
   128
 71
    25
 72
    26
 73
    27
  0
VERTEX
  5
139E
330
1218
100
AcDbEntity
  8
0
 62
     7
100
AcDbFaceRecord
 10
0.0
 20
0.0
 30
0.0
 70
   128
 71
    28
 72
    26
 73
    25
  0
VERTEX
  5
139F
330
1218
100
AcDbEntity
  8
0
 62
     7
100
AcDbFaceRecord
 10
0.0
 20
0.0
 30
0.0
 70
   128
 71
    29
 72
    30
 73
    28
  0
VERTEX
  5
13A0
330
1218
100
AcDbEntity
  8
0
 62
     7
100
AcDbFaceRecord
 10
0.0
 20
0.0
 30
0.0
 70
   128
 71
    29
 72
    28
 73
    25
  0
VERTEX
  5
13A1
330
1218
100
AcDbEntity
  8
0
 62
     7
100
AcDbFaceRecord
 10
0.0
 20
0.0
 30
0.0
 70
   128
 71
    24
 72
    27
 73
    26
  0
VERTEX
  5
13A2
330
1218
100
AcDbEntity
  8
0
 62
     7
100
AcDbFaceRecord
 10
0.0
 20
0.0
 30
0.0
 70
   128
 71
    27
 72
    24
 73
    11
  0
VERTEX
  5
13A3
330
1218
100
AcDbEntity
  8
0
 62
     7
100
AcDbFaceRecord
 10
0.0
 20
0.0
 30
0.0
 70
   128
 71
    31
 72
    11
 73
    13
  0
VERTEX
  5
13A4
330
1218
100
AcDbEntity
  8
0
 62
     7
100
AcDbFaceRecord
 10
0.0
 20
0.0
 30
0.0
 70
   128
 71
    32
 72
    11
 73
    14
  0
VERTEX
  5
13A5
330
1218
100
AcDbEntity
  8
0
 62
     7
100
AcDbFaceRecord
 10
0.0
 20
0.0
 30
0.0
 70
   128
 71
    32
 72
    12
 73
    11
  0
VERTEX
  5
13A6
330
1218
100
AcDbEntity
  8
0
 62
     7
100
AcDbFaceRecord
 10
0.0
 20
0.0
 30
0.0
 70
   128
 71
    33
 72
    12
 73
    32
  0
VERTEX
  5
13A7
330
1218
100
AcDbEntity
  8
0
 62
     7
100
AcDbFaceRecord
 10
0.0
 20
0.0
 30
0.0
 70
   128
 71
    34
 72
     2
 73
     1
  0
VERTEX
  5
13A8
330
1218
100
AcDbEntity
  8
0
 62
     7
100
AcDbFaceRecord
 10
0.0
 20
0.0
 30
0.0
 70
   128
 71
    35
 72
    34
 73
     1
  0
VERTEX
  5
13A9
330
1218
100
AcDbEntity
  8
0
 62
     7
100
AcDbFaceRecord
 10
0.0
 20
0.0
 30
0.0
 70
   128
 71
    36
 72
    35
 73
     1
  0
VERTEX
  5
13AA
330
1218
100
AcDbEntity
  8
0
 62
     7
100
AcDbFaceRecord
 10
0.0
 20
0.0
 30
0.0
 70
   128
 71
    37
 72
    38
 73
    39
  0
VERTEX
  5
13AB
330
1218
100
AcDbEntity
  8
0
 62
     7
100
AcDbFaceRecord
 10
0.0
 20
0.0
 30
0.0
 70
   128
 71
    37
 72
     2
 73
    38
  0
VERTEX
  5
13AC
330
1218
100
AcDbEntity
  8
0
 62
     7
100
AcDbFaceRecord
 10
0.0
 20
0.0
 30
0.0
 70
   128
 71
    37
 72
     3
 73
     2
  0
VERTEX
  5
13AD
330
1218
100
AcDbEntity
  8
0
 62
     7
100
AcDbFaceRecord
 10
0.0
 20
0.0
 30
0.0
 70
   128
 71
    40
 72
    41
 73
     3
  0
VERTEX
  5
13AE
330
1218
100
AcDbEntity
  8
0
 62
     7
100
AcDbFaceRecord
 10
0.0
 20
0.0
 30
0.0
 70
   128
 71
    42
 72
    40
 73
     3
  0
VERTEX
  5
13AF
330
1218
100
AcDbEntity
  8
0
 62
     7
100
AcDbFaceRecord
 10
0.0
 20
0.0
 30
0.0
 70
   128
 71
    42
 72
     3
 73
    37
  0
VERTEX
  5
13B0
330
1218
100
AcDbEntity
  8
0
 62
     7
100
AcDbFaceRecord
 10
0.0
 20
0.0
 30
0.0
 70
   128
 71
    33
 72
    39
 73
    38
  0
VERTEX
  5
13B1
330
1218
100
AcDbEntity
  8
0
 62
     7
100
AcDbFaceRecord
 10
0.0
 20
0.0
 30
0.0
 70
   128
 71
    43
 72
    39
 73
    33
  0
VERTEX
  5
13B2
330
1218
100
AcDbEntity
  8
0
 62
     7
100
AcDbFaceRecord
 10
0.0
 20
0.0
 30
0.0
 70
   128
 71
    43
 72
    33
 73
    32
  0
VERTEX
  5
13B3
330
1218
100
AcDbEntity
  8
0
 62
     7
100
AcDbFaceRecord
 10
0.0
 20
0.0
 30
0.0
 70
   128
 71
    44
 72
    32
 73
    14
  0
VERTEX
  5
13B4
330
1218
100
AcDbEntity
  8
0
 62
     7
100
AcDbFaceRecord
 10
0.0
 20
0.0
 30
0.0
 70
   128
 71
    45
 72
    44
 73
    14
  0
VERTEX
  5
13B5
330
1218
100
AcDbEntity
  8
0
 62
     7
100
AcDbFaceRecord
 10
0.0
 20
0.0
 30
0.0
 70
   128
 71
    46
 72
    14
 73
     5
  0
VERTEX
  5
13B6
330
1218
100
AcDbEntity
  8
0
 62
     7
100
AcDbFaceRecord
 10
0.0
 20
0.0
 30
0.0
 70
   128
 71
    47
 72
    48
 73
    49
  0
VERTEX
  5
13B7
330
1218
100
AcDbEntity
  8
0
 62
     7
100
AcDbFaceRecord
 10
0.0
 20
0.0
 30
0.0
 70
   128
 71
    50
 72
    48
 73
    47
  0
VERTEX
  5
13B8
330
1218
100
AcDbEntity
  8
0
 62
     7
100
AcDbFaceRecord
 10
0.0
 20
0.0
 30
0.0
 70
   128
 71
    51
 72
    52
 73
    50
  0
VERTEX
  5
13B9
330
1218
100
AcDbEntity
  8
0
 62
     7
100
AcDbFaceRecord
 10
0.0
 20
0.0
 30
0.0
 70
   128
 71
    51
 72
    50
 73
    47
  0
VERTEX
  5
13BA
330
1218
100
AcDbEntity
  8
0
 62
     7
100
AcDbFaceRecord
 10
0.0
 20
0.0
 30
0.0
 70
   128
 71
    46
 72
    49
 73
    48
  0
VERTEX
  5
13BB
330
1218
100
AcDbEntity
  8
0
 62
     7
100
AcDbFaceRecord
 10
0.0
 20
0.0
 30
0.0
 70
   128
 71
    49
 72
    46
 73
     5
  0
VERTEX
  5
13BC
330
1218
100
AcDbEntity
  8
0
 62
     7
100
AcDbFaceRecord
 10
0.0
 20
0.0
 30
0.0
 70
   128
 71
    53
 72
    54
 73
     5
  0
VERTEX
  5
13BD
330
1218
100
AcDbEntity
  8
0
 62
     7
100
AcDbFaceRecord
 10
0.0
 20
0.0
 30
0.0
 70
   128
 71
    53
 72
     5
 73
     7
  0
VERTEX
  5
13BE
330
1218
100
AcDbEntity
  8
0
 62
     7
100
AcDbFaceRecord
 10
0.0
 20
0.0
 30
0.0
 70
   128
 71
    55
 72
    16
 73
    15
  0
VERTEX
  5
13BF
330
1218
100
AcDbEntity
  8
0
 62
     7
100
AcDbFaceRecord
 10
0.0
 20
0.0
 30
0.0
 70
   128
 71
    21
 72
    55
 73
    15
  0
VERTEX
  5
13C0
330
1218
100
AcDbEntity
  8
0
 62
     7
100
AcDbFaceRecord
 10
0.0
 20
0.0
 30
0.0
 70
   128
 71
    55
 72
    21
 73
     9
  0
VERTEX
  5
13C1
330
1218
100
AcDbEntity
  8
0
 62
     7
100
AcDbFaceRecord
 10
0.0
 20
0.0
 30
0.0
 70
   128
 71
    56
 72
     9
 73
     8
  0
VERTEX
  5
13C2
330
1218
100
AcDbEntity
  8
0
 62
     7
100
AcDbFaceRecord
 10
0.0
 20
0.0
 30
0.0
 70
   128
 71
    57
 72
    56
 73
     8
  0
VERTEX
  5
13C3
330
1218
100
AcDbEntity
  8
0
 62
     7
100
AcDbFaceRecord
 10
0.0
 20
0.0
 30
0.0
 70
   128
 71
    58
 72
    57
 73
     8
  0
VERTEX
  5
13C4
330
1218
100
AcDbEntity
  8
0
 62
     7
100
AcDbFaceRecord
 10
0.0
 20
0.0
 30
0.0
 70
   128
 71
    59
 72
    60
 73
    61
  0
VERTEX
  5
13C5
330
1218
100
AcDbEntity
  8
0
 62
     7
100
AcDbFaceRecord
 10
0.0
 20
0.0
 30
0.0
 70
   128
 71
    62
 72
    60
 73
    59
  0
VERTEX
  5
13C6
330
1218
100
AcDbEntity
  8
0
 62
     7
100
AcDbFaceRecord
 10
0.0
 20
0.0
 30
0.0
 70
   128
 71
    63
 72
    62
 73
    64
  0
VERTEX
  5
13C7
330
1218
100
AcDbEntity
  8
0
 62
     7
100
AcDbFaceRecord
 10
0.0
 20
0.0
 30
0.0
 70
   128
 71
    65
 72
    63
 73
    64
  0
VERTEX
  5
13C8
330
1218
100
AcDbEntity
  8
0
 62
     7
100
AcDbFaceRecord
 10
0.0
 20
0.0
 30
0.0
 70
   128
 71
    66
 72
    64
 73
    62
  0
VERTEX
  5
13C9
330
1218
100
AcDbEntity
  8
0
 62
     7
100
AcDbFaceRecord
 10
0.0
 20
0.0
 30
0.0
 70
   128
 71
    67
 72
    66
 73
    62
  0
VERTEX
  5
13CA
330
1218
100
AcDbEntity
  8
0
 62
     7
100
AcDbFaceRecord
 10
0.0
 20
0.0
 30
0.0
 70
   128
 71
    68
 72
    67
 73
    62
  0
VERTEX
  5
13CB
330
1218
100
AcDbEntity
  8
0
 62
     7
100
AcDbFaceRecord
 10
0.0
 20
0.0
 30
0.0
 70
   128
 71
    69
 72
    68
 73
    62
  0
VERTEX
  5
13CC
330
1218
100
AcDbEntity
  8
0
 62
     7
100
AcDbFaceRecord
 10
0.0
 20
0.0
 30
0.0
 70
   128
 71
    69
 72
    62
 73
    59
  0
VERTEX
  5
13CD
330
1218
100
AcDbEntity
  8
0
 62
     7
100
AcDbFaceRecord
 10
0.0
 20
0.0
 30
0.0
 70
   128
 71
     8
 72
    61
 73
    60
  0
VERTEX
  5
13CE
330
1218
100
AcDbEntity
  8
0
 62
     7
100
AcDbFaceRecord
 10
0.0
 20
0.0
 30
0.0
 70
   128
 71
    17
 72
    61
 73
     8
  0
VERTEX
  5
13CF
330
1218
100
AcDbEntity
  8
0
 62
     7
100
AcDbFaceRecord
 10
0.0
 20
0.0
 30
0.0
 70
   128
 71
    70
 72
    71
 73
    72
  0
VERTEX
  5
13D0
330
1218
100
AcDbEntity
  8
0
 62
     7
100
AcDbFaceRecord
 10
0.0
 20
0.0
 30
0.0
 70
   128
 71
    73
 72
    71
 73
    70
  0
VERTEX
  5
13D1
330
1218
100
AcDbEntity
  8
0
 62
     7
100
AcDbFaceRecord
 10
0.0
 20
0.0
 30
0.0
 70
   128
 71
    74
 72
    75
 73
    76
  0
VERTEX
  5
13D2
330
1218
100
AcDbEntity
  8
0
 62
     7
100
AcDbFaceRecord
 10
0.0
 20
0.0
 30
0.0
 70
   128
 71
    77
 72
    75
 73
    74
  0
VERTEX
  5
13D3
330
1218
100
AcDbEntity
  8
0
 62
     7
100
AcDbFaceRecord
 10
0.0
 20
0.0
 30
0.0
 70
   128
 71
    78
 72
    77
 73
    74
  0
VERTEX
  5
13D4
330
1218
100
AcDbEntity
  8
0
 62
     7
100
AcDbFaceRecord
 10
0.0
 20
0.0
 30
0.0
 70
   128
 71
    73
 72
    76
 73
    75
  0
VERTEX
  5
13D5
330
1218
100
AcDbEntity
  8
0
 62
     7
100
AcDbFaceRecord
 10
0.0
 20
0.0
 30
0.0
 70
   128
 71
    76
 72
    73
 73
    70
  0
VERTEX
  5
13D6
330
1218
100
AcDbEntity
  8
0
 62
     7
100
AcDbFaceRecord
 10
0.0
 20
0.0
 30
0.0
 70
   128
 71
    79
 72
    72
 73
    71
  0
VERTEX
  5
13D7
330
1218
100
AcDbEntity
  8
0
 62
     7
100
AcDbFaceRecord
 10
0.0
 20
0.0
 30
0.0
 70
   128
 71
    80
 72
    72
 73
    79
  0
VERTEX
  5
13D8
330
1218
100
AcDbEntity
  8
0
 62
     7
100
AcDbFaceRecord
 10
0.0
 20
0.0
 30
0.0
 70
   128
 71
     3
 72
    80
 73
    79
  0
VERTEX
  5
13D9
330
1218
100
AcDbEntity
  8
0
 62
     7
100
AcDbFaceRecord
 10
0.0
 20
0.0
 30
0.0
 70
   128
 71
     1
 72
     3
 73
    79
  0
VERTEX
  5
13DA
330
1218
100
AcDbEntity
  8
0
 62
     7
100
AcDbFaceRecord
 10
0.0
 20
0.0
 30
0.0
 70
   128
 71
    81
 72
    80
 73
    82
  0
VERTEX
  5
13DB
330
1218
100
AcDbEntity
  8
0
 62
     7
100
AcDbFaceRecord
 10
0.0
 20
0.0
 30
0.0
 70
   128
 71
    72
 72
    80
 73
    81
  0
VERTEX
  5
13DC
330
1218
100
AcDbEntity
  8
0
 62
     7
100
AcDbFaceRecord
 10
0.0
 20
0.0
 30
0.0
 70
   128
 71
    83
 72
    70
 73
    84
  0
VERTEX
  5
13DD
330
1218
100
AcDbEntity
  8
0
 62
     7
100
AcDbFaceRecord
 10
0.0
 20
0.0
 30
0.0
 70
   128
 71
    76
 72
    70
 73
    83
  0
VERTEX
  5
13DE
330
1218
100
AcDbEntity
  8
0
 62
     7
100
AcDbFaceRecord
 10
0.0
 20
0.0
 30
0.0
 70
   128
 71
    85
 72
    74
 73
    86
  0
VERTEX
  5
13DF
330
1218
100
AcDbEntity
  8
0
 62
     7
100
AcDbFaceRecord
 10
0.0
 20
0.0
 30
0.0
 70
   128
 71
    78
 72
    74
 73
    85
  0
VERTEX
  5
13E0
330
1218
100
AcDbEntity
  8
0
 62
     7
100
AcDbFaceRecord
 10
0.0
 20
0.0
 30
0.0
 70
   128
 71
    87
 72
    77
 73
    88
  0
VERTEX
  5
13E1
330
1218
100
AcDbEntity
  8
0
 62
     7
100
AcDbFaceRecord
 10
0.0
 20
0.0
 30
0.0
 70
   128
 71
    75
 72
    77
 73
    87
  0
VERTEX
  5
13E2
330
1218
100
AcDbEntity
  8
0
 62
     7
100
AcDbFaceRecord
 10
0.0
 20
0.0
 30
0.0
 70
   128
 71
    89
 72
    73
 73
    90
  0
VERTEX
  5
13E3
330
1218
100
AcDbEntity
  8
0
 62
     7
100
AcDbFaceRecord
 10
0.0
 20
0.0
 30
0.0
 70
   128
 71
    71
 72
    73
 73
    89
  0
VERTEX
  5
13E4
330
1218
100
AcDbEntity
  8
0
 62
     7
100
AcDbFaceRecord
 10
0.0
 20
0.0
 30
0.0
 70
   128
 71
    36
 72
    79
 73
    91
  0
VERTEX
  5
13E5
330
1218
100
AcDbEntity
  8
0
 62
     7
100
AcDbFaceRecord
 10
0.0
 20
0.0
 30
0.0
 70
   128
 71
     1
 72
    79
 73
    36
  0
VERTEX
  5
13E6
330
1218
100
AcDbEntity
  8
0
 62
     7
100
AcDbFaceRecord
 10
0.0
 20
0.0
 30
0.0
 70
   128
 71
    71
 72
    91
 73
    79
  0
VERTEX
  5
13E7
330
1218
100
AcDbEntity
  8
0
 62
     7
100
AcDbFaceRecord
 10
0.0
 20
0.0
 30
0.0
 70
   128
 71
    91
 72
    71
 73
    89
  0
VERTEX
  5
13E8
330
1218
100
AcDbEntity
  8
0
 62
     7
100
AcDbFaceRecord
 10
0.0
 20
0.0
 30
0.0
 70
   128
 71
    75
 72
    90
 73
    73
  0
VERTEX
  5
13E9
330
1218
100
AcDbEntity
  8
0
 62
     7
100
AcDbFaceRecord
 10
0.0
 20
0.0
 30
0.0
 70
   128
 71
    90
 72
    75
 73
    87
  0
VERTEX
  5
13EA
330
1218
100
AcDbEntity
  8
0
 62
     7
100
AcDbFaceRecord
 10
0.0
 20
0.0
 30
0.0
 70
   128
 71
    78
 72
    88
 73
    77
  0
VERTEX
  5
13EB
330
1218
100
AcDbEntity
  8
0
 62
     7
100
AcDbFaceRecord
 10
0.0
 20
0.0
 30
0.0
 70
   128
 71
    88
 72
    78
 73
    85
  0
VERTEX
  5
13EC
330
1218
100
AcDbEntity
  8
0
 62
     7
100
AcDbFaceRecord
 10
0.0
 20
0.0
 30
0.0
 70
   128
 71
    76
 72
    86
 73
    74
  0
VERTEX
  5
13ED
330
1218
100
AcDbEntity
  8
0
 62
     7
100
AcDbFaceRecord
 10
0.0
 20
0.0
 30
0.0
 70
   128
 71
    86
 72
    76
 73
    83
  0
VERTEX
  5
13EE
330
1218
100
AcDbEntity
  8
0
 62
     7
100
AcDbFaceRecord
 10
0.0
 20
0.0
 30
0.0
 70
   128
 71
    72
 72
    84
 73
    70
  0
VERTEX
  5
13EF
330
1218
100
AcDbEntity
  8
0
 62
     7
100
AcDbFaceRecord
 10
0.0
 20
0.0
 30
0.0
 70
   128
 71
    84
 72
    72
 73
    81
  0
VERTEX
  5
13F0
330
1218
100
AcDbEntity
  8
0
 62
     7
100
AcDbFaceRecord
 10
0.0
 20
0.0
 30
0.0
 70
   128
 71
     3
 72
    82
 73
    80
  0
VERTEX
  5
13F1
330
1218
100
AcDbEntity
  8
0
 62
     7
100
AcDbFaceRecord
 10
0.0
 20
0.0
 30
0.0
 70
   128
 71
    41
 72
    82
 73
     3
  0
VERTEX
  5
13F2
330
1218
100
AcDbEntity
  8
0
 62
     7
100
AcDbFaceRecord
 10
0.0
 20
0.0
 30
0.0
 70
   128
 71
    89
 72
    92
 73
    91
  0
VERTEX
  5
13F3
330
1218
100
AcDbEntity
  8
0
 62
     7
100
AcDbFaceRecord
 10
0.0
 20
0.0
 30
0.0
 70
   128
 71
    34
 72
    35
 73
    93
  0
VERTEX
  5
13F4
330
1218
100
AcDbEntity
  8
0
 62
     7
100
AcDbFaceRecord
 10
0.0
 20
0.0
 30
0.0
 70
   128
 71
    94
 72
    95
 73
    96
  0
VERTEX
  5
13F5
330
1218
100
AcDbEntity
  8
0
 62
     7
100
AcDbFaceRecord
 10
0.0
 20
0.0
 30
0.0
 70
   128
 71
    94
 72
    93
 73
    95
  0
VERTEX
  5
13F6
330
1218
100
AcDbEntity
  8
0
 62
     7
100
AcDbFaceRecord
 10
0.0
 20
0.0
 30
0.0
 70
   128
 71
    97
 72
    95
 73
    92
  0
VERTEX
  5
13F7
330
1218
100
AcDbEntity
  8
0
 62
     7
100
AcDbFaceRecord
 10
0.0
 20
0.0
 30
0.0
 70
   128
 71
    97
 72
    96
 73
    95
  0
VERTEX
  5
13F8
330
1218
100
AcDbEntity
  8
0
 62
     7
100
AcDbFaceRecord
 10
0.0
 20
0.0
 30
0.0
 70
   128
 71
    90
 72
    87
 73
    98
  0
VERTEX
  5
13F9
330
1218
100
AcDbEntity
  8
0
 62
     7
100
AcDbFaceRecord
 10
0.0
 20
0.0
 30
0.0
 70
   128
 71
    99
 72
   100
 73
   101
  0
VERTEX
  5
13FA
330
1218
100
AcDbEntity
  8
0
 62
     7
100
AcDbFaceRecord
 10
0.0
 20
0.0
 30
0.0
 70
   128
 71
   102
 72
   103
 73
   100
  0
VERTEX
  5
13FB
330
1218
100
AcDbEntity
  8
0
 62
     7
100
AcDbFaceRecord
 10
0.0
 20
0.0
 30
0.0
 70
   128
 71
    98
 72
   103
 73
   102
  0
VERTEX
  5
13FC
330
1218
100
AcDbEntity
  8
0
 62
     7
100
AcDbFaceRecord
 10
0.0
 20
0.0
 30
0.0
 70
   128
 71
   104
 72
   105
 73
   106
  0
VERTEX
  5
13FD
330
1218
100
AcDbEntity
  8
0
 62
     7
100
AcDbFaceRecord
 10
0.0
 20
0.0
 30
0.0
 70
   128
 71
    86
 72
    83
 73
   107
  0
VERTEX
  5
13FE
330
1218
100
AcDbEntity
  8
0
 62
     7
100
AcDbFaceRecord
 10
0.0
 20
0.0
 30
0.0
 70
   128
 71
    81
 72
   108
 73
    84
  0
VERTEX
  5
13FF
330
1218
100
AcDbEntity
  8
0
 62
     7
100
AcDbFaceRecord
 10
0.0
 20
0.0
 30
0.0
 70
   128
 71
   109
 72
   110
 73
   111
  0
VERTEX
  5
1400
330
1218
100
AcDbEntity
  8
0
 62
     7
100
AcDbFaceRecord
 10
0.0
 20
0.0
 30
0.0
 70
   128
 71
   112
 72
   113
 73
   110
  0
VERTEX
  5
1401
330
1218
100
AcDbEntity
  8
0
 62
     7
100
AcDbFaceRecord
 10
0.0
 20
0.0
 30
0.0
 70
   128
 71
   114
 72
   108
 73
    81
  0
VERTEX
  5
1402
330
1218
100
AcDbEntity
  8
0
 62
     7
100
AcDbFaceRecord
 10
0.0
 20
0.0
 30
0.0
 70
   128
 71
   114
 72
   115
 73
   108
  0
VERTEX
  5
1403
330
1218
100
AcDbEntity
  8
0
 62
     7
100
AcDbFaceRecord
 10
0.0
 20
0.0
 30
0.0
 70
   128
 71
   107
 72
   113
 73
   112
  0
VERTEX
  5
1404
330
1218
100
AcDbEntity
  8
0
 62
     7
100
AcDbFaceRecord
 10
0.0
 20
0.0
 30
0.0
 70
   128
 71
   116
 72
   108
 73
   115
  0
VERTEX
  5
1405
330
1218
100
AcDbEntity
  8
0
 62
     7
100
AcDbFaceRecord
 10
0.0
 20
0.0
 30
0.0
 70
   128
 71
   117
 72
   115
 73
   118
  0
VERTEX
  5
1406
330
1218
100
AcDbEntity
  8
0
 62
     7
100
AcDbFaceRecord
 10
0.0
 20
0.0
 30
0.0
 70
   128
 71
   117
 72
   116
 73
   115
  0
VERTEX
  5
1407
330
1218
100
AcDbEntity
  8
0
 62
     7
100
AcDbFaceRecord
 10
0.0
 20
0.0
 30
0.0
 70
   128
 71
   119
 72
   118
 73
    39
  0
VERTEX
  5
1408
330
1218
100
AcDbEntity
  8
0
 62
     7
100
AcDbFaceRecord
 10
0.0
 20
0.0
 30
0.0
 70
   128
 71
   119
 72
   117
 73
   118
  0
VERTEX
  5
1409
330
1218
100
AcDbEntity
  8
0
 62
     7
100
AcDbFaceRecord
 10
0.0
 20
0.0
 30
0.0
 70
   128
 71
    41
 72
    40
 73
   120
  0
VERTEX
  5
140A
330
1218
100
AcDbEntity
  8
0
 62
     7
100
AcDbFaceRecord
 10
0.0
 20
0.0
 30
0.0
 70
   128
 71
   121
 72
    96
 73
   122
  0
VERTEX
  5
140B
330
1218
100
AcDbEntity
  8
0
 62
     7
100
AcDbFaceRecord
 10
0.0
 20
0.0
 30
0.0
 70
   128
 71
   121
 72
    94
 73
    96
  0
VERTEX
  5
140C
330
1218
100
AcDbEntity
  8
0
 62
     7
100
AcDbFaceRecord
 10
0.0
 20
0.0
 30
0.0
 70
   128
 71
   123
 72
   105
 73
   104
  0
VERTEX
  5
140D
330
1218
100
AcDbEntity
  8
0
 62
     7
100
AcDbFaceRecord
 10
0.0
 20
0.0
 30
0.0
 70
   128
 71
   124
 72
   104
 73
   106
  0
VERTEX
  5
140E
330
1218
100
AcDbEntity
  8
0
 62
     7
100
AcDbFaceRecord
 10
0.0
 20
0.0
 30
0.0
 70
   128
 71
   124
 72
   125
 73
   104
  0
VERTEX
  5
140F
330
1218
100
AcDbEntity
  8
0
 62
     7
100
AcDbFaceRecord
 10
0.0
 20
0.0
 30
0.0
 70
   128
 71
   126
 72
   104
 73
   125
  0
VERTEX
  5
1410
330
1218
100
AcDbEntity
  8
0
 62
     7
100
AcDbFaceRecord
 10
0.0
 20
0.0
 30
0.0
 70
   128
 71
   126
 72
   123
 73
   104
  0
VERTEX
  5
1411
330
1218
100
AcDbEntity
  8
0
 62
     7
100
AcDbFaceRecord
 10
0.0
 20
0.0
 30
0.0
 70
   128
 71
   127
 72
   123
 73
   128
  0
VERTEX
  5
1412
330
1218
100
AcDbEntity
  8
0
 62
     7
100
AcDbFaceRecord
 10
0.0
 20
0.0
 30
0.0
 70
   128
 71
   127
 72
   105
 73
   123
  0
VERTEX
  5
1413
330
1218
100
AcDbEntity
  8
0
 62
     7
100
AcDbFaceRecord
 10
0.0
 20
0.0
 30
0.0
 70
   128
 71
    85
 72
   124
 73
    88
  0
VERTEX
  5
1414
330
1218
100
AcDbEntity
  8
0
 62
     7
100
AcDbFaceRecord
 10
0.0
 20
0.0
 30
0.0
 70
   128
 71
    85
 72
   125
 73
   124
  0
VERTEX
  5
1415
330
1218
100
AcDbEntity
  8
0
 62
     7
100
AcDbFaceRecord
 10
0.0
 20
0.0
 30
0.0
 70
   128
 71
   129
 72
   107
 73
    83
  0
VERTEX
  5
1416
330
1218
100
AcDbEntity
  8
0
 62
     7
100
AcDbFaceRecord
 10
0.0
 20
0.0
 30
0.0
 70
   128
 71
   129
 72
   113
 73
   107
  0
VERTEX
  5
1417
330
1218
100
AcDbEntity
  8
0
 62
     7
100
AcDbFaceRecord
 10
0.0
 20
0.0
 30
0.0
 70
   128
 71
   129
 72
   116
 73
   113
  0
VERTEX
  5
1418
330
1218
100
AcDbEntity
  8
0
 62
     7
100
AcDbFaceRecord
 10
0.0
 20
0.0
 30
0.0
 70
   128
 71
   129
 72
   108
 73
   116
  0
VERTEX
  5
1419
330
1218
100
AcDbEntity
  8
0
 62
     7
100
AcDbFaceRecord
 10
0.0
 20
0.0
 30
0.0
 70
   128
 71
   129
 72
    84
 73
   108
  0
VERTEX
  5
141A
330
1218
100
AcDbEntity
  8
0
 62
     7
100
AcDbFaceRecord
 10
0.0
 20
0.0
 30
0.0
 70
   128
 71
    84
 72
   129
 73
    83
  0
VERTEX
  5
141B
330
1218
100
AcDbEntity
  8
0
 62
     7
100
AcDbFaceRecord
 10
0.0
 20
0.0
 30
0.0
 70
   128
 71
   130
 72
   125
 73
    85
  0
VERTEX
  5
141C
330
1218
100
AcDbEntity
  8
0
 62
     7
100
AcDbFaceRecord
 10
0.0
 20
0.0
 30
0.0
 70
   128
 71
   130
 72
   126
 73
   125
  0
VERTEX
  5
141D
330
1218
100
AcDbEntity
  8
0
 62
     7
100
AcDbFaceRecord
 10
0.0
 20
0.0
 30
0.0
 70
   128
 71
   130
 72
   112
 73
   126
  0
VERTEX
  5
141E
330
1218
100
AcDbEntity
  8
0
 62
     7
100
AcDbFaceRecord
 10
0.0
 20
0.0
 30
0.0
 70
   128
 71
   130
 72
   107
 73
   112
  0
VERTEX
  5
141F
330
1218
100
AcDbEntity
  8
0
 62
     7
100
AcDbFaceRecord
 10
0.0
 20
0.0
 30
0.0
 70
   128
 71
   130
 72
    86
 73
   107
  0
VERTEX
  5
1420
330
1218
100
AcDbEntity
  8
0
 62
     7
100
AcDbFaceRecord
 10
0.0
 20
0.0
 30
0.0
 70
   128
 71
    86
 72
   130
 73
    85
  0
VERTEX
  5
1421
330
1218
100
AcDbEntity
  8
0
 62
     7
100
AcDbFaceRecord
 10
0.0
 20
0.0
 30
0.0
 70
   128
 71
   131
 72
    98
 73
    87
  0
VERTEX
  5
1422
330
1218
100
AcDbEntity
  8
0
 62
     7
100
AcDbFaceRecord
 10
0.0
 20
0.0
 30
0.0
 70
   128
 71
   131
 72
   103
 73
    98
  0
VERTEX
  5
1423
330
1218
100
AcDbEntity
  8
0
 62
     7
100
AcDbFaceRecord
 10
0.0
 20
0.0
 30
0.0
 70
   128
 71
   131
 72
   106
 73
   103
  0
VERTEX
  5
1424
330
1218
100
AcDbEntity
  8
0
 62
     7
100
AcDbFaceRecord
 10
0.0
 20
0.0
 30
0.0
 70
   128
 71
   131
 72
   124
 73
   106
  0
VERTEX
  5
1425
330
1218
100
AcDbEntity
  8
0
 62
     7
100
AcDbFaceRecord
 10
0.0
 20
0.0
 30
0.0
 70
   128
 71
   131
 72
    88
 73
   124
  0
VERTEX
  5
1426
330
1218
100
AcDbEntity
  8
0
 62
     7
100
AcDbFaceRecord
 10
0.0
 20
0.0
 30
0.0
 70
   128
 71
    88
 72
   131
 73
    87
  0
VERTEX
  5
1427
330
1218
100
AcDbEntity
  8
0
 62
     7
100
AcDbFaceRecord
 10
0.0
 20
0.0
 30
0.0
 70
   128
 71
   132
 72
    92
 73
    89
  0
VERTEX
  5
1428
330
1218
100
AcDbEntity
  8
0
 62
     7
100
AcDbFaceRecord
 10
0.0
 20
0.0
 30
0.0
 70
   128
 71
   132
 72
    97
 73
    92
  0
VERTEX
  5
1429
330
1218
100
AcDbEntity
  8
0
 62
     7
100
AcDbFaceRecord
 10
0.0
 20
0.0
 30
0.0
 70
   128
 71
   132
 72
   102
 73
    97
  0
VERTEX
  5
142A
330
1218
100
AcDbEntity
  8
0
 62
     7
100
AcDbFaceRecord
 10
0.0
 20
0.0
 30
0.0
 70
   128
 71
   132
 72
    98
 73
   102
  0
VERTEX
  5
142B
330
1218
100
AcDbEntity
  8
0
 62
     7
100
AcDbFaceRecord
 10
0.0
 20
0.0
 30
0.0
 70
   128
 71
   132
 72
    90
 73
    98
  0
VERTEX
  5
142C
330
1218
100
AcDbEntity
  8
0
 62
     7
100
AcDbFaceRecord
 10
0.0
 20
0.0
 30
0.0
 70
   128
 71
    90
 72
   132
 73
    89
  0
VERTEX
  5
142D
330
1218
100
AcDbEntity
  8
0
 62
     7
100
AcDbFaceRecord
 10
0.0
 20
0.0
 30
0.0
 70
   128
 71
   133
 72
    93
 73
    35
  0
VERTEX
  5
142E
330
1218
100
AcDbEntity
  8
0
 62
     7
100
AcDbFaceRecord
 10
0.0
 20
0.0
 30
0.0
 70
   128
 71
   133
 72
    95
 73
    93
  0
VERTEX
  5
142F
330
1218
100
AcDbEntity
  8
0
 62
     7
100
AcDbFaceRecord
 10
0.0
 20
0.0
 30
0.0
 70
   128
 71
   133
 72
    92
 73
    95
  0
VERTEX
  5
1430
330
1218
100
AcDbEntity
  8
0
 62
     7
100
AcDbFaceRecord
 10
0.0
 20
0.0
 30
0.0
 70
   128
 71
   133
 72
    91
 73
    92
  0
VERTEX
  5
1431
330
1218
100
AcDbEntity
  8
0
 62
     7
100
AcDbFaceRecord
 10
0.0
 20
0.0
 30
0.0
 70
   128
 71
    36
 72
    91
 73
   133
  0
VERTEX
  5
1432
330
1218
100
AcDbEntity
  8
0
 62
     7
100
AcDbFaceRecord
 10
0.0
 20
0.0
 30
0.0
 70
   128
 71
    36
 72
   133
 73
    35
  0
VERTEX
  5
1433
330
1218
100
AcDbEntity
  8
0
 62
     7
100
AcDbFaceRecord
 10
0.0
 20
0.0
 30
0.0
 70
   128
 71
     2
 72
    34
 73
    93
  0
VERTEX
  5
1434
330
1218
100
AcDbEntity
  8
0
 62
     7
100
AcDbFaceRecord
 10
0.0
 20
0.0
 30
0.0
 70
   128
 71
   134
 72
    94
 73
   121
  0
VERTEX
  5
1435
330
1218
100
AcDbEntity
  8
0
 62
     7
100
AcDbFaceRecord
 10
0.0
 20
0.0
 30
0.0
 70
   128
 71
   134
 72
    93
 73
    94
  0
VERTEX
  5
1436
330
1218
100
AcDbEntity
  8
0
 62
     7
100
AcDbFaceRecord
 10
0.0
 20
0.0
 30
0.0
 70
   128
 71
   134
 72
     2
 73
    93
  0
VERTEX
  5
1437
330
1218
100
AcDbEntity
  8
0
 62
     7
100
AcDbFaceRecord
 10
0.0
 20
0.0
 30
0.0
 70
   128
 71
    38
 72
     2
 73
   134
  0
VERTEX
  5
1438
330
1218
100
AcDbEntity
  8
0
 62
     7
100
AcDbFaceRecord
 10
0.0
 20
0.0
 30
0.0
 70
   128
 71
    38
 72
   134
 73
   121
  0
VERTEX
  5
1439
330
1218
100
AcDbEntity
  8
0
 62
     7
100
AcDbFaceRecord
 10
0.0
 20
0.0
 30
0.0
 70
   128
 71
   135
 72
   100
 73
    99
  0
VERTEX
  5
143A
330
1218
100
AcDbEntity
  8
0
 62
     7
100
AcDbFaceRecord
 10
0.0
 20
0.0
 30
0.0
 70
   128
 71
   135
 72
   102
 73
   100
  0
VERTEX
  5
143B
330
1218
100
AcDbEntity
  8
0
 62
     7
100
AcDbFaceRecord
 10
0.0
 20
0.0
 30
0.0
 70
   128
 71
   135
 72
    97
 73
   102
  0
VERTEX
  5
143C
330
1218
100
AcDbEntity
  8
0
 62
     7
100
AcDbFaceRecord
 10
0.0
 20
0.0
 30
0.0
 70
   128
 71
   135
 72
    96
 73
    97
  0
VERTEX
  5
143D
330
1218
100
AcDbEntity
  8
0
 62
     7
100
AcDbFaceRecord
 10
0.0
 20
0.0
 30
0.0
 70
   128
 71
   135
 72
   122
 73
    96
  0
VERTEX
  5
143E
330
1218
100
AcDbEntity
  8
0
 62
     7
100
AcDbFaceRecord
 10
0.0
 20
0.0
 30
0.0
 70
   128
 71
   122
 72
   135
 73
    99
  0
VERTEX
  5
143F
330
1218
100
AcDbEntity
  8
0
 62
     7
100
AcDbFaceRecord
 10
0.0
 20
0.0
 30
0.0
 70
   128
 71
   136
 72
   105
 73
   127
  0
VERTEX
  5
1440
330
1218
100
AcDbEntity
  8
0
 62
     7
100
AcDbFaceRecord
 10
0.0
 20
0.0
 30
0.0
 70
   128
 71
   136
 72
   106
 73
   105
  0
VERTEX
  5
1441
330
1218
100
AcDbEntity
  8
0
 62
     7
100
AcDbFaceRecord
 10
0.0
 20
0.0
 30
0.0
 70
   128
 71
   136
 72
   103
 73
   106
  0
VERTEX
  5
1442
330
1218
100
AcDbEntity
  8
0
 62
     7
100
AcDbFaceRecord
 10
0.0
 20
0.0
 30
0.0
 70
   128
 71
   136
 72
   100
 73
   103
  0
VERTEX
  5
1443
330
1218
100
AcDbEntity
  8
0
 62
     7
100
AcDbFaceRecord
 10
0.0
 20
0.0
 30
0.0
 70
   128
 71
   136
 72
   101
 73
   100
  0
VERTEX
  5
1444
330
1218
100
AcDbEntity
  8
0
 62
     7
100
AcDbFaceRecord
 10
0.0
 20
0.0
 30
0.0
 70
   128
 71
   101
 72
   136
 73
   127
  0
VERTEX
  5
1445
330
1218
100
AcDbEntity
  8
0
 62
     7
100
AcDbFaceRecord
 10
0.0
 20
0.0
 30
0.0
 70
   128
 71
   137
 72
   110
 73
   109
  0
VERTEX
  5
1446
330
1218
100
AcDbEntity
  8
0
 62
     7
100
AcDbFaceRecord
 10
0.0
 20
0.0
 30
0.0
 70
   128
 71
   137
 72
   112
 73
   110
  0
VERTEX
  5
1447
330
1218
100
AcDbEntity
  8
0
 62
     7
100
AcDbFaceRecord
 10
0.0
 20
0.0
 30
0.0
 70
   128
 71
   137
 72
   126
 73
   112
  0
VERTEX
  5
1448
330
1218
100
AcDbEntity
  8
0
 62
     7
100
AcDbFaceRecord
 10
0.0
 20
0.0
 30
0.0
 70
   128
 71
   137
 72
   123
 73
   126
  0
VERTEX
  5
1449
330
1218
100
AcDbEntity
  8
0
 62
     7
100
AcDbFaceRecord
 10
0.0
 20
0.0
 30
0.0
 70
   128
 71
   137
 72
   128
 73
   123
  0
VERTEX
  5
144A
330
1218
100
AcDbEntity
  8
0
 62
     7
100
AcDbFaceRecord
 10
0.0
 20
0.0
 30
0.0
 70
   128
 71
   128
 72
   137
 73
   109
  0
VERTEX
  5
144B
330
1218
100
AcDbEntity
  8
0
 62
     7
100
AcDbFaceRecord
 10
0.0
 20
0.0
 30
0.0
 70
   128
 71
   138
 72
   117
 73
   119
  0
VERTEX
  5
144C
330
1218
100
AcDbEntity
  8
0
 62
     7
100
AcDbFaceRecord
 10
0.0
 20
0.0
 30
0.0
 70
   128
 71
   138
 72
   116
 73
   117
  0
VERTEX
  5
144D
330
1218
100
AcDbEntity
  8
0
 62
     7
100
AcDbFaceRecord
 10
0.0
 20
0.0
 30
0.0
 70
   128
 71
   138
 72
   113
 73
   116
  0
VERTEX
  5
144E
330
1218
100
AcDbEntity
  8
0
 62
     7
100
AcDbFaceRecord
 10
0.0
 20
0.0
 30
0.0
 70
   128
 71
   138
 72
   110
 73
   113
  0
VERTEX
  5
144F
330
1218
100
AcDbEntity
  8
0
 62
     7
100
AcDbFaceRecord
 10
0.0
 20
0.0
 30
0.0
 70
   128
 71
   138
 72
   111
 73
   110
  0
VERTEX
  5
1450
330
1218
100
AcDbEntity
  8
0
 62
     7
100
AcDbFaceRecord
 10
0.0
 20
0.0
 30
0.0
 70
   128
 71
   111
 72
   138
 73
   119
  0
VERTEX
  5
1451
330
1218
100
AcDbEntity
  8
0
 62
     7
100
AcDbFaceRecord
 10
0.0
 20
0.0
 30
0.0
 70
   128
 71
    37
 72
    39
 73
   118
  0
VERTEX
  5
1452
330
1218
100
AcDbEntity
  8
0
 62
     7
100
AcDbFaceRecord
 10
0.0
 20
0.0
 30
0.0
 70
   128
 71
   139
 72
   120
 73
    40
  0
VERTEX
  5
1453
330
1218
100
AcDbEntity
  8
0
 62
     7
100
AcDbFaceRecord
 10
0.0
 20
0.0
 30
0.0
 70
   128
 71
   139
 72
   114
 73
   120
  0
VERTEX
  5
1454
330
1218
100
AcDbEntity
  8
0
 62
     7
100
AcDbFaceRecord
 10
0.0
 20
0.0
 30
0.0
 70
   128
 71
   139
 72
   115
 73
   114
  0
VERTEX
  5
1455
330
1218
100
AcDbEntity
  8
0
 62
     7
100
AcDbFaceRecord
 10
0.0
 20
0.0
 30
0.0
 70
   128
 71
   139
 72
   118
 73
   115
  0
VERTEX
  5
1456
330
1218
100
AcDbEntity
  8
0
 62
     7
100
AcDbFaceRecord
 10
0.0
 20
0.0
 30
0.0
 70
   128
 71
   139
 72
    37
 73
   118
  0
VERTEX
  5
1457
330
1218
100
AcDbEntity
  8
0
 62
     7
100
AcDbFaceRecord
 10
0.0
 20
0.0
 30
0.0
 70
   128
 71
    42
 72
    37
 73
   139
  0
VERTEX
  5
1458
330
1218
100
AcDbEntity
  8
0
 62
     7
100
AcDbFaceRecord
 10
0.0
 20
0.0
 30
0.0
 70
   128
 71
    42
 72
   139
 73
    40
  0
VERTEX
  5
1459
330
1218
100
AcDbEntity
  8
0
 62
     7
100
AcDbFaceRecord
 10
0.0
 20
0.0
 30
0.0
 70
   128
 71
    82
 72
   114
 73
    81
  0
VERTEX
  5
145A
330
1218
100
AcDbEntity
  8
0
 62
     7
100
AcDbFaceRecord
 10
0.0
 20
0.0
 30
0.0
 70
   128
 71
    82
 72
   120
 73
   114
  0
VERTEX
  5
145B
330
1218
100
AcDbEntity
  8
0
 62
     7
100
AcDbFaceRecord
 10
0.0
 20
0.0
 30
0.0
 70
   128
 71
    82
 72
    41
 73
   120
  0
VERTEX
  5
145C
330
1218
100
AcDbEntity
  8
0
 62
     7
100
AcDbFaceRecord
 10
0.0
 20
0.0
 30
0.0
 70
   128
 71
   140
 72
   141
 73
   142
  0
VERTEX
  5
145D
330
1218
100
AcDbEntity
  8
0
 62
     7
100
AcDbFaceRecord
 10
0.0
 20
0.0
 30
0.0
 70
   128
 71
   143
 72
   144
 73
   141
  0
VERTEX
  5
145E
330
1218
100
AcDbEntity
  8
0
 62
     7
100
AcDbFaceRecord
 10
0.0
 20
0.0
 30
0.0
 70
   128
 71
   145
 72
   146
 73
   147
  0
VERTEX
  5
145F
330
1218
100
AcDbEntity
  8
0
 62
     7
100
AcDbFaceRecord
 10
0.0
 20
0.0
 30
0.0
 70
   128
 71
   148
 72
   149
 73
   150
  0
VERTEX
  5
1460
330
1218
100
AcDbEntity
  8
0
 62
     7
100
AcDbFaceRecord
 10
0.0
 20
0.0
 30
0.0
 70
   128
 71
   151
 72
   152
 73
   153
  0
VERTEX
  5
1461
330
1218
100
AcDbEntity
  8
0
 62
     7
100
AcDbFaceRecord
 10
0.0
 20
0.0
 30
0.0
 70
   128
 71
    44
 72
   154
 73
   155
  0
VERTEX
  5
1462
330
1218
100
AcDbEntity
  8
0
 62
     7
100
AcDbFaceRecord
 10
0.0
 20
0.0
 30
0.0
 70
   128
 71
   122
 72
   144
 73
   143
  0
VERTEX
  5
1463
330
1218
100
AcDbEntity
  8
0
 62
     7
100
AcDbFaceRecord
 10
0.0
 20
0.0
 30
0.0
 70
   128
 71
    12
 72
    33
 73
   156
  0
VERTEX
  5
1464
330
1218
100
AcDbEntity
  8
0
 62
     7
100
AcDbFaceRecord
 10
0.0
 20
0.0
 30
0.0
 70
   128
 71
    32
 72
    44
 73
   155
  0
VERTEX
  5
1465
330
1218
100
AcDbEntity
  8
0
 62
     7
100
AcDbFaceRecord
 10
0.0
 20
0.0
 30
0.0
 70
   128
 71
   157
 72
   152
 73
   158
  0
VERTEX
  5
1466
330
1218
100
AcDbEntity
  8
0
 62
     7
100
AcDbFaceRecord
 10
0.0
 20
0.0
 30
0.0
 70
   128
 71
   146
 72
   159
 73
   160
  0
VERTEX
  5
1467
330
1218
100
AcDbEntity
  8
0
 62
     7
100
AcDbFaceRecord
 10
0.0
 20
0.0
 30
0.0
 70
   128
 71
   101
 72
   159
 73
    99
  0
VERTEX
  5
1468
330
1218
100
AcDbEntity
  8
0
 62
     7
100
AcDbFaceRecord
 10
0.0
 20
0.0
 30
0.0
 70
   128
 71
   101
 72
   160
 73
   159
  0
VERTEX
  5
1469
330
1218
100
AcDbEntity
  8
0
 62
     7
100
AcDbFaceRecord
 10
0.0
 20
0.0
 30
0.0
 70
   128
 71
   121
 72
   122
 73
   143
  0
VERTEX
  5
146A
330
1218
100
AcDbEntity
  8
0
 62
     7
100
AcDbFaceRecord
 10
0.0
 20
0.0
 30
0.0
 70
   128
 71
   161
 72
   141
 73
   140
  0
VERTEX
  5
146B
330
1218
100
AcDbEntity
  8
0
 62
     7
100
AcDbFaceRecord
 10
0.0
 20
0.0
 30
0.0
 70
   128
 71
   161
 72
   143
 73
   141
  0
VERTEX
  5
146C
330
1218
100
AcDbEntity
  8
0
 62
     7
100
AcDbFaceRecord
 10
0.0
 20
0.0
 30
0.0
 70
   128
 71
   109
 72
   157
 73
   158
  0
VERTEX
  5
146D
330
1218
100
AcDbEntity
  8
0
 62
     7
100
AcDbFaceRecord
 10
0.0
 20
0.0
 30
0.0
 70
   128
 71
   128
 72
   109
 73
   158
  0
VERTEX
  5
146E
330
1218
100
AcDbEntity
  8
0
 62
     7
100
AcDbFaceRecord
 10
0.0
 20
0.0
 30
0.0
 70
   128
 71
   119
 72
    39
 73
   162
  0
VERTEX
  5
146F
330
1218
100
AcDbEntity
  8
0
 62
     7
100
AcDbFaceRecord
 10
0.0
 20
0.0
 30
0.0
 70
   128
 71
   149
 72
   163
 73
   164
  0
VERTEX
  5
1470
330
1218
100
AcDbEntity
  8
0
 62
     7
100
AcDbFaceRecord
 10
0.0
 20
0.0
 30
0.0
 70
   128
 71
   127
 72
   163
 73
   160
  0
VERTEX
  5
1471
330
1218
100
AcDbEntity
  8
0
 62
     7
100
AcDbFaceRecord
 10
0.0
 20
0.0
 30
0.0
 70
   128
 71
   127
 72
   164
 73
   163
  0
VERTEX
  5
1472
330
1218
100
AcDbEntity
  8
0
 62
     7
100
AcDbFaceRecord
 10
0.0
 20
0.0
 30
0.0
 70
   128
 71
   111
 72
   119
 73
   162
  0
VERTEX
  5
1473
330
1218
100
AcDbEntity
  8
0
 62
     7
100
AcDbFaceRecord
 10
0.0
 20
0.0
 30
0.0
 70
   128
 71
   157
 72
   111
 73
   162
  0
VERTEX
  5
1474
330
1218
100
AcDbEntity
  8
0
 62
     7
100
AcDbFaceRecord
 10
0.0
 20
0.0
 30
0.0
 70
   128
 71
   111
 72
   157
 73
   109
  0
VERTEX
  5
1475
330
1218
100
AcDbEntity
  8
0
 62
     7
100
AcDbFaceRecord
 10
0.0
 20
0.0
 30
0.0
 70
   128
 71
   164
 72
   128
 73
   158
  0
VERTEX
  5
1476
330
1218
100
AcDbEntity
  8
0
 62
     7
100
AcDbFaceRecord
 10
0.0
 20
0.0
 30
0.0
 70
   128
 71
   128
 72
   164
 73
   127
  0
VERTEX
  5
1477
330
1218
100
AcDbEntity
  8
0
 62
     7
100
AcDbFaceRecord
 10
0.0
 20
0.0
 30
0.0
 70
   128
 71
   127
 72
   160
 73
   101
  0
VERTEX
  5
1478
330
1218
100
AcDbEntity
  8
0
 62
     7
100
AcDbFaceRecord
 10
0.0
 20
0.0
 30
0.0
 70
   128
 71
   144
 72
    99
 73
   159
  0
VERTEX
  5
1479
330
1218
100
AcDbEntity
  8
0
 62
     7
100
AcDbFaceRecord
 10
0.0
 20
0.0
 30
0.0
 70
   128
 71
    99
 72
   144
 73
   122
  0
VERTEX
  5
147A
330
1218
100
AcDbEntity
  8
0
 62
     7
100
AcDbFaceRecord
 10
0.0
 20
0.0
 30
0.0
 70
   128
 71
   165
 72
   156
 73
    33
  0
VERTEX
  5
147B
330
1218
100
AcDbEntity
  8
0
 62
     7
100
AcDbFaceRecord
 10
0.0
 20
0.0
 30
0.0
 70
   128
 71
   165
 72
   161
 73
   156
  0
VERTEX
  5
147C
330
1218
100
AcDbEntity
  8
0
 62
     7
100
AcDbFaceRecord
 10
0.0
 20
0.0
 30
0.0
 70
   128
 71
   165
 72
   143
 73
   161
  0
VERTEX
  5
147D
330
1218
100
AcDbEntity
  8
0
 62
     7
100
AcDbFaceRecord
 10
0.0
 20
0.0
 30
0.0
 70
   128
 71
   165
 72
   121
 73
   143
  0
VERTEX
  5
147E
330
1218
100
AcDbEntity
  8
0
 62
     7
100
AcDbFaceRecord
 10
0.0
 20
0.0
 30
0.0
 70
   128
 71
    38
 72
   121
 73
   165
  0
VERTEX
  5
147F
330
1218
100
AcDbEntity
  8
0
 62
     7
100
AcDbFaceRecord
 10
0.0
 20
0.0
 30
0.0
 70
   128
 71
    38
 72
   165
 73
    33
  0
VERTEX
  5
1480
330
1218
100
AcDbEntity
  8
0
 62
     7
100
AcDbFaceRecord
 10
0.0
 20
0.0
 30
0.0
 70
   128
 71
    13
 72
    12
 73
   156
  0
VERTEX
  5
1481
330
1218
100
AcDbEntity
  8
0
 62
     7
100
AcDbFaceRecord
 10
0.0
 20
0.0
 30
0.0
 70
   128
 71
   166
 72
   156
 73
   161
  0
VERTEX
  5
1482
330
1218
100
AcDbEntity
  8
0
 62
     7
100
AcDbFaceRecord
 10
0.0
 20
0.0
 30
0.0
 70
   128
 71
   166
 72
    13
 73
   156
  0
VERTEX
  5
1483
330
1218
100
AcDbEntity
  8
0
 62
     7
100
AcDbFaceRecord
 10
0.0
 20
0.0
 30
0.0
 70
   128
 71
    31
 72
    13
 73
   166
  0
VERTEX
  5
1484
330
1218
100
AcDbEntity
  8
0
 62
     7
100
AcDbFaceRecord
 10
0.0
 20
0.0
 30
0.0
 70
   128
 71
   166
 72
   161
 73
   140
  0
VERTEX
  5
1485
330
1218
100
AcDbEntity
  8
0
 62
     7
100
AcDbFaceRecord
 10
0.0
 20
0.0
 30
0.0
 70
   128
 71
   167
 72
   146
 73
   145
  0
VERTEX
  5
1486
330
1218
100
AcDbEntity
  8
0
 62
     7
100
AcDbFaceRecord
 10
0.0
 20
0.0
 30
0.0
 70
   128
 71
   167
 72
   159
 73
   146
  0
VERTEX
  5
1487
330
1218
100
AcDbEntity
  8
0
 62
     7
100
AcDbFaceRecord
 10
0.0
 20
0.0
 30
0.0
 70
   128
 71
   167
 72
   144
 73
   159
  0
VERTEX
  5
1488
330
1218
100
AcDbEntity
  8
0
 62
     7
100
AcDbFaceRecord
 10
0.0
 20
0.0
 30
0.0
 70
   128
 71
   167
 72
   141
 73
   144
  0
VERTEX
  5
1489
330
1218
100
AcDbEntity
  8
0
 62
     7
100
AcDbFaceRecord
 10
0.0
 20
0.0
 30
0.0
 70
   128
 71
   167
 72
   142
 73
   141
  0
VERTEX
  5
148A
330
1218
100
AcDbEntity
  8
0
 62
     7
100
AcDbFaceRecord
 10
0.0
 20
0.0
 30
0.0
 70
   128
 71
   142
 72
   167
 73
   145
  0
VERTEX
  5
148B
330
1218
100
AcDbEntity
  8
0
 62
     7
100
AcDbFaceRecord
 10
0.0
 20
0.0
 30
0.0
 70
   128
 71
   168
 72
   149
 73
   148
  0
VERTEX
  5
148C
330
1218
100
AcDbEntity
  8
0
 62
     7
100
AcDbFaceRecord
 10
0.0
 20
0.0
 30
0.0
 70
   128
 71
   168
 72
   163
 73
   149
  0
VERTEX
  5
148D
330
1218
100
AcDbEntity
  8
0
 62
     7
100
AcDbFaceRecord
 10
0.0
 20
0.0
 30
0.0
 70
   128
 71
   168
 72
   160
 73
   163
  0
VERTEX
  5
148E
330
1218
100
AcDbEntity
  8
0
 62
     7
100
AcDbFaceRecord
 10
0.0
 20
0.0
 30
0.0
 70
   128
 71
   168
 72
   146
 73
   160
  0
VERTEX
  5
148F
330
1218
100
AcDbEntity
  8
0
 62
     7
100
AcDbFaceRecord
 10
0.0
 20
0.0
 30
0.0
 70
   128
 71
   168
 72
   147
 73
   146
  0
VERTEX
  5
1490
330
1218
100
AcDbEntity
  8
0
 62
     7
100
AcDbFaceRecord
 10
0.0
 20
0.0
 30
0.0
 70
   128
 71
   147
 72
   168
 73
   148
  0
VERTEX
  5
1491
330
1218
100
AcDbEntity
  8
0
 62
     7
100
AcDbFaceRecord
 10
0.0
 20
0.0
 30
0.0
 70
   128
 71
   169
 72
   152
 73
   151
  0
VERTEX
  5
1492
330
1218
100
AcDbEntity
  8
0
 62
     7
100
AcDbFaceRecord
 10
0.0
 20
0.0
 30
0.0
 70
   128
 71
   169
 72
   158
 73
   152
  0
VERTEX
  5
1493
330
1218
100
AcDbEntity
  8
0
 62
     7
100
AcDbFaceRecord
 10
0.0
 20
0.0
 30
0.0
 70
   128
 71
   169
 72
   164
 73
   158
  0
VERTEX
  5
1494
330
1218
100
AcDbEntity
  8
0
 62
     7
100
AcDbFaceRecord
 10
0.0
 20
0.0
 30
0.0
 70
   128
 71
   169
 72
   149
 73
   164
  0
VERTEX
  5
1495
330
1218
100
AcDbEntity
  8
0
 62
     7
100
AcDbFaceRecord
 10
0.0
 20
0.0
 30
0.0
 70
   128
 71
   169
 72
   150
 73
   149
  0
VERTEX
  5
1496
330
1218
100
AcDbEntity
  8
0
 62
     7
100
AcDbFaceRecord
 10
0.0
 20
0.0
 30
0.0
 70
   128
 71
   150
 72
   169
 73
   151
  0
VERTEX
  5
1497
330
1218
100
AcDbEntity
  8
0
 62
     7
100
AcDbFaceRecord
 10
0.0
 20
0.0
 30
0.0
 70
   128
 71
   170
 72
   155
 73
   154
  0
VERTEX
  5
1498
330
1218
100
AcDbEntity
  8
0
 62
     7
100
AcDbFaceRecord
 10
0.0
 20
0.0
 30
0.0
 70
   128
 71
   170
 72
   162
 73
   155
  0
VERTEX
  5
1499
330
1218
100
AcDbEntity
  8
0
 62
     7
100
AcDbFaceRecord
 10
0.0
 20
0.0
 30
0.0
 70
   128
 71
   170
 72
   157
 73
   162
  0
VERTEX
  5
149A
330
1218
100
AcDbEntity
  8
0
 62
     7
100
AcDbFaceRecord
 10
0.0
 20
0.0
 30
0.0
 70
   128
 71
   170
 72
   152
 73
   157
  0
VERTEX
  5
149B
330
1218
100
AcDbEntity
  8
0
 62
     7
100
AcDbFaceRecord
 10
0.0
 20
0.0
 30
0.0
 70
   128
 71
   170
 72
   153
 73
   152
  0
VERTEX
  5
149C
330
1218
100
AcDbEntity
  8
0
 62
     7
100
AcDbFaceRecord
 10
0.0
 20
0.0
 30
0.0
 70
   128
 71
   153
 72
   170
 73
   154
  0
VERTEX
  5
149D
330
1218
100
AcDbEntity
  8
0
 62
     7
100
AcDbFaceRecord
 10
0.0
 20
0.0
 30
0.0
 70
   128
 71
    45
 72
   154
 73
    44
  0
VERTEX
  5
149E
330
1218
100
AcDbEntity
  8
0
 62
     7
100
AcDbFaceRecord
 10
0.0
 20
0.0
 30
0.0
 70
   128
 71
   171
 72
   162
 73
    39
  0
VERTEX
  5
149F
330
1218
100
AcDbEntity
  8
0
 62
     7
100
AcDbFaceRecord
 10
0.0
 20
0.0
 30
0.0
 70
   128
 71
   171
 72
   155
 73
   162
  0
VERTEX
  5
14A0
330
1218
100
AcDbEntity
  8
0
 62
     7
100
AcDbFaceRecord
 10
0.0
 20
0.0
 30
0.0
 70
   128
 71
   171
 72
    32
 73
   155
  0
VERTEX
  5
14A1
330
1218
100
AcDbEntity
  8
0
 62
     7
100
AcDbFaceRecord
 10
0.0
 20
0.0
 30
0.0
 70
   128
 71
    43
 72
    32
 73
   171
  0
VERTEX
  5
14A2
330
1218
100
AcDbEntity
  8
0
 62
     7
100
AcDbFaceRecord
 10
0.0
 20
0.0
 30
0.0
 70
   128
 71
    43
 72
   171
 73
    39
  0
VERTEX
  5
14A3
330
1218
100
AcDbEntity
  8
0
 62
     7
100
AcDbFaceRecord
 10
0.0
 20
0.0
 30
0.0
 70
   128
 71
   172
 72
   153
 73
   173
  0
VERTEX
  5
14A4
330
1218
100
AcDbEntity
  8
0
 62
     7
100
AcDbFaceRecord
 10
0.0
 20
0.0
 30
0.0
 70
   128
 71
   151
 72
   153
 73
   172
  0
VERTEX
  5
14A5
330
1218
100
AcDbEntity
  8
0
 62
     7
100
AcDbFaceRecord
 10
0.0
 20
0.0
 30
0.0
 70
   128
 71
   174
 72
   150
 73
   175
  0
VERTEX
  5
14A6
330
1218
100
AcDbEntity
  8
0
 62
     7
100
AcDbFaceRecord
 10
0.0
 20
0.0
 30
0.0
 70
   128
 71
   148
 72
   150
 73
   174
  0
VERTEX
  5
14A7
330
1218
100
AcDbEntity
  8
0
 62
     7
100
AcDbFaceRecord
 10
0.0
 20
0.0
 30
0.0
 70
   128
 71
   176
 72
   147
 73
   177
  0
VERTEX
  5
14A8
330
1218
100
AcDbEntity
  8
0
 62
     7
100
AcDbFaceRecord
 10
0.0
 20
0.0
 30
0.0
 70
   128
 71
   145
 72
   147
 73
   176
  0
VERTEX
  5
14A9
330
1218
100
AcDbEntity
  8
0
 62
     7
100
AcDbFaceRecord
 10
0.0
 20
0.0
 30
0.0
 70
   128
 71
   178
 72
   142
 73
   179
  0
VERTEX
  5
14AA
330
1218
100
AcDbEntity
  8
0
 62
     7
100
AcDbFaceRecord
 10
0.0
 20
0.0
 30
0.0
 70
   128
 71
   140
 72
   142
 73
   178
  0
VERTEX
  5
14AB
330
1218
100
AcDbEntity
  8
0
 62
     7
100
AcDbFaceRecord
 10
0.0
 20
0.0
 30
0.0
 70
   128
 71
    11
 72
   166
 73
   180
  0
VERTEX
  5
14AC
330
1218
100
AcDbEntity
  8
0
 62
     7
100
AcDbFaceRecord
 10
0.0
 20
0.0
 30
0.0
 70
   128
 71
    31
 72
   166
 73
    11
  0
VERTEX
  5
14AD
330
1218
100
AcDbEntity
  8
0
 62
     7
100
AcDbFaceRecord
 10
0.0
 20
0.0
 30
0.0
 70
   128
 71
   140
 72
   180
 73
   166
  0
VERTEX
  5
14AE
330
1218
100
AcDbEntity
  8
0
 62
     7
100
AcDbFaceRecord
 10
0.0
 20
0.0
 30
0.0
 70
   128
 71
   180
 72
   140
 73
   178
  0
VERTEX
  5
14AF
330
1218
100
AcDbEntity
  8
0
 62
     7
100
AcDbFaceRecord
 10
0.0
 20
0.0
 30
0.0
 70
   128
 71
   145
 72
   179
 73
   142
  0
VERTEX
  5
14B0
330
1218
100
AcDbEntity
  8
0
 62
     7
100
AcDbFaceRecord
 10
0.0
 20
0.0
 30
0.0
 70
   128
 71
   179
 72
   145
 73
   176
  0
VERTEX
  5
14B1
330
1218
100
AcDbEntity
  8
0
 62
     7
100
AcDbFaceRecord
 10
0.0
 20
0.0
 30
0.0
 70
   128
 71
   148
 72
   177
 73
   147
  0
VERTEX
  5
14B2
330
1218
100
AcDbEntity
  8
0
 62
     7
100
AcDbFaceRecord
 10
0.0
 20
0.0
 30
0.0
 70
   128
 71
   177
 72
   148
 73
   174
  0
VERTEX
  5
14B3
330
1218
100
AcDbEntity
  8
0
 62
     7
100
AcDbFaceRecord
 10
0.0
 20
0.0
 30
0.0
 70
   128
 71
   151
 72
   175
 73
   150
  0
VERTEX
  5
14B4
330
1218
100
AcDbEntity
  8
0
 62
     7
100
AcDbFaceRecord
 10
0.0
 20
0.0
 30
0.0
 70
   128
 71
   175
 72
   151
 73
   172
  0
VERTEX
  5
14B5
330
1218
100
AcDbEntity
  8
0
 62
     7
100
AcDbFaceRecord
 10
0.0
 20
0.0
 30
0.0
 70
   128
 71
   154
 72
   173
 73
   153
  0
VERTEX
  5
14B6
330
1218
100
AcDbEntity
  8
0
 62
     7
100
AcDbFaceRecord
 10
0.0
 20
0.0
 30
0.0
 70
   128
 71
    14
 72
   173
 73
   154
  0
VERTEX
  5
14B7
330
1218
100
AcDbEntity
  8
0
 62
     7
100
AcDbFaceRecord
 10
0.0
 20
0.0
 30
0.0
 70
   128
 71
    45
 72
    14
 73
   154
  0
VERTEX
  5
14B8
330
1218
100
AcDbEntity
  8
0
 62
     7
100
AcDbFaceRecord
 10
0.0
 20
0.0
 30
0.0
 70
   128
 71
    24
 72
   181
 73
   182
  0
VERTEX
  5
14B9
330
1218
100
AcDbEntity
  8
0
 62
     7
100
AcDbFaceRecord
 10
0.0
 20
0.0
 30
0.0
 70
   128
 71
     6
 72
    24
 73
   182
  0
VERTEX
  5
14BA
330
1218
100
AcDbEntity
  8
0
 62
     7
100
AcDbFaceRecord
 10
0.0
 20
0.0
 30
0.0
 70
   128
 71
    26
 72
    28
 73
   183
  0
VERTEX
  5
14BB
330
1218
100
AcDbEntity
  8
0
 62
     7
100
AcDbFaceRecord
 10
0.0
 20
0.0
 30
0.0
 70
   128
 71
    29
 72
    25
 73
   184
  0
VERTEX
  5
14BC
330
1218
100
AcDbEntity
  8
0
 62
     7
100
AcDbFaceRecord
 10
0.0
 20
0.0
 30
0.0
 70
   128
 71
    27
 72
    11
 73
   185
  0
VERTEX
  5
14BD
330
1218
100
AcDbEntity
  8
0
 62
     7
100
AcDbFaceRecord
 10
0.0
 20
0.0
 30
0.0
 70
   128
 71
   186
 72
   187
 73
   188
  0
VERTEX
  5
14BE
330
1218
100
AcDbEntity
  8
0
 62
     7
100
AcDbFaceRecord
 10
0.0
 20
0.0
 30
0.0
 70
   128
 71
   184
 72
   188
 73
   187
  0
VERTEX
  5
14BF
330
1218
100
AcDbEntity
  8
0
 62
     7
100
AcDbFaceRecord
 10
0.0
 20
0.0
 30
0.0
 70
   128
 71
   189
 72
   190
 73
   191
  0
VERTEX
  5
14C0
330
1218
100
AcDbEntity
  8
0
 62
     7
100
AcDbFaceRecord
 10
0.0
 20
0.0
 30
0.0
 70
   128
 71
   183
 72
   191
 73
   190
  0
VERTEX
  5
14C1
330
1218
100
AcDbEntity
  8
0
 62
     7
100
AcDbFaceRecord
 10
0.0
 20
0.0
 30
0.0
 70
   128
 71
   180
 72
   178
 73
   192
  0
VERTEX
  5
14C2
330
1218
100
AcDbEntity
  8
0
 62
     7
100
AcDbFaceRecord
 10
0.0
 20
0.0
 30
0.0
 70
   128
 71
   193
 72
   194
 73
   195
  0
VERTEX
  5
14C3
330
1218
100
AcDbEntity
  8
0
 62
     7
100
AcDbFaceRecord
 10
0.0
 20
0.0
 30
0.0
 70
   128
 71
   196
 72
   186
 73
   188
  0
VERTEX
  5
14C4
330
1218
100
AcDbEntity
  8
0
 62
     7
100
AcDbFaceRecord
 10
0.0
 20
0.0
 30
0.0
 70
   128
 71
   197
 72
   196
 73
   188
  0
VERTEX
  5
14C5
330
1218
100
AcDbEntity
  8
0
 62
     7
100
AcDbFaceRecord
 10
0.0
 20
0.0
 30
0.0
 70
   128
 71
   197
 72
   198
 73
   196
  0
VERTEX
  5
14C6
330
1218
100
AcDbEntity
  8
0
 62
     7
100
AcDbFaceRecord
 10
0.0
 20
0.0
 30
0.0
 70
   128
 71
   199
 72
   186
 73
   196
  0
VERTEX
  5
14C7
330
1218
100
AcDbEntity
  8
0
 62
     7
100
AcDbFaceRecord
 10
0.0
 20
0.0
 30
0.0
 70
   128
 71
   200
 72
   187
 73
   186
  0
VERTEX
  5
14C8
330
1218
100
AcDbEntity
  8
0
 62
     7
100
AcDbFaceRecord
 10
0.0
 20
0.0
 30
0.0
 70
   128
 71
   200
 72
   191
 73
   187
  0
VERTEX
  5
14C9
330
1218
100
AcDbEntity
  8
0
 62
     7
100
AcDbFaceRecord
 10
0.0
 20
0.0
 30
0.0
 70
   128
 71
   200
 72
   189
 73
   191
  0
VERTEX
  5
14CA
330
1218
100
AcDbEntity
  8
0
 62
     7
100
AcDbFaceRecord
 10
0.0
 20
0.0
 30
0.0
 70
   128
 71
   194
 72
   190
 73
   189
  0
VERTEX
  5
14CB
330
1218
100
AcDbEntity
  8
0
 62
     7
100
AcDbFaceRecord
 10
0.0
 20
0.0
 30
0.0
 70
   128
 71
   201
 72
   189
 73
   200
  0
VERTEX
  5
14CC
330
1218
100
AcDbEntity
  8
0
 62
     7
100
AcDbFaceRecord
 10
0.0
 20
0.0
 30
0.0
 70
   128
 71
   202
 72
   196
 73
   198
  0
VERTEX
  5
14CD
330
1218
100
AcDbEntity
  8
0
 62
     7
100
AcDbFaceRecord
 10
0.0
 20
0.0
 30
0.0
 70
   128
 71
   202
 72
   199
 73
   196
  0
VERTEX
  5
14CE
330
1218
100
AcDbEntity
  8
0
 62
     7
100
AcDbFaceRecord
 10
0.0
 20
0.0
 30
0.0
 70
   128
 71
   203
 72
   199
 73
   202
  0
VERTEX
  5
14CF
330
1218
100
AcDbEntity
  8
0
 62
     7
100
AcDbFaceRecord
 10
0.0
 20
0.0
 30
0.0
 70
   128
 71
   204
 72
   186
 73
   199
  0
VERTEX
  5
14D0
330
1218
100
AcDbEntity
  8
0
 62
     7
100
AcDbFaceRecord
 10
0.0
 20
0.0
 30
0.0
 70
   128
 71
   204
 72
   200
 73
   186
  0
VERTEX
  5
14D1
330
1218
100
AcDbEntity
  8
0
 62
     7
100
AcDbFaceRecord
 10
0.0
 20
0.0
 30
0.0
 70
   128
 71
   204
 72
   201
 73
   200
  0
VERTEX
  5
14D2
330
1218
100
AcDbEntity
  8
0
 62
     7
100
AcDbFaceRecord
 10
0.0
 20
0.0
 30
0.0
 70
   128
 71
   205
 72
   201
 73
   204
  0
VERTEX
  5
14D3
330
1218
100
AcDbEntity
  8
0
 62
     7
100
AcDbFaceRecord
 10
0.0
 20
0.0
 30
0.0
 70
   128
 71
   179
 72
   176
 73
   206
  0
VERTEX
  5
14D4
330
1218
100
AcDbEntity
  8
0
 62
     7
100
AcDbFaceRecord
 10
0.0
 20
0.0
 30
0.0
 70
   128
 71
   207
 72
   208
 73
   209
  0
VERTEX
  5
14D5
330
1218
100
AcDbEntity
  8
0
 62
     7
100
AcDbFaceRecord
 10
0.0
 20
0.0
 30
0.0
 70
   128
 71
   210
 72
   206
 73
   176
  0
VERTEX
  5
14D6
330
1218
100
AcDbEntity
  8
0
 62
     7
100
AcDbFaceRecord
 10
0.0
 20
0.0
 30
0.0
 70
   128
 71
   210
 72
   211
 73
   206
  0
VERTEX
  5
14D7
330
1218
100
AcDbEntity
  8
0
 62
     7
100
AcDbFaceRecord
 10
0.0
 20
0.0
 30
0.0
 70
   128
 71
   212
 72
   203
 73
   202
  0
VERTEX
  5
14D8
330
1218
100
AcDbEntity
  8
0
 62
     7
100
AcDbFaceRecord
 10
0.0
 20
0.0
 30
0.0
 70
   128
 71
   213
 72
   198
 73
   192
  0
VERTEX
  5
14D9
330
1218
100
AcDbEntity
  8
0
 62
     7
100
AcDbFaceRecord
 10
0.0
 20
0.0
 30
0.0
 70
   128
 71
   213
 72
   202
 73
   198
  0
VERTEX
  5
14DA
330
1218
100
AcDbEntity
  8
0
 62
     7
100
AcDbFaceRecord
 10
0.0
 20
0.0
 30
0.0
 70
   128
 71
   213
 72
   212
 73
   202
  0
VERTEX
  5
14DB
330
1218
100
AcDbEntity
  8
0
 62
     7
100
AcDbFaceRecord
 10
0.0
 20
0.0
 30
0.0
 70
   128
 71
   213
 72
   214
 73
   212
  0
VERTEX
  5
14DC
330
1218
100
AcDbEntity
  8
0
 62
     7
100
AcDbFaceRecord
 10
0.0
 20
0.0
 30
0.0
 70
   128
 71
   215
 72
   203
 73
   212
  0
VERTEX
  5
14DD
330
1218
100
AcDbEntity
  8
0
 62
     7
100
AcDbFaceRecord
 10
0.0
 20
0.0
 30
0.0
 70
   128
 71
   216
 72
   199
 73
   203
  0
VERTEX
  5
14DE
330
1218
100
AcDbEntity
  8
0
 62
     7
100
AcDbFaceRecord
 10
0.0
 20
0.0
 30
0.0
 70
   128
 71
   216
 72
   204
 73
   199
  0
VERTEX
  5
14DF
330
1218
100
AcDbEntity
  8
0
 62
     7
100
AcDbFaceRecord
 10
0.0
 20
0.0
 30
0.0
 70
   128
 71
   216
 72
   205
 73
   204
  0
VERTEX
  5
14E0
330
1218
100
AcDbEntity
  8
0
 62
     7
100
AcDbFaceRecord
 10
0.0
 20
0.0
 30
0.0
 70
   128
 71
   208
 72
   201
 73
   205
  0
VERTEX
  5
14E1
330
1218
100
AcDbEntity
  8
0
 62
     7
100
AcDbFaceRecord
 10
0.0
 20
0.0
 30
0.0
 70
   128
 71
   217
 72
   205
 73
   216
  0
VERTEX
  5
14E2
330
1218
100
AcDbEntity
  8
0
 62
     7
100
AcDbFaceRecord
 10
0.0
 20
0.0
 30
0.0
 70
   128
 71
   214
 72
   206
 73
   211
  0
VERTEX
  5
14E3
330
1218
100
AcDbEntity
  8
0
 62
     7
100
AcDbFaceRecord
 10
0.0
 20
0.0
 30
0.0
 70
   128
 71
   218
 72
   211
 73
   210
  0
VERTEX
  5
14E4
330
1218
100
AcDbEntity
  8
0
 62
     7
100
AcDbFaceRecord
 10
0.0
 20
0.0
 30
0.0
 70
   128
 71
   219
 72
   214
 73
   211
  0
VERTEX
  5
14E5
330
1218
100
AcDbEntity
  8
0
 62
     7
100
AcDbFaceRecord
 10
0.0
 20
0.0
 30
0.0
 70
   128
 71
   219
 72
   212
 73
   214
  0
VERTEX
  5
14E6
330
1218
100
AcDbEntity
  8
0
 62
     7
100
AcDbFaceRecord
 10
0.0
 20
0.0
 30
0.0
 70
   128
 71
   219
 72
   215
 73
   212
  0
VERTEX
  5
14E7
330
1218
100
AcDbEntity
  8
0
 62
     7
100
AcDbFaceRecord
 10
0.0
 20
0.0
 30
0.0
 70
   128
 71
   220
 72
   215
 73
   219
  0
VERTEX
  5
14E8
330
1218
100
AcDbEntity
  8
0
 62
     7
100
AcDbFaceRecord
 10
0.0
 20
0.0
 30
0.0
 70
   128
 71
   221
 72
   203
 73
   215
  0
VERTEX
  5
14E9
330
1218
100
AcDbEntity
  8
0
 62
     7
100
AcDbFaceRecord
 10
0.0
 20
0.0
 30
0.0
 70
   128
 71
   221
 72
   216
 73
   203
  0
VERTEX
  5
14EA
330
1218
100
AcDbEntity
  8
0
 62
     7
100
AcDbFaceRecord
 10
0.0
 20
0.0
 30
0.0
 70
   128
 71
   221
 72
   217
 73
   216
  0
VERTEX
  5
14EB
330
1218
100
AcDbEntity
  8
0
 62
     7
100
AcDbFaceRecord
 10
0.0
 20
0.0
 30
0.0
 70
   128
 71
   222
 72
   217
 73
   221
  0
VERTEX
  5
14EC
330
1218
100
AcDbEntity
  8
0
 62
     7
100
AcDbFaceRecord
 10
0.0
 20
0.0
 30
0.0
 70
   128
 71
   223
 72
   224
 73
   218
  0
VERTEX
  5
14ED
330
1218
100
AcDbEntity
  8
0
 62
     7
100
AcDbFaceRecord
 10
0.0
 20
0.0
 30
0.0
 70
   128
 71
   174
 72
   175
 73
   225
  0
VERTEX
  5
14EE
330
1218
100
AcDbEntity
  8
0
 62
     7
100
AcDbFaceRecord
 10
0.0
 20
0.0
 30
0.0
 70
   128
 71
   224
 72
   226
 73
   227
  0
VERTEX
  5
14EF
330
1218
100
AcDbEntity
  8
0
 62
     7
100
AcDbFaceRecord
 10
0.0
 20
0.0
 30
0.0
 70
   128
 71
   228
 72
   227
 73
   226
  0
VERTEX
  5
14F0
330
1218
100
AcDbEntity
  8
0
 62
     7
100
AcDbFaceRecord
 10
0.0
 20
0.0
 30
0.0
 70
   128
 71
   228
 72
   229
 73
   227
  0
VERTEX
  5
14F1
330
1218
100
AcDbEntity
  8
0
 62
     7
100
AcDbFaceRecord
 10
0.0
 20
0.0
 30
0.0
 70
   128
 71
   230
 72
   231
 73
   232
  0
VERTEX
  5
14F2
330
1218
100
AcDbEntity
  8
0
 62
     7
100
AcDbFaceRecord
 10
0.0
 20
0.0
 30
0.0
 70
   128
 71
   233
 72
   230
 73
   232
  0
VERTEX
  5
14F3
330
1218
100
AcDbEntity
  8
0
 62
     7
100
AcDbFaceRecord
 10
0.0
 20
0.0
 30
0.0
 70
   128
 71
   233
 72
   234
 73
   230
  0
VERTEX
  5
14F4
330
1218
100
AcDbEntity
  8
0
 62
     7
100
AcDbFaceRecord
 10
0.0
 20
0.0
 30
0.0
 70
   128
 71
   235
 72
   231
 73
   230
  0
VERTEX
  5
14F5
330
1218
100
AcDbEntity
  8
0
 62
     7
100
AcDbFaceRecord
 10
0.0
 20
0.0
 30
0.0
 70
   128
 71
   236
 72
   237
 73
   238
  0
VERTEX
  5
14F6
330
1218
100
AcDbEntity
  8
0
 62
     7
100
AcDbFaceRecord
 10
0.0
 20
0.0
 30
0.0
 70
   128
 71
   234
 72
   227
 73
   229
  0
VERTEX
  5
14F7
330
1218
100
AcDbEntity
  8
0
 62
     7
100
AcDbFaceRecord
 10
0.0
 20
0.0
 30
0.0
 70
   128
 71
   239
 72
   229
 73
   228
  0
VERTEX
  5
14F8
330
1218
100
AcDbEntity
  8
0
 62
     7
100
AcDbFaceRecord
 10
0.0
 20
0.0
 30
0.0
 70
   128
 71
   240
 72
   234
 73
   229
  0
VERTEX
  5
14F9
330
1218
100
AcDbEntity
  8
0
 62
     7
100
AcDbFaceRecord
 10
0.0
 20
0.0
 30
0.0
 70
   128
 71
   240
 72
   230
 73
   234
  0
VERTEX
  5
14FA
330
1218
100
AcDbEntity
  8
0
 62
     7
100
AcDbFaceRecord
 10
0.0
 20
0.0
 30
0.0
 70
   128
 71
   240
 72
   235
 73
   230
  0
VERTEX
  5
14FB
330
1218
100
AcDbEntity
  8
0
 62
     7
100
AcDbFaceRecord
 10
0.0
 20
0.0
 30
0.0
 70
   128
 71
   237
 72
   231
 73
   235
  0
VERTEX
  5
14FC
330
1218
100
AcDbEntity
  8
0
 62
     7
100
AcDbFaceRecord
 10
0.0
 20
0.0
 30
0.0
 70
   128
 71
   241
 72
   235
 73
   240
  0
VERTEX
  5
14FD
330
1218
100
AcDbEntity
  8
0
 62
     7
100
AcDbFaceRecord
 10
0.0
 20
0.0
 30
0.0
 70
   128
 71
   172
 72
   173
 73
   242
  0
VERTEX
  5
14FE
330
1218
100
AcDbEntity
  8
0
 62
     7
100
AcDbFaceRecord
 10
0.0
 20
0.0
 30
0.0
 70
   128
 71
   243
 72
   242
 73
   244
  0
VERTEX
  5
14FF
330
1218
100
AcDbEntity
  8
0
 62
     7
100
AcDbFaceRecord
 10
0.0
 20
0.0
 30
0.0
 70
   128
 71
   245
 72
   239
 73
   228
  0
VERTEX
  5
1500
330
1218
100
AcDbEntity
  8
0
 62
     7
100
AcDbFaceRecord
 10
0.0
 20
0.0
 30
0.0
 70
   128
 71
   246
 72
   226
 73
   225
  0
VERTEX
  5
1501
330
1218
100
AcDbEntity
  8
0
 62
     7
100
AcDbFaceRecord
 10
0.0
 20
0.0
 30
0.0
 70
   128
 71
   246
 72
   228
 73
   226
  0
VERTEX
  5
1502
330
1218
100
AcDbEntity
  8
0
 62
     7
100
AcDbFaceRecord
 10
0.0
 20
0.0
 30
0.0
 70
   128
 71
   246
 72
   245
 73
   228
  0
VERTEX
  5
1503
330
1218
100
AcDbEntity
  8
0
 62
     7
100
AcDbFaceRecord
 10
0.0
 20
0.0
 30
0.0
 70
   128
 71
   246
 72
   243
 73
   245
  0
VERTEX
  5
1504
330
1218
100
AcDbEntity
  8
0
 62
     7
100
AcDbFaceRecord
 10
0.0
 20
0.0
 30
0.0
 70
   128
 71
   247
 72
   239
 73
   245
  0
VERTEX
  5
1505
330
1218
100
AcDbEntity
  8
0
 62
     7
100
AcDbFaceRecord
 10
0.0
 20
0.0
 30
0.0
 70
   128
 71
   248
 72
   229
 73
   239
  0
VERTEX
  5
1506
330
1218
100
AcDbEntity
  8
0
 62
     7
100
AcDbFaceRecord
 10
0.0
 20
0.0
 30
0.0
 70
   128
 71
   248
 72
   240
 73
   229
  0
VERTEX
  5
1507
330
1218
100
AcDbEntity
  8
0
 62
     7
100
AcDbFaceRecord
 10
0.0
 20
0.0
 30
0.0
 70
   128
 71
   248
 72
   241
 73
   240
  0
VERTEX
  5
1508
330
1218
100
AcDbEntity
  8
0
 62
     7
100
AcDbFaceRecord
 10
0.0
 20
0.0
 30
0.0
 70
   128
 71
   249
 72
   241
 73
   248
  0
VERTEX
  5
1509
330
1218
100
AcDbEntity
  8
0
 62
     7
100
AcDbFaceRecord
 10
0.0
 20
0.0
 30
0.0
 70
   128
 71
   249
 72
   250
 73
   241
  0
VERTEX
  5
150A
330
1218
100
AcDbEntity
  8
0
 62
     7
100
AcDbFaceRecord
 10
0.0
 20
0.0
 30
0.0
 70
   128
 71
   251
 72
   242
 73
   173
  0
VERTEX
  5
150B
330
1218
100
AcDbEntity
  8
0
 62
     7
100
AcDbFaceRecord
 10
0.0
 20
0.0
 30
0.0
 70
   128
 71
   251
 72
   244
 73
   242
  0
VERTEX
  5
150C
330
1218
100
AcDbEntity
  8
0
 62
     7
100
AcDbFaceRecord
 10
0.0
 20
0.0
 30
0.0
 70
   128
 71
   251
 72
   252
 73
   244
  0
VERTEX
  5
150D
330
1218
100
AcDbEntity
  8
0
 62
     7
100
AcDbFaceRecord
 10
0.0
 20
0.0
 30
0.0
 70
   128
 71
    46
 72
    48
 73
   252
  0
VERTEX
  5
150E
330
1218
100
AcDbEntity
  8
0
 62
     7
100
AcDbFaceRecord
 10
0.0
 20
0.0
 30
0.0
 70
   128
 71
   253
 72
   243
 73
   244
  0
VERTEX
  5
150F
330
1218
100
AcDbEntity
  8
0
 62
     7
100
AcDbFaceRecord
 10
0.0
 20
0.0
 30
0.0
 70
   128
 71
   253
 72
   245
 73
   243
  0
VERTEX
  5
1510
330
1218
100
AcDbEntity
  8
0
 62
     7
100
AcDbFaceRecord
 10
0.0
 20
0.0
 30
0.0
 70
   128
 71
   253
 72
   247
 73
   245
  0
VERTEX
  5
1511
330
1218
100
AcDbEntity
  8
0
 62
     7
100
AcDbFaceRecord
 10
0.0
 20
0.0
 30
0.0
 70
   128
 71
   253
 72
   254
 73
   247
  0
VERTEX
  5
1512
330
1218
100
AcDbEntity
  8
0
 62
     7
100
AcDbFaceRecord
 10
0.0
 20
0.0
 30
0.0
 70
   128
 71
    52
 72
    51
 73
   254
  0
VERTEX
  5
1513
330
1218
100
AcDbEntity
  8
0
 62
     7
100
AcDbFaceRecord
 10
0.0
 20
0.0
 30
0.0
 70
   128
 71
   255
 72
   239
 73
   247
  0
VERTEX
  5
1514
330
1218
100
AcDbEntity
  8
0
 62
     7
100
AcDbFaceRecord
 10
0.0
 20
0.0
 30
0.0
 70
   128
 71
   255
 72
   248
 73
   239
  0
VERTEX
  5
1515
330
1218
100
AcDbEntity
  8
0
 62
     7
100
AcDbFaceRecord
 10
0.0
 20
0.0
 30
0.0
 70
   128
 71
   255
 72
   249
 73
   248
  0
VERTEX
  5
1516
330
1218
100
AcDbEntity
  8
0
 62
     7
100
AcDbFaceRecord
 10
0.0
 20
0.0
 30
0.0
 70
   128
 71
   255
 72
   256
 73
   249
  0
VERTEX
  5
1517
330
1218
100
AcDbEntity
  8
0
 62
     7
100
AcDbFaceRecord
 10
0.0
 20
0.0
 30
0.0
 70
   128
 71
    47
 72
    49
 73
   256
  0
VERTEX
  5
1518
330
1218
100
AcDbEntity
  8
0
 62
     7
100
AcDbFaceRecord
 10
0.0
 20
0.0
 30
0.0
 70
   128
 71
   250
 72
     5
 73
   257
  0
VERTEX
  5
1519
330
1218
100
AcDbEntity
  8
0
 62
     7
100
AcDbFaceRecord
 10
0.0
 20
0.0
 30
0.0
 70
   128
 71
   223
 72
   218
 73
   210
  0
VERTEX
  5
151A
330
1218
100
AcDbEntity
  8
0
 62
     7
100
AcDbFaceRecord
 10
0.0
 20
0.0
 30
0.0
 70
   128
 71
   258
 72
   234
 73
   233
  0
VERTEX
  5
151B
330
1218
100
AcDbEntity
  8
0
 62
     7
100
AcDbFaceRecord
 10
0.0
 20
0.0
 30
0.0
 70
   128
 71
   258
 72
   227
 73
   234
  0
VERTEX
  5
151C
330
1218
100
AcDbEntity
  8
0
 62
     7
100
AcDbFaceRecord
 10
0.0
 20
0.0
 30
0.0
 70
   128
 71
   258
 72
   224
 73
   227
  0
VERTEX
  5
151D
330
1218
100
AcDbEntity
  8
0
 62
     7
100
AcDbFaceRecord
 10
0.0
 20
0.0
 30
0.0
 70
   128
 71
   258
 72
   218
 73
   224
  0
VERTEX
  5
151E
330
1218
100
AcDbEntity
  8
0
 62
     7
100
AcDbFaceRecord
 10
0.0
 20
0.0
 30
0.0
 70
   128
 71
   259
 72
   211
 73
   218
  0
VERTEX
  5
151F
330
1218
100
AcDbEntity
  8
0
 62
     7
100
AcDbFaceRecord
 10
0.0
 20
0.0
 30
0.0
 70
   128
 71
   259
 72
   219
 73
   211
  0
VERTEX
  5
1520
330
1218
100
AcDbEntity
  8
0
 62
     7
100
AcDbFaceRecord
 10
0.0
 20
0.0
 30
0.0
 70
   128
 71
   259
 72
   220
 73
   219
  0
VERTEX
  5
1521
330
1218
100
AcDbEntity
  8
0
 62
     7
100
AcDbFaceRecord
 10
0.0
 20
0.0
 30
0.0
 70
   128
 71
   259
 72
   258
 73
   233
  0
VERTEX
  5
1522
330
1218
100
AcDbEntity
  8
0
 62
     7
100
AcDbFaceRecord
 10
0.0
 20
0.0
 30
0.0
 70
   128
 71
   259
 72
   218
 73
   258
  0
VERTEX
  5
1523
330
1218
100
AcDbEntity
  8
0
 62
     7
100
AcDbFaceRecord
 10
0.0
 20
0.0
 30
0.0
 70
   128
 71
   220
 72
   233
 73
   232
  0
VERTEX
  5
1524
330
1218
100
AcDbEntity
  8
0
 62
     7
100
AcDbFaceRecord
 10
0.0
 20
0.0
 30
0.0
 70
   128
 71
   220
 72
   259
 73
   233
  0
VERTEX
  5
1525
330
1218
100
AcDbEntity
  8
0
 62
     7
100
AcDbFaceRecord
 10
0.0
 20
0.0
 30
0.0
 70
   128
 71
   260
 72
   215
 73
   220
  0
VERTEX
  5
1526
330
1218
100
AcDbEntity
  8
0
 62
     7
100
AcDbFaceRecord
 10
0.0
 20
0.0
 30
0.0
 70
   128
 71
   260
 72
   221
 73
   215
  0
VERTEX
  5
1527
330
1218
100
AcDbEntity
  8
0
 62
     7
100
AcDbFaceRecord
 10
0.0
 20
0.0
 30
0.0
 70
   128
 71
   260
 72
   222
 73
   221
  0
VERTEX
  5
1528
330
1218
100
AcDbEntity
  8
0
 62
     7
100
AcDbFaceRecord
 10
0.0
 20
0.0
 30
0.0
 70
   128
 71
   260
 72
   220
 73
   232
  0
VERTEX
  5
1529
330
1218
100
AcDbEntity
  8
0
 62
     7
100
AcDbFaceRecord
 10
0.0
 20
0.0
 30
0.0
 70
   128
 71
   261
 72
   222
 73
   262
  0
VERTEX
  5
152A
330
1218
100
AcDbEntity
  8
0
 62
     7
100
AcDbFaceRecord
 10
0.0
 20
0.0
 30
0.0
 70
   128
 71
   261
 72
   217
 73
   222
  0
VERTEX
  5
152B
330
1218
100
AcDbEntity
  8
0
 62
     7
100
AcDbFaceRecord
 10
0.0
 20
0.0
 30
0.0
 70
   128
 71
   263
 72
   232
 73
   231
  0
VERTEX
  5
152C
330
1218
100
AcDbEntity
  8
0
 62
     7
100
AcDbFaceRecord
 10
0.0
 20
0.0
 30
0.0
 70
   128
 71
   263
 72
   260
 73
   232
  0
VERTEX
  5
152D
330
1218
100
AcDbEntity
  8
0
 62
     7
100
AcDbFaceRecord
 10
0.0
 20
0.0
 30
0.0
 70
   128
 71
   263
 72
   222
 73
   260
  0
VERTEX
  5
152E
330
1218
100
AcDbEntity
  8
0
 62
     7
100
AcDbFaceRecord
 10
0.0
 20
0.0
 30
0.0
 70
   128
 71
   263
 72
   262
 73
   222
  0
VERTEX
  5
152F
330
1218
100
AcDbEntity
  8
0
 62
     7
100
AcDbFaceRecord
 10
0.0
 20
0.0
 30
0.0
 70
   128
 71
   264
 72
   262
 73
   265
  0
VERTEX
  5
1530
330
1218
100
AcDbEntity
  8
0
 62
     7
100
AcDbFaceRecord
 10
0.0
 20
0.0
 30
0.0
 70
   128
 71
   264
 72
   261
 73
   262
  0
VERTEX
  5
1531
330
1218
100
AcDbEntity
  8
0
 62
     7
100
AcDbFaceRecord
 10
0.0
 20
0.0
 30
0.0
 70
   128
 71
   177
 72
   223
 73
   210
  0
VERTEX
  5
1532
330
1218
100
AcDbEntity
  8
0
 62
     7
100
AcDbFaceRecord
 10
0.0
 20
0.0
 30
0.0
 70
   128
 71
    14
 72
   251
 73
   173
  0
VERTEX
  5
1533
330
1218
100
AcDbEntity
  8
0
 62
     7
100
AcDbFaceRecord
 10
0.0
 20
0.0
 30
0.0
 70
   128
 71
   266
 72
   225
 73
   175
  0
VERTEX
  5
1534
330
1218
100
AcDbEntity
  8
0
 62
     7
100
AcDbFaceRecord
 10
0.0
 20
0.0
 30
0.0
 70
   128
 71
   266
 72
   246
 73
   225
  0
VERTEX
  5
1535
330
1218
100
AcDbEntity
  8
0
 62
     7
100
AcDbFaceRecord
 10
0.0
 20
0.0
 30
0.0
 70
   128
 71
   266
 72
   243
 73
   246
  0
VERTEX
  5
1536
330
1218
100
AcDbEntity
  8
0
 62
     7
100
AcDbFaceRecord
 10
0.0
 20
0.0
 30
0.0
 70
   128
 71
   266
 72
   242
 73
   243
  0
VERTEX
  5
1537
330
1218
100
AcDbEntity
  8
0
 62
     7
100
AcDbFaceRecord
 10
0.0
 20
0.0
 30
0.0
 70
   128
 71
   266
 72
   172
 73
   242
  0
VERTEX
  5
1538
330
1218
100
AcDbEntity
  8
0
 62
     7
100
AcDbFaceRecord
 10
0.0
 20
0.0
 30
0.0
 70
   128
 71
   172
 72
   266
 73
   175
  0
VERTEX
  5
1539
330
1218
100
AcDbEntity
  8
0
 62
     7
100
AcDbFaceRecord
 10
0.0
 20
0.0
 30
0.0
 70
   128
 71
   267
 72
   223
 73
   177
  0
VERTEX
  5
153A
330
1218
100
AcDbEntity
  8
0
 62
     7
100
AcDbFaceRecord
 10
0.0
 20
0.0
 30
0.0
 70
   128
 71
   267
 72
   224
 73
   223
  0
VERTEX
  5
153B
330
1218
100
AcDbEntity
  8
0
 62
     7
100
AcDbFaceRecord
 10
0.0
 20
0.0
 30
0.0
 70
   128
 71
   267
 72
   226
 73
   224
  0
VERTEX
  5
153C
330
1218
100
AcDbEntity
  8
0
 62
     7
100
AcDbFaceRecord
 10
0.0
 20
0.0
 30
0.0
 70
   128
 71
   267
 72
   225
 73
   226
  0
VERTEX
  5
153D
330
1218
100
AcDbEntity
  8
0
 62
     7
100
AcDbFaceRecord
 10
0.0
 20
0.0
 30
0.0
 70
   128
 71
   267
 72
   174
 73
   225
  0
VERTEX
  5
153E
330
1218
100
AcDbEntity
  8
0
 62
     7
100
AcDbFaceRecord
 10
0.0
 20
0.0
 30
0.0
 70
   128
 71
   174
 72
   267
 73
   177
  0
VERTEX
  5
153F
330
1218
100
AcDbEntity
  8
0
 62
     7
100
AcDbFaceRecord
 10
0.0
 20
0.0
 30
0.0
 70
   128
 71
   177
 72
   210
 73
   176
  0
VERTEX
  5
1540
330
1218
100
AcDbEntity
  8
0
 62
     7
100
AcDbFaceRecord
 10
0.0
 20
0.0
 30
0.0
 70
   128
 71
   268
 72
   192
 73
   178
  0
VERTEX
  5
1541
330
1218
100
AcDbEntity
  8
0
 62
     7
100
AcDbFaceRecord
 10
0.0
 20
0.0
 30
0.0
 70
   128
 71
   268
 72
   213
 73
   192
  0
VERTEX
  5
1542
330
1218
100
AcDbEntity
  8
0
 62
     7
100
AcDbFaceRecord
 10
0.0
 20
0.0
 30
0.0
 70
   128
 71
   268
 72
   214
 73
   213
  0
VERTEX
  5
1543
330
1218
100
AcDbEntity
  8
0
 62
     7
100
AcDbFaceRecord
 10
0.0
 20
0.0
 30
0.0
 70
   128
 71
   268
 72
   206
 73
   214
  0
VERTEX
  5
1544
330
1218
100
AcDbEntity
  8
0
 62
     7
100
AcDbFaceRecord
 10
0.0
 20
0.0
 30
0.0
 70
   128
 71
   268
 72
   179
 73
   206
  0
VERTEX
  5
1545
330
1218
100
AcDbEntity
  8
0
 62
     7
100
AcDbFaceRecord
 10
0.0
 20
0.0
 30
0.0
 70
   128
 71
   179
 72
   268
 73
   178
  0
VERTEX
  5
1546
330
1218
100
AcDbEntity
  8
0
 62
     7
100
AcDbFaceRecord
 10
0.0
 20
0.0
 30
0.0
 70
   128
 71
   269
 72
   185
 73
    11
  0
VERTEX
  5
1547
330
1218
100
AcDbEntity
  8
0
 62
     7
100
AcDbFaceRecord
 10
0.0
 20
0.0
 30
0.0
 70
   128
 71
   269
 72
   197
 73
   185
  0
VERTEX
  5
1548
330
1218
100
AcDbEntity
  8
0
 62
     7
100
AcDbFaceRecord
 10
0.0
 20
0.0
 30
0.0
 70
   128
 71
   269
 72
   198
 73
   197
  0
VERTEX
  5
1549
330
1218
100
AcDbEntity
  8
0
 62
     7
100
AcDbFaceRecord
 10
0.0
 20
0.0
 30
0.0
 70
   128
 71
   269
 72
   192
 73
   198
  0
VERTEX
  5
154A
330
1218
100
AcDbEntity
  8
0
 62
     7
100
AcDbFaceRecord
 10
0.0
 20
0.0
 30
0.0
 70
   128
 71
   269
 72
   180
 73
   192
  0
VERTEX
  5
154B
330
1218
100
AcDbEntity
  8
0
 62
     7
100
AcDbFaceRecord
 10
0.0
 20
0.0
 30
0.0
 70
   128
 71
   180
 72
   269
 73
    11
  0
VERTEX
  5
154C
330
1218
100
AcDbEntity
  8
0
 62
     7
100
AcDbFaceRecord
 10
0.0
 20
0.0
 30
0.0
 70
   128
 71
   270
 72
   184
 73
    25
  0
VERTEX
  5
154D
330
1218
100
AcDbEntity
  8
0
 62
     7
100
AcDbFaceRecord
 10
0.0
 20
0.0
 30
0.0
 70
   128
 71
   270
 72
   188
 73
   184
  0
VERTEX
  5
154E
330
1218
100
AcDbEntity
  8
0
 62
     7
100
AcDbFaceRecord
 10
0.0
 20
0.0
 30
0.0
 70
   128
 71
   270
 72
   197
 73
   188
  0
VERTEX
  5
154F
330
1218
100
AcDbEntity
  8
0
 62
     7
100
AcDbFaceRecord
 10
0.0
 20
0.0
 30
0.0
 70
   128
 71
   270
 72
   185
 73
   197
  0
VERTEX
  5
1550
330
1218
100
AcDbEntity
  8
0
 62
     7
100
AcDbFaceRecord
 10
0.0
 20
0.0
 30
0.0
 70
   128
 71
   270
 72
    27
 73
   185
  0
VERTEX
  5
1551
330
1218
100
AcDbEntity
  8
0
 62
     7
100
AcDbFaceRecord
 10
0.0
 20
0.0
 30
0.0
 70
   128
 71
    27
 72
   270
 73
    25
  0
VERTEX
  5
1552
330
1218
100
AcDbEntity
  8
0
 62
     7
100
AcDbFaceRecord
 10
0.0
 20
0.0
 30
0.0
 70
   128
 71
   271
 72
   183
 73
    28
  0
VERTEX
  5
1553
330
1218
100
AcDbEntity
  8
0
 62
     7
100
AcDbFaceRecord
 10
0.0
 20
0.0
 30
0.0
 70
   128
 71
   271
 72
   191
 73
   183
  0
VERTEX
  5
1554
330
1218
100
AcDbEntity
  8
0
 62
     7
100
AcDbFaceRecord
 10
0.0
 20
0.0
 30
0.0
 70
   128
 71
   271
 72
   187
 73
   191
  0
VERTEX
  5
1555
330
1218
100
AcDbEntity
  8
0
 62
     7
100
AcDbFaceRecord
 10
0.0
 20
0.0
 30
0.0
 70
   128
 71
   271
 72
   184
 73
   187
  0
VERTEX
  5
1556
330
1218
100
AcDbEntity
  8
0
 62
     7
100
AcDbFaceRecord
 10
0.0
 20
0.0
 30
0.0
 70
   128
 71
   271
 72
    29
 73
   184
  0
VERTEX
  5
1557
330
1218
100
AcDbEntity
  8
0
 62
     7
100
AcDbFaceRecord
 10
0.0
 20
0.0
 30
0.0
 70
   128
 71
    30
 72
    29
 73
   271
  0
VERTEX
  5
1558
330
1218
100
AcDbEntity
  8
0
 62
     7
100
AcDbFaceRecord
 10
0.0
 20
0.0
 30
0.0
 70
   128
 71
    30
 72
   271
 73
    28
  0
VERTEX
  5
1559
330
1218
100
AcDbEntity
  8
0
 62
     7
100
AcDbFaceRecord
 10
0.0
 20
0.0
 30
0.0
 70
   128
 71
   181
 72
   183
 73
   190
  0
VERTEX
  5
155A
330
1218
100
AcDbEntity
  8
0
 62
     7
100
AcDbFaceRecord
 10
0.0
 20
0.0
 30
0.0
 70
   128
 71
   181
 72
    26
 73
   183
  0
VERTEX
  5
155B
330
1218
100
AcDbEntity
  8
0
 62
     7
100
AcDbFaceRecord
 10
0.0
 20
0.0
 30
0.0
 70
   128
 71
    26
 72
   181
 73
    24
  0
VERTEX
  5
155C
330
1218
100
AcDbEntity
  8
0
 62
     7
100
AcDbFaceRecord
 10
0.0
 20
0.0
 30
0.0
 70
   128
 71
   272
 72
   194
 73
   193
  0
VERTEX
  5
155D
330
1218
100
AcDbEntity
  8
0
 62
     7
100
AcDbFaceRecord
 10
0.0
 20
0.0
 30
0.0
 70
   128
 71
   272
 72
   190
 73
   194
  0
VERTEX
  5
155E
330
1218
100
AcDbEntity
  8
0
 62
     7
100
AcDbFaceRecord
 10
0.0
 20
0.0
 30
0.0
 70
   128
 71
   272
 72
   181
 73
   190
  0
VERTEX
  5
155F
330
1218
100
AcDbEntity
  8
0
 62
     7
100
AcDbFaceRecord
 10
0.0
 20
0.0
 30
0.0
 70
   128
 71
   272
 72
   182
 73
   181
  0
VERTEX
  5
1560
330
1218
100
AcDbEntity
  8
0
 62
     7
100
AcDbFaceRecord
 10
0.0
 20
0.0
 30
0.0
 70
   128
 71
   272
 72
     6
 73
   182
  0
VERTEX
  5
1561
330
1218
100
AcDbEntity
  8
0
 62
     7
100
AcDbFaceRecord
 10
0.0
 20
0.0
 30
0.0
 70
   128
 71
     6
 72
   272
 73
   193
  0
VERTEX
  5
1562
330
1218
100
AcDbEntity
  8
0
 62
     7
100
AcDbFaceRecord
 10
0.0
 20
0.0
 30
0.0
 70
   128
 71
   273
 72
   208
 73
   207
  0
VERTEX
  5
1563
330
1218
100
AcDbEntity
  8
0
 62
     7
100
AcDbFaceRecord
 10
0.0
 20
0.0
 30
0.0
 70
   128
 71
   273
 72
   201
 73
   208
  0
VERTEX
  5
1564
330
1218
100
AcDbEntity
  8
0
 62
     7
100
AcDbFaceRecord
 10
0.0
 20
0.0
 30
0.0
 70
   128
 71
   273
 72
   189
 73
   201
  0
VERTEX
  5
1565
330
1218
100
AcDbEntity
  8
0
 62
     7
100
AcDbFaceRecord
 10
0.0
 20
0.0
 30
0.0
 70
   128
 71
   273
 72
   194
 73
   189
  0
VERTEX
  5
1566
330
1218
100
AcDbEntity
  8
0
 62
     7
100
AcDbFaceRecord
 10
0.0
 20
0.0
 30
0.0
 70
   128
 71
   273
 72
   195
 73
   194
  0
VERTEX
  5
1567
330
1218
100
AcDbEntity
  8
0
 62
     7
100
AcDbFaceRecord
 10
0.0
 20
0.0
 30
0.0
 70
   128
 71
   195
 72
   273
 73
   207
  0
VERTEX
  5
1568
330
1218
100
AcDbEntity
  8
0
 62
     7
100
AcDbFaceRecord
 10
0.0
 20
0.0
 30
0.0
 70
   128
 71
   274
 72
   261
 73
   264
  0
VERTEX
  5
1569
330
1218
100
AcDbEntity
  8
0
 62
     7
100
AcDbFaceRecord
 10
0.0
 20
0.0
 30
0.0
 70
   128
 71
   274
 72
   217
 73
   261
  0
VERTEX
  5
156A
330
1218
100
AcDbEntity
  8
0
 62
     7
100
AcDbFaceRecord
 10
0.0
 20
0.0
 30
0.0
 70
   128
 71
   274
 72
   205
 73
   217
  0
VERTEX
  5
156B
330
1218
100
AcDbEntity
  8
0
 62
     7
100
AcDbFaceRecord
 10
0.0
 20
0.0
 30
0.0
 70
   128
 71
   274
 72
   208
 73
   205
  0
VERTEX
  5
156C
330
1218
100
AcDbEntity
  8
0
 62
     7
100
AcDbFaceRecord
 10
0.0
 20
0.0
 30
0.0
 70
   128
 71
   274
 72
   209
 73
   208
  0
VERTEX
  5
156D
330
1218
100
AcDbEntity
  8
0
 62
     7
100
AcDbFaceRecord
 10
0.0
 20
0.0
 30
0.0
 70
   128
 71
   209
 72
   274
 73
   264
  0
VERTEX
  5
156E
330
1218
100
AcDbEntity
  8
0
 62
     7
100
AcDbFaceRecord
 10
0.0
 20
0.0
 30
0.0
 70
   128
 71
   275
 72
   237
 73
   236
  0
VERTEX
  5
156F
330
1218
100
AcDbEntity
  8
0
 62
     7
100
AcDbFaceRecord
 10
0.0
 20
0.0
 30
0.0
 70
   128
 71
   275
 72
   231
 73
   237
  0
VERTEX
  5
1570
330
1218
100
AcDbEntity
  8
0
 62
     7
100
AcDbFaceRecord
 10
0.0
 20
0.0
 30
0.0
 70
   128
 71
   275
 72
   263
 73
   231
  0
VERTEX
  5
1571
330
1218
100
AcDbEntity
  8
0
 62
     7
100
AcDbFaceRecord
 10
0.0
 20
0.0
 30
0.0
 70
   128
 71
   275
 72
   262
 73
   263
  0
VERTEX
  5
1572
330
1218
100
AcDbEntity
  8
0
 62
     7
100
AcDbFaceRecord
 10
0.0
 20
0.0
 30
0.0
 70
   128
 71
   275
 72
   265
 73
   262
  0
VERTEX
  5
1573
330
1218
100
AcDbEntity
  8
0
 62
     7
100
AcDbFaceRecord
 10
0.0
 20
0.0
 30
0.0
 70
   128
 71
   265
 72
   275
 73
   236
  0
VERTEX
  5
1574
330
1218
100
AcDbEntity
  8
0
 62
     7
100
AcDbFaceRecord
 10
0.0
 20
0.0
 30
0.0
 70
   128
 71
   276
 72
   250
 73
   257
  0
VERTEX
  5
1575
330
1218
100
AcDbEntity
  8
0
 62
     7
100
AcDbFaceRecord
 10
0.0
 20
0.0
 30
0.0
 70
   128
 71
   276
 72
   241
 73
   250
  0
VERTEX
  5
1576
330
1218
100
AcDbEntity
  8
0
 62
     7
100
AcDbFaceRecord
 10
0.0
 20
0.0
 30
0.0
 70
   128
 71
   276
 72
   235
 73
   241
  0
VERTEX
  5
1577
330
1218
100
AcDbEntity
  8
0
 62
     7
100
AcDbFaceRecord
 10
0.0
 20
0.0
 30
0.0
 70
   128
 71
   276
 72
   237
 73
   235
  0
VERTEX
  5
1578
330
1218
100
AcDbEntity
  8
0
 62
     7
100
AcDbFaceRecord
 10
0.0
 20
0.0
 30
0.0
 70
   128
 71
   276
 72
   238
 73
   237
  0
VERTEX
  5
1579
330
1218
100
AcDbEntity
  8
0
 62
     7
100
AcDbFaceRecord
 10
0.0
 20
0.0
 30
0.0
 70
   128
 71
   238
 72
   276
 73
   257
  0
VERTEX
  5
157A
330
1218
100
AcDbEntity
  8
0
 62
     7
100
AcDbFaceRecord
 10
0.0
 20
0.0
 30
0.0
 70
   128
 71
   277
 72
   256
 73
    49
  0
VERTEX
  5
157B
330
1218
100
AcDbEntity
  8
0
 62
     7
100
AcDbFaceRecord
 10
0.0
 20
0.0
 30
0.0
 70
   128
 71
   277
 72
   249
 73
   256
  0
VERTEX
  5
157C
330
1218
100
AcDbEntity
  8
0
 62
     7
100
AcDbFaceRecord
 10
0.0
 20
0.0
 30
0.0
 70
   128
 71
   277
 72
   250
 73
   249
  0
VERTEX
  5
157D
330
1218
100
AcDbEntity
  8
0
 62
     7
100
AcDbFaceRecord
 10
0.0
 20
0.0
 30
0.0
 70
   128
 71
   277
 72
     5
 73
   250
  0
VERTEX
  5
157E
330
1218
100
AcDbEntity
  8
0
 62
     7
100
AcDbFaceRecord
 10
0.0
 20
0.0
 30
0.0
 70
   128
 71
     5
 72
   277
 73
    49
  0
VERTEX
  5
157F
330
1218
100
AcDbEntity
  8
0
 62
     7
100
AcDbFaceRecord
 10
0.0
 20
0.0
 30
0.0
 70
   128
 71
   278
 72
   254
 73
    51
  0
VERTEX
  5
1580
330
1218
100
AcDbEntity
  8
0
 62
     7
100
AcDbFaceRecord
 10
0.0
 20
0.0
 30
0.0
 70
   128
 71
   278
 72
   247
 73
   254
  0
VERTEX
  5
1581
330
1218
100
AcDbEntity
  8
0
 62
     7
100
AcDbFaceRecord
 10
0.0
 20
0.0
 30
0.0
 70
   128
 71
   278
 72
   255
 73
   247
  0
VERTEX
  5
1582
330
1218
100
AcDbEntity
  8
0
 62
     7
100
AcDbFaceRecord
 10
0.0
 20
0.0
 30
0.0
 70
   128
 71
   278
 72
   256
 73
   255
  0
VERTEX
  5
1583
330
1218
100
AcDbEntity
  8
0
 62
     7
100
AcDbFaceRecord
 10
0.0
 20
0.0
 30
0.0
 70
   128
 71
   278
 72
    47
 73
   256
  0
VERTEX
  5
1584
330
1218
100
AcDbEntity
  8
0
 62
     7
100
AcDbFaceRecord
 10
0.0
 20
0.0
 30
0.0
 70
   128
 71
    47
 72
   278
 73
    51
  0
VERTEX
  5
1585
330
1218
100
AcDbEntity
  8
0
 62
     7
100
AcDbFaceRecord
 10
0.0
 20
0.0
 30
0.0
 70
   128
 71
    50
 72
    52
 73
   254
  0
VERTEX
  5
1586
330
1218
100
AcDbEntity
  8
0
 62
     7
100
AcDbFaceRecord
 10
0.0
 20
0.0
 30
0.0
 70
   128
 71
   279
 72
   252
 73
    48
  0
VERTEX
  5
1587
330
1218
100
AcDbEntity
  8
0
 62
     7
100
AcDbFaceRecord
 10
0.0
 20
0.0
 30
0.0
 70
   128
 71
   279
 72
   244
 73
   252
  0
VERTEX
  5
1588
330
1218
100
AcDbEntity
  8
0
 62
     7
100
AcDbFaceRecord
 10
0.0
 20
0.0
 30
0.0
 70
   128
 71
   279
 72
   253
 73
   244
  0
VERTEX
  5
1589
330
1218
100
AcDbEntity
  8
0
 62
     7
100
AcDbFaceRecord
 10
0.0
 20
0.0
 30
0.0
 70
   128
 71
   279
 72
   254
 73
   253
  0
VERTEX
  5
158A
330
1218
100
AcDbEntity
  8
0
 62
     7
100
AcDbFaceRecord
 10
0.0
 20
0.0
 30
0.0
 70
   128
 71
   279
 72
    50
 73
   254
  0
VERTEX
  5
158B
330
1218
100
AcDbEntity
  8
0
 62
     7
100
AcDbFaceRecord
 10
0.0
 20
0.0
 30
0.0
 70
   128
 71
    50
 72
   279
 73
    48
  0
VERTEX
  5
158C
330
1218
100
AcDbEntity
  8
0
 62
     7
100
AcDbFaceRecord
 10
0.0
 20
0.0
 30
0.0
 70
   128
 71
   280
 72
   251
 73
    14
  0
VERTEX
  5
158D
330
1218
100
AcDbEntity
  8
0
 62
     7
100
AcDbFaceRecord
 10
0.0
 20
0.0
 30
0.0
 70
   128
 71
   280
 72
   252
 73
   251
  0
VERTEX
  5
158E
330
1218
100
AcDbEntity
  8
0
 62
     7
100
AcDbFaceRecord
 10
0.0
 20
0.0
 30
0.0
 70
   128
 71
   280
 72
    46
 73
   252
  0
VERTEX
  5
158F
330
1218
100
AcDbEntity
  8
0
 62
     7
100
AcDbFaceRecord
 10
0.0
 20
0.0
 30
0.0
 70
   128
 71
    46
 72
   280
 73
    14
  0
VERTEX
  5
1590
330
1218
100
AcDbEntity
  8
0
 62
     7
100
AcDbFaceRecord
 10
0.0
 20
0.0
 30
0.0
 70
   128
 71
   281
 72
   257
 73
   282
  0
VERTEX
  5
1591
330
1218
100
AcDbEntity
  8
0
 62
     7
100
AcDbFaceRecord
 10
0.0
 20
0.0
 30
0.0
 70
   128
 71
   238
 72
   257
 73
   281
  0
VERTEX
  5
1592
330
1218
100
AcDbEntity
  8
0
 62
     7
100
AcDbFaceRecord
 10
0.0
 20
0.0
 30
0.0
 70
   128
 71
   283
 72
   236
 73
   284
  0
VERTEX
  5
1593
330
1218
100
AcDbEntity
  8
0
 62
     7
100
AcDbFaceRecord
 10
0.0
 20
0.0
 30
0.0
 70
   128
 71
   265
 72
   236
 73
   283
  0
VERTEX
  5
1594
330
1218
100
AcDbEntity
  8
0
 62
     7
100
AcDbFaceRecord
 10
0.0
 20
0.0
 30
0.0
 70
   128
 71
   285
 72
   264
 73
   286
  0
VERTEX
  5
1595
330
1218
100
AcDbEntity
  8
0
 62
     7
100
AcDbFaceRecord
 10
0.0
 20
0.0
 30
0.0
 70
   128
 71
   209
 72
   264
 73
   285
  0
VERTEX
  5
1596
330
1218
100
AcDbEntity
  8
0
 62
     7
100
AcDbFaceRecord
 10
0.0
 20
0.0
 30
0.0
 70
   128
 71
   287
 72
   207
 73
   288
  0
VERTEX
  5
1597
330
1218
100
AcDbEntity
  8
0
 62
     7
100
AcDbFaceRecord
 10
0.0
 20
0.0
 30
0.0
 70
   128
 71
   195
 72
   207
 73
   287
  0
VERTEX
  5
1598
330
1218
100
AcDbEntity
  8
0
 62
     7
100
AcDbFaceRecord
 10
0.0
 20
0.0
 30
0.0
 70
   128
 71
   289
 72
   193
 73
   290
  0
VERTEX
  5
1599
330
1218
100
AcDbEntity
  8
0
 62
     7
100
AcDbFaceRecord
 10
0.0
 20
0.0
 30
0.0
 70
   128
 71
     6
 72
   193
 73
   289
  0
VERTEX
  5
159A
330
1218
100
AcDbEntity
  8
0
 62
     7
100
AcDbFaceRecord
 10
0.0
 20
0.0
 30
0.0
 70
   128
 71
    23
 72
     6
 73
   289
  0
VERTEX
  5
159B
330
1218
100
AcDbEntity
  8
0
 62
     7
100
AcDbFaceRecord
 10
0.0
 20
0.0
 30
0.0
 70
   128
 71
   195
 72
   290
 73
   193
  0
VERTEX
  5
159C
330
1218
100
AcDbEntity
  8
0
 62
     7
100
AcDbFaceRecord
 10
0.0
 20
0.0
 30
0.0
 70
   128
 71
   290
 72
   195
 73
   287
  0
VERTEX
  5
159D
330
1218
100
AcDbEntity
  8
0
 62
     7
100
AcDbFaceRecord
 10
0.0
 20
0.0
 30
0.0
 70
   128
 71
   209
 72
   288
 73
   207
  0
VERTEX
  5
159E
330
1218
100
AcDbEntity
  8
0
 62
     7
100
AcDbFaceRecord
 10
0.0
 20
0.0
 30
0.0
 70
   128
 71
   288
 72
   209
 73
   285
  0
VERTEX
  5
159F
330
1218
100
AcDbEntity
  8
0
 62
     7
100
AcDbFaceRecord
 10
0.0
 20
0.0
 30
0.0
 70
   128
 71
   265
 72
   286
 73
   264
  0
VERTEX
  5
15A0
330
1218
100
AcDbEntity
  8
0
 62
     7
100
AcDbFaceRecord
 10
0.0
 20
0.0
 30
0.0
 70
   128
 71
   286
 72
   265
 73
   283
  0
VERTEX
  5
15A1
330
1218
100
AcDbEntity
  8
0
 62
     7
100
AcDbFaceRecord
 10
0.0
 20
0.0
 30
0.0
 70
   128
 71
   238
 72
   284
 73
   236
  0
VERTEX
  5
15A2
330
1218
100
AcDbEntity
  8
0
 62
     7
100
AcDbFaceRecord
 10
0.0
 20
0.0
 30
0.0
 70
   128
 71
   284
 72
   238
 73
   281
  0
VERTEX
  5
15A3
330
1218
100
AcDbEntity
  8
0
 62
     7
100
AcDbFaceRecord
 10
0.0
 20
0.0
 30
0.0
 70
   128
 71
     5
 72
   282
 73
   257
  0
VERTEX
  5
15A4
330
1218
100
AcDbEntity
  8
0
 62
     7
100
AcDbFaceRecord
 10
0.0
 20
0.0
 30
0.0
 70
   128
 71
    54
 72
   282
 73
     5
  0
VERTEX
  5
15A5
330
1218
100
AcDbEntity
  8
0
 62
     7
100
AcDbFaceRecord
 10
0.0
 20
0.0
 30
0.0
 70
   128
 71
   281
 72
   291
 73
   284
  0
VERTEX
  5
15A6
330
1218
100
AcDbEntity
  8
0
 62
     7
100
AcDbFaceRecord
 10
0.0
 20
0.0
 30
0.0
 70
   128
 71
   283
 72
   292
 73
   286
  0
VERTEX
  5
15A7
330
1218
100
AcDbEntity
  8
0
 62
     7
100
AcDbFaceRecord
 10
0.0
 20
0.0
 30
0.0
 70
   128
 71
   293
 72
   294
 73
   292
  0
VERTEX
  5
15A8
330
1218
100
AcDbEntity
  8
0
 62
     7
100
AcDbFaceRecord
 10
0.0
 20
0.0
 30
0.0
 70
   128
 71
   285
 72
   295
 73
   288
  0
VERTEX
  5
15A9
330
1218
100
AcDbEntity
  8
0
 62
     7
100
AcDbFaceRecord
 10
0.0
 20
0.0
 30
0.0
 70
   128
 71
   287
 72
   296
 73
   290
  0
VERTEX
  5
15AA
330
1218
100
AcDbEntity
  8
0
 62
     7
100
AcDbFaceRecord
 10
0.0
 20
0.0
 30
0.0
 70
   128
 71
    23
 72
   289
 73
   297
  0
VERTEX
  5
15AB
330
1218
100
AcDbEntity
  8
0
 62
     7
100
AcDbFaceRecord
 10
0.0
 20
0.0
 30
0.0
 70
   128
 71
     7
 72
    16
 73
   298
  0
VERTEX
  5
15AC
330
1218
100
AcDbEntity
  8
0
 62
     7
100
AcDbFaceRecord
 10
0.0
 20
0.0
 30
0.0
 70
   128
 71
   299
 72
   294
 73
   293
  0
VERTEX
  5
15AD
330
1218
100
AcDbEntity
  8
0
 62
     7
100
AcDbFaceRecord
 10
0.0
 20
0.0
 30
0.0
 70
   128
 71
   300
 72
   296
 73
   287
  0
VERTEX
  5
15AE
330
1218
100
AcDbEntity
  8
0
 62
     7
100
AcDbFaceRecord
 10
0.0
 20
0.0
 30
0.0
 70
   128
 71
   300
 72
   301
 73
   296
  0
VERTEX
  5
15AF
330
1218
100
AcDbEntity
  8
0
 62
     7
100
AcDbFaceRecord
 10
0.0
 20
0.0
 30
0.0
 70
   128
 71
   302
 72
   303
 73
   301
  0
VERTEX
  5
15B0
330
1218
100
AcDbEntity
  8
0
 62
     7
100
AcDbFaceRecord
 10
0.0
 20
0.0
 30
0.0
 70
   128
 71
   304
 72
   297
 73
   289
  0
VERTEX
  5
15B1
330
1218
100
AcDbEntity
  8
0
 62
     7
100
AcDbFaceRecord
 10
0.0
 20
0.0
 30
0.0
 70
   128
 71
   304
 72
   305
 73
   297
  0
VERTEX
  5
15B2
330
1218
100
AcDbEntity
  8
0
 62
     7
100
AcDbFaceRecord
 10
0.0
 20
0.0
 30
0.0
 70
   128
 71
   306
 72
    21
 73
   305
  0
VERTEX
  5
15B3
330
1218
100
AcDbEntity
  8
0
 62
     7
100
AcDbFaceRecord
 10
0.0
 20
0.0
 30
0.0
 70
   128
 71
   307
 72
   299
 73
   293
  0
VERTEX
  5
15B4
330
1218
100
AcDbEntity
  8
0
 62
     7
100
AcDbFaceRecord
 10
0.0
 20
0.0
 30
0.0
 70
   128
 71
   308
 72
   292
 73
   283
  0
VERTEX
  5
15B5
330
1218
100
AcDbEntity
  8
0
 62
     7
100
AcDbFaceRecord
 10
0.0
 20
0.0
 30
0.0
 70
   128
 71
   308
 72
   293
 73
   292
  0
VERTEX
  5
15B6
330
1218
100
AcDbEntity
  8
0
 62
     7
100
AcDbFaceRecord
 10
0.0
 20
0.0
 30
0.0
 70
   128
 71
   309
 72
   310
 73
   311
  0
VERTEX
  5
15B7
330
1218
100
AcDbEntity
  8
0
 62
     7
100
AcDbFaceRecord
 10
0.0
 20
0.0
 30
0.0
 70
   128
 71
   312
 72
   291
 73
   281
  0
VERTEX
  5
15B8
330
1218
100
AcDbEntity
  8
0
 62
     7
100
AcDbFaceRecord
 10
0.0
 20
0.0
 30
0.0
 70
   128
 71
   312
 72
   310
 73
   291
  0
VERTEX
  5
15B9
330
1218
100
AcDbEntity
  8
0
 62
     7
100
AcDbFaceRecord
 10
0.0
 20
0.0
 30
0.0
 70
   128
 71
   313
 72
   294
 73
   314
  0
VERTEX
  5
15BA
330
1218
100
AcDbEntity
  8
0
 62
     7
100
AcDbFaceRecord
 10
0.0
 20
0.0
 30
0.0
 70
   128
 71
   308
 72
   284
 73
   291
  0
VERTEX
  5
15BB
330
1218
100
AcDbEntity
  8
0
 62
     7
100
AcDbFaceRecord
 10
0.0
 20
0.0
 30
0.0
 70
   128
 71
   284
 72
   308
 73
   283
  0
VERTEX
  5
15BC
330
1218
100
AcDbEntity
  8
0
 62
     7
100
AcDbFaceRecord
 10
0.0
 20
0.0
 30
0.0
 70
   128
 71
   315
 72
   295
 73
   285
  0
VERTEX
  5
15BD
330
1218
100
AcDbEntity
  8
0
 62
     7
100
AcDbFaceRecord
 10
0.0
 20
0.0
 30
0.0
 70
   128
 71
   315
 72
   313
 73
   295
  0
VERTEX
  5
15BE
330
1218
100
AcDbEntity
  8
0
 62
     7
100
AcDbFaceRecord
 10
0.0
 20
0.0
 30
0.0
 70
   128
 71
   315
 72
   294
 73
   313
  0
VERTEX
  5
15BF
330
1218
100
AcDbEntity
  8
0
 62
     7
100
AcDbFaceRecord
 10
0.0
 20
0.0
 30
0.0
 70
   128
 71
   315
 72
   292
 73
   294
  0
VERTEX
  5
15C0
330
1218
100
AcDbEntity
  8
0
 62
     7
100
AcDbFaceRecord
 10
0.0
 20
0.0
 30
0.0
 70
   128
 71
   315
 72
   286
 73
   292
  0
VERTEX
  5
15C1
330
1218
100
AcDbEntity
  8
0
 62
     7
100
AcDbFaceRecord
 10
0.0
 20
0.0
 30
0.0
 70
   128
 71
   286
 72
   315
 73
   285
  0
VERTEX
  5
15C2
330
1218
100
AcDbEntity
  8
0
 62
     7
100
AcDbFaceRecord
 10
0.0
 20
0.0
 30
0.0
 70
   128
 71
   300
 72
   288
 73
   295
  0
VERTEX
  5
15C3
330
1218
100
AcDbEntity
  8
0
 62
     7
100
AcDbFaceRecord
 10
0.0
 20
0.0
 30
0.0
 70
   128
 71
   288
 72
   300
 73
   287
  0
VERTEX
  5
15C4
330
1218
100
AcDbEntity
  8
0
 62
     7
100
AcDbFaceRecord
 10
0.0
 20
0.0
 30
0.0
 70
   128
 71
   304
 72
   290
 73
   296
  0
VERTEX
  5
15C5
330
1218
100
AcDbEntity
  8
0
 62
     7
100
AcDbFaceRecord
 10
0.0
 20
0.0
 30
0.0
 70
   128
 71
   290
 72
   304
 73
   289
  0
VERTEX
  5
15C6
330
1218
100
AcDbEntity
  8
0
 62
     7
100
AcDbFaceRecord
 10
0.0
 20
0.0
 30
0.0
 70
   128
 71
    22
 72
    23
 73
   297
  0
VERTEX
  5
15C7
330
1218
100
AcDbEntity
  8
0
 62
     7
100
AcDbFaceRecord
 10
0.0
 20
0.0
 30
0.0
 70
   128
 71
   316
 72
   305
 73
    21
  0
VERTEX
  5
15C8
330
1218
100
AcDbEntity
  8
0
 62
     7
100
AcDbFaceRecord
 10
0.0
 20
0.0
 30
0.0
 70
   128
 71
   316
 72
   297
 73
   305
  0
VERTEX
  5
15C9
330
1218
100
AcDbEntity
  8
0
 62
     7
100
AcDbFaceRecord
 10
0.0
 20
0.0
 30
0.0
 70
   128
 71
   316
 72
    22
 73
   297
  0
VERTEX
  5
15CA
330
1218
100
AcDbEntity
  8
0
 62
     7
100
AcDbFaceRecord
 10
0.0
 20
0.0
 30
0.0
 70
   128
 71
     4
 72
    22
 73
   316
  0
VERTEX
  5
15CB
330
1218
100
AcDbEntity
  8
0
 62
     7
100
AcDbFaceRecord
 10
0.0
 20
0.0
 30
0.0
 70
   128
 71
    15
 72
     4
 73
   316
  0
VERTEX
  5
15CC
330
1218
100
AcDbEntity
  8
0
 62
     7
100
AcDbFaceRecord
 10
0.0
 20
0.0
 30
0.0
 70
   128
 71
    15
 72
   316
 73
    21
  0
VERTEX
  5
15CD
330
1218
100
AcDbEntity
  8
0
 62
     7
100
AcDbFaceRecord
 10
0.0
 20
0.0
 30
0.0
 70
   128
 71
   317
 72
   306
 73
   305
  0
VERTEX
  5
15CE
330
1218
100
AcDbEntity
  8
0
 62
     7
100
AcDbFaceRecord
 10
0.0
 20
0.0
 30
0.0
 70
   128
 71
   318
 72
   301
 73
   303
  0
VERTEX
  5
15CF
330
1218
100
AcDbEntity
  8
0
 62
     7
100
AcDbFaceRecord
 10
0.0
 20
0.0
 30
0.0
 70
   128
 71
   318
 72
   296
 73
   301
  0
VERTEX
  5
15D0
330
1218
100
AcDbEntity
  8
0
 62
     7
100
AcDbFaceRecord
 10
0.0
 20
0.0
 30
0.0
 70
   128
 71
   318
 72
   304
 73
   296
  0
VERTEX
  5
15D1
330
1218
100
AcDbEntity
  8
0
 62
     7
100
AcDbFaceRecord
 10
0.0
 20
0.0
 30
0.0
 70
   128
 71
   318
 72
   305
 73
   304
  0
VERTEX
  5
15D2
330
1218
100
AcDbEntity
  8
0
 62
     7
100
AcDbFaceRecord
 10
0.0
 20
0.0
 30
0.0
 70
   128
 71
   318
 72
   317
 73
   305
  0
VERTEX
  5
15D3
330
1218
100
AcDbEntity
  8
0
 62
     7
100
AcDbFaceRecord
 10
0.0
 20
0.0
 30
0.0
 70
   128
 71
   317
 72
   318
 73
   303
  0
VERTEX
  5
15D4
330
1218
100
AcDbEntity
  8
0
 62
     7
100
AcDbFaceRecord
 10
0.0
 20
0.0
 30
0.0
 70
   128
 71
   319
 72
   313
 73
   314
  0
VERTEX
  5
15D5
330
1218
100
AcDbEntity
  8
0
 62
     7
100
AcDbFaceRecord
 10
0.0
 20
0.0
 30
0.0
 70
   128
 71
   319
 72
   295
 73
   313
  0
VERTEX
  5
15D6
330
1218
100
AcDbEntity
  8
0
 62
     7
100
AcDbFaceRecord
 10
0.0
 20
0.0
 30
0.0
 70
   128
 71
   319
 72
   300
 73
   295
  0
VERTEX
  5
15D7
330
1218
100
AcDbEntity
  8
0
 62
     7
100
AcDbFaceRecord
 10
0.0
 20
0.0
 30
0.0
 70
   128
 71
   319
 72
   301
 73
   300
  0
VERTEX
  5
15D8
330
1218
100
AcDbEntity
  8
0
 62
     7
100
AcDbFaceRecord
 10
0.0
 20
0.0
 30
0.0
 70
   128
 71
   319
 72
   302
 73
   301
  0
VERTEX
  5
15D9
330
1218
100
AcDbEntity
  8
0
 62
     7
100
AcDbFaceRecord
 10
0.0
 20
0.0
 30
0.0
 70
   128
 71
   302
 72
   319
 73
   314
  0
VERTEX
  5
15DA
330
1218
100
AcDbEntity
  8
0
 62
     7
100
AcDbFaceRecord
 10
0.0
 20
0.0
 30
0.0
 70
   128
 71
   314
 72
   294
 73
   299
  0
VERTEX
  5
15DB
330
1218
100
AcDbEntity
  8
0
 62
     7
100
AcDbFaceRecord
 10
0.0
 20
0.0
 30
0.0
 70
   128
 71
   320
 72
   310
 73
   309
  0
VERTEX
  5
15DC
330
1218
100
AcDbEntity
  8
0
 62
     7
100
AcDbFaceRecord
 10
0.0
 20
0.0
 30
0.0
 70
   128
 71
   320
 72
   291
 73
   310
  0
VERTEX
  5
15DD
330
1218
100
AcDbEntity
  8
0
 62
     7
100
AcDbFaceRecord
 10
0.0
 20
0.0
 30
0.0
 70
   128
 71
   320
 72
   308
 73
   291
  0
VERTEX
  5
15DE
330
1218
100
AcDbEntity
  8
0
 62
     7
100
AcDbFaceRecord
 10
0.0
 20
0.0
 30
0.0
 70
   128
 71
   320
 72
   293
 73
   308
  0
VERTEX
  5
15DF
330
1218
100
AcDbEntity
  8
0
 62
     7
100
AcDbFaceRecord
 10
0.0
 20
0.0
 30
0.0
 70
   128
 71
   320
 72
   307
 73
   293
  0
VERTEX
  5
15E0
330
1218
100
AcDbEntity
  8
0
 62
     7
100
AcDbFaceRecord
 10
0.0
 20
0.0
 30
0.0
 70
   128
 71
   307
 72
   320
 73
   309
  0
VERTEX
  5
15E1
330
1218
100
AcDbEntity
  8
0
 62
     7
100
AcDbFaceRecord
 10
0.0
 20
0.0
 30
0.0
 70
   128
 71
   321
 72
   298
 73
    16
  0
VERTEX
  5
15E2
330
1218
100
AcDbEntity
  8
0
 62
     7
100
AcDbFaceRecord
 10
0.0
 20
0.0
 30
0.0
 70
   128
 71
   321
 72
   312
 73
   298
  0
VERTEX
  5
15E3
330
1218
100
AcDbEntity
  8
0
 62
     7
100
AcDbFaceRecord
 10
0.0
 20
0.0
 30
0.0
 70
   128
 71
   321
 72
   310
 73
   312
  0
VERTEX
  5
15E4
330
1218
100
AcDbEntity
  8
0
 62
     7
100
AcDbFaceRecord
 10
0.0
 20
0.0
 30
0.0
 70
   128
 71
   321
 72
   311
 73
   310
  0
VERTEX
  5
15E5
330
1218
100
AcDbEntity
  8
0
 62
     7
100
AcDbFaceRecord
 10
0.0
 20
0.0
 30
0.0
 70
   128
 71
    55
 72
   311
 73
   321
  0
VERTEX
  5
15E6
330
1218
100
AcDbEntity
  8
0
 62
     7
100
AcDbFaceRecord
 10
0.0
 20
0.0
 30
0.0
 70
   128
 71
    55
 72
   321
 73
    16
  0
VERTEX
  5
15E7
330
1218
100
AcDbEntity
  8
0
 62
     7
100
AcDbFaceRecord
 10
0.0
 20
0.0
 30
0.0
 70
   128
 71
    53
 72
     7
 73
   298
  0
VERTEX
  5
15E8
330
1218
100
AcDbEntity
  8
0
 62
     7
100
AcDbFaceRecord
 10
0.0
 20
0.0
 30
0.0
 70
   128
 71
   282
 72
   312
 73
   281
  0
VERTEX
  5
15E9
330
1218
100
AcDbEntity
  8
0
 62
     7
100
AcDbFaceRecord
 10
0.0
 20
0.0
 30
0.0
 70
   128
 71
   282
 72
   298
 73
   312
  0
VERTEX
  5
15EA
330
1218
100
AcDbEntity
  8
0
 62
     7
100
AcDbFaceRecord
 10
0.0
 20
0.0
 30
0.0
 70
   128
 71
   282
 72
    53
 73
   298
  0
VERTEX
  5
15EB
330
1218
100
AcDbEntity
  8
0
 62
     7
100
AcDbFaceRecord
 10
0.0
 20
0.0
 30
0.0
 70
   128
 71
    54
 72
    53
 73
   282
  0
VERTEX
  5
15EC
330
1218
100
AcDbEntity
  8
0
 62
     7
100
AcDbFaceRecord
 10
0.0
 20
0.0
 30
0.0
 70
   128
 71
    21
 72
   306
 73
   322
  0
VERTEX
  5
15ED
330
1218
100
AcDbEntity
  8
0
 62
     7
100
AcDbFaceRecord
 10
0.0
 20
0.0
 30
0.0
 70
   128
 71
    18
 72
   323
 73
    19
  0
VERTEX
  5
15EE
330
1218
100
AcDbEntity
  8
0
 62
     7
100
AcDbFaceRecord
 10
0.0
 20
0.0
 30
0.0
 70
   128
 71
    18
 72
   324
 73
   323
  0
VERTEX
  5
15EF
330
1218
100
AcDbEntity
  8
0
 62
     7
100
AcDbFaceRecord
 10
0.0
 20
0.0
 30
0.0
 70
   128
 71
   325
 72
   326
 73
   327
  0
VERTEX
  5
15F0
330
1218
100
AcDbEntity
  8
0
 62
     7
100
AcDbFaceRecord
 10
0.0
 20
0.0
 30
0.0
 70
   128
 71
   328
 72
   329
 73
   326
  0
VERTEX
  5
15F1
330
1218
100
AcDbEntity
  8
0
 62
     7
100
AcDbFaceRecord
 10
0.0
 20
0.0
 30
0.0
 70
   128
 71
   330
 72
   322
 73
   306
  0
VERTEX
  5
15F2
330
1218
100
AcDbEntity
  8
0
 62
     7
100
AcDbFaceRecord
 10
0.0
 20
0.0
 30
0.0
 70
   128
 71
   330
 72
   328
 73
   322
  0
VERTEX
  5
15F3
330
1218
100
AcDbEntity
  8
0
 62
     7
100
AcDbFaceRecord
 10
0.0
 20
0.0
 30
0.0
 70
   128
 71
   330
 72
   329
 73
   328
  0
VERTEX
  5
15F4
330
1218
100
AcDbEntity
  8
0
 62
     7
100
AcDbFaceRecord
 10
0.0
 20
0.0
 30
0.0
 70
   128
 71
   317
 72
   303
 73
   331
  0
VERTEX
  5
15F5
330
1218
100
AcDbEntity
  8
0
 62
     7
100
AcDbFaceRecord
 10
0.0
 20
0.0
 30
0.0
 70
   128
 71
   332
 72
   333
 73
   334
  0
VERTEX
  5
15F6
330
1218
100
AcDbEntity
  8
0
 62
     7
100
AcDbFaceRecord
 10
0.0
 20
0.0
 30
0.0
 70
   128
 71
   335
 72
   336
 73
   333
  0
VERTEX
  5
15F7
330
1218
100
AcDbEntity
  8
0
 62
     7
100
AcDbFaceRecord
 10
0.0
 20
0.0
 30
0.0
 70
   128
 71
   331
 72
   336
 73
   335
  0
VERTEX
  5
15F8
330
1218
100
AcDbEntity
  8
0
 62
     7
100
AcDbFaceRecord
 10
0.0
 20
0.0
 30
0.0
 70
   128
 71
   337
 72
   338
 73
   339
  0
VERTEX
  5
15F9
330
1218
100
AcDbEntity
  8
0
 62
     7
100
AcDbFaceRecord
 10
0.0
 20
0.0
 30
0.0
 70
   128
 71
   337
 72
   340
 73
   338
  0
VERTEX
  5
15FA
330
1218
100
AcDbEntity
  8
0
 62
     7
100
AcDbFaceRecord
 10
0.0
 20
0.0
 30
0.0
 70
   128
 71
   299
 72
   307
 73
   341
  0
VERTEX
  5
15FB
330
1218
100
AcDbEntity
  8
0
 62
     7
100
AcDbFaceRecord
 10
0.0
 20
0.0
 30
0.0
 70
   128
 71
   342
 72
   343
 73
   344
  0
VERTEX
  5
15FC
330
1218
100
AcDbEntity
  8
0
 62
     7
100
AcDbFaceRecord
 10
0.0
 20
0.0
 30
0.0
 70
   128
 71
   340
 72
   345
 73
   343
  0
VERTEX
  5
15FD
330
1218
100
AcDbEntity
  8
0
 62
     7
100
AcDbFaceRecord
 10
0.0
 20
0.0
 30
0.0
 70
   128
 71
   341
 72
   346
 73
   345
  0
VERTEX
  5
15FE
330
1218
100
AcDbEntity
  8
0
 62
     7
100
AcDbFaceRecord
 10
0.0
 20
0.0
 30
0.0
 70
   128
 71
   347
 72
   348
 73
   349
  0
VERTEX
  5
15FF
330
1218
100
AcDbEntity
  8
0
 62
     7
100
AcDbFaceRecord
 10
0.0
 20
0.0
 30
0.0
 70
   128
 71
   346
 72
   350
 73
   348
  0
VERTEX
  5
1600
330
1218
100
AcDbEntity
  8
0
 62
     7
100
AcDbFaceRecord
 10
0.0
 20
0.0
 30
0.0
 70
   128
 71
   351
 72
   352
 73
   350
  0
VERTEX
  5
1601
330
1218
100
AcDbEntity
  8
0
 62
     7
100
AcDbFaceRecord
 10
0.0
 20
0.0
 30
0.0
 70
   128
 71
   351
 72
   353
 73
   352
  0
VERTEX
  5
1602
330
1218
100
AcDbEntity
  8
0
 62
     7
100
AcDbFaceRecord
 10
0.0
 20
0.0
 30
0.0
 70
   128
 71
    55
 72
     9
 73
   354
  0
VERTEX
  5
1603
330
1218
100
AcDbEntity
  8
0
 62
     7
100
AcDbFaceRecord
 10
0.0
 20
0.0
 30
0.0
 70
   128
 71
   355
 72
    58
 73
   356
  0
VERTEX
  5
1604
330
1218
100
AcDbEntity
  8
0
 62
     7
100
AcDbFaceRecord
 10
0.0
 20
0.0
 30
0.0
 70
   128
 71
   357
 72
   339
 73
   338
  0
VERTEX
  5
1605
330
1218
100
AcDbEntity
  8
0
 62
     7
100
AcDbFaceRecord
 10
0.0
 20
0.0
 30
0.0
 70
   128
 71
   358
 72
   357
 73
   338
  0
VERTEX
  5
1606
330
1218
100
AcDbEntity
  8
0
 62
     7
100
AcDbFaceRecord
 10
0.0
 20
0.0
 30
0.0
 70
   128
 71
   359
 72
   343
 73
   342
  0
VERTEX
  5
1607
330
1218
100
AcDbEntity
  8
0
 62
     7
100
AcDbFaceRecord
 10
0.0
 20
0.0
 30
0.0
 70
   128
 71
   359
 72
   340
 73
   343
  0
VERTEX
  5
1608
330
1218
100
AcDbEntity
  8
0
 62
     7
100
AcDbFaceRecord
 10
0.0
 20
0.0
 30
0.0
 70
   128
 71
   359
 72
   338
 73
   340
  0
VERTEX
  5
1609
330
1218
100
AcDbEntity
  8
0
 62
     7
100
AcDbFaceRecord
 10
0.0
 20
0.0
 30
0.0
 70
   128
 71
   358
 72
   338
 73
   359
  0
VERTEX
  5
160A
330
1218
100
AcDbEntity
  8
0
 62
     7
100
AcDbFaceRecord
 10
0.0
 20
0.0
 30
0.0
 70
   128
 71
   360
 72
   358
 73
   359
  0
VERTEX
  5
160B
330
1218
100
AcDbEntity
  8
0
 62
     7
100
AcDbFaceRecord
 10
0.0
 20
0.0
 30
0.0
 70
   128
 71
   314
 72
   339
 73
   302
  0
VERTEX
  5
160C
330
1218
100
AcDbEntity
  8
0
 62
     7
100
AcDbFaceRecord
 10
0.0
 20
0.0
 30
0.0
 70
   128
 71
   314
 72
   337
 73
   339
  0
VERTEX
  5
160D
330
1218
100
AcDbEntity
  8
0
 62
     7
100
AcDbFaceRecord
 10
0.0
 20
0.0
 30
0.0
 70
   128
 71
   361
 72
   341
 73
   307
  0
VERTEX
  5
160E
330
1218
100
AcDbEntity
  8
0
 62
     7
100
AcDbFaceRecord
 10
0.0
 20
0.0
 30
0.0
 70
   128
 71
   361
 72
   346
 73
   341
  0
VERTEX
  5
160F
330
1218
100
AcDbEntity
  8
0
 62
     7
100
AcDbFaceRecord
 10
0.0
 20
0.0
 30
0.0
 70
   128
 71
   361
 72
   350
 73
   346
  0
VERTEX
  5
1610
330
1218
100
AcDbEntity
  8
0
 62
     7
100
AcDbFaceRecord
 10
0.0
 20
0.0
 30
0.0
 70
   128
 71
   361
 72
   351
 73
   350
  0
VERTEX
  5
1611
330
1218
100
AcDbEntity
  8
0
 62
     7
100
AcDbFaceRecord
 10
0.0
 20
0.0
 30
0.0
 70
   128
 71
   361
 72
   309
 73
   351
  0
VERTEX
  5
1612
330
1218
100
AcDbEntity
  8
0
 62
     7
100
AcDbFaceRecord
 10
0.0
 20
0.0
 30
0.0
 70
   128
 71
   309
 72
   361
 73
   307
  0
VERTEX
  5
1613
330
1218
100
AcDbEntity
  8
0
 62
     7
100
AcDbFaceRecord
 10
0.0
 20
0.0
 30
0.0
 70
   128
 71
   362
 72
   337
 73
   314
  0
VERTEX
  5
1614
330
1218
100
AcDbEntity
  8
0
 62
     7
100
AcDbFaceRecord
 10
0.0
 20
0.0
 30
0.0
 70
   128
 71
   362
 72
   340
 73
   337
  0
VERTEX
  5
1615
330
1218
100
AcDbEntity
  8
0
 62
     7
100
AcDbFaceRecord
 10
0.0
 20
0.0
 30
0.0
 70
   128
 71
   362
 72
   345
 73
   340
  0
VERTEX
  5
1616
330
1218
100
AcDbEntity
  8
0
 62
     7
100
AcDbFaceRecord
 10
0.0
 20
0.0
 30
0.0
 70
   128
 71
   362
 72
   341
 73
   345
  0
VERTEX
  5
1617
330
1218
100
AcDbEntity
  8
0
 62
     7
100
AcDbFaceRecord
 10
0.0
 20
0.0
 30
0.0
 70
   128
 71
   362
 72
   299
 73
   341
  0
VERTEX
  5
1618
330
1218
100
AcDbEntity
  8
0
 62
     7
100
AcDbFaceRecord
 10
0.0
 20
0.0
 30
0.0
 70
   128
 71
   299
 72
   362
 73
   314
  0
VERTEX
  5
1619
330
1218
100
AcDbEntity
  8
0
 62
     7
100
AcDbFaceRecord
 10
0.0
 20
0.0
 30
0.0
 70
   128
 71
   363
 72
   331
 73
   303
  0
VERTEX
  5
161A
330
1218
100
AcDbEntity
  8
0
 62
     7
100
AcDbFaceRecord
 10
0.0
 20
0.0
 30
0.0
 70
   128
 71
   363
 72
   336
 73
   331
  0
VERTEX
  5
161B
330
1218
100
AcDbEntity
  8
0
 62
     7
100
AcDbFaceRecord
 10
0.0
 20
0.0
 30
0.0
 70
   128
 71
   363
 72
   357
 73
   336
  0
VERTEX
  5
161C
330
1218
100
AcDbEntity
  8
0
 62
     7
100
AcDbFaceRecord
 10
0.0
 20
0.0
 30
0.0
 70
   128
 71
   363
 72
   339
 73
   357
  0
VERTEX
  5
161D
330
1218
100
AcDbEntity
  8
0
 62
     7
100
AcDbFaceRecord
 10
0.0
 20
0.0
 30
0.0
 70
   128
 71
   363
 72
   302
 73
   339
  0
VERTEX
  5
161E
330
1218
100
AcDbEntity
  8
0
 62
     7
100
AcDbFaceRecord
 10
0.0
 20
0.0
 30
0.0
 70
   128
 71
   302
 72
   363
 73
   303
  0
VERTEX
  5
161F
330
1218
100
AcDbEntity
  8
0
 62
     7
100
AcDbFaceRecord
 10
0.0
 20
0.0
 30
0.0
 70
   128
 71
   364
 72
   330
 73
   306
  0
VERTEX
  5
1620
330
1218
100
AcDbEntity
  8
0
 62
     7
100
AcDbFaceRecord
 10
0.0
 20
0.0
 30
0.0
 70
   128
 71
   364
 72
   329
 73
   330
  0
VERTEX
  5
1621
330
1218
100
AcDbEntity
  8
0
 62
     7
100
AcDbFaceRecord
 10
0.0
 20
0.0
 30
0.0
 70
   128
 71
   364
 72
   335
 73
   329
  0
VERTEX
  5
1622
330
1218
100
AcDbEntity
  8
0
 62
     7
100
AcDbFaceRecord
 10
0.0
 20
0.0
 30
0.0
 70
   128
 71
   364
 72
   331
 73
   335
  0
VERTEX
  5
1623
330
1218
100
AcDbEntity
  8
0
 62
     7
100
AcDbFaceRecord
 10
0.0
 20
0.0
 30
0.0
 70
   128
 71
   364
 72
   317
 73
   331
  0
VERTEX
  5
1624
330
1218
100
AcDbEntity
  8
0
 62
     7
100
AcDbFaceRecord
 10
0.0
 20
0.0
 30
0.0
 70
   128
 71
   317
 72
   364
 73
   306
  0
VERTEX
  5
1625
330
1218
100
AcDbEntity
  8
0
 62
     7
100
AcDbFaceRecord
 10
0.0
 20
0.0
 30
0.0
 70
   128
 71
    10
 72
    21
 73
   322
  0
VERTEX
  5
1626
330
1218
100
AcDbEntity
  8
0
 62
     7
100
AcDbFaceRecord
 10
0.0
 20
0.0
 30
0.0
 70
   128
 71
   324
 72
   322
 73
   328
  0
VERTEX
  5
1627
330
1218
100
AcDbEntity
  8
0
 62
     7
100
AcDbFaceRecord
 10
0.0
 20
0.0
 30
0.0
 70
   128
 71
   324
 72
    10
 73
   322
  0
VERTEX
  5
1628
330
1218
100
AcDbEntity
  8
0
 62
     7
100
AcDbFaceRecord
 10
0.0
 20
0.0
 30
0.0
 70
   128
 71
    20
 72
    10
 73
   324
  0
VERTEX
  5
1629
330
1218
100
AcDbEntity
  8
0
 62
     7
100
AcDbFaceRecord
 10
0.0
 20
0.0
 30
0.0
 70
   128
 71
    20
 72
   324
 73
    18
  0
VERTEX
  5
162A
330
1218
100
AcDbEntity
  8
0
 62
     7
100
AcDbFaceRecord
 10
0.0
 20
0.0
 30
0.0
 70
   128
 71
   365
 72
    19
 73
   323
  0
VERTEX
  5
162B
330
1218
100
AcDbEntity
  8
0
 62
     7
100
AcDbFaceRecord
 10
0.0
 20
0.0
 30
0.0
 70
   128
 71
   366
 72
   326
 73
   325
  0
VERTEX
  5
162C
330
1218
100
AcDbEntity
  8
0
 62
     7
100
AcDbFaceRecord
 10
0.0
 20
0.0
 30
0.0
 70
   128
 71
   366
 72
   328
 73
   326
  0
VERTEX
  5
162D
330
1218
100
AcDbEntity
  8
0
 62
     7
100
AcDbFaceRecord
 10
0.0
 20
0.0
 30
0.0
 70
   128
 71
   366
 72
   324
 73
   328
  0
VERTEX
  5
162E
330
1218
100
AcDbEntity
  8
0
 62
     7
100
AcDbFaceRecord
 10
0.0
 20
0.0
 30
0.0
 70
   128
 71
   366
 72
   323
 73
   324
  0
VERTEX
  5
162F
330
1218
100
AcDbEntity
  8
0
 62
     7
100
AcDbFaceRecord
 10
0.0
 20
0.0
 30
0.0
 70
   128
 71
   366
 72
   365
 73
   323
  0
VERTEX
  5
1630
330
1218
100
AcDbEntity
  8
0
 62
     7
100
AcDbFaceRecord
 10
0.0
 20
0.0
 30
0.0
 70
   128
 71
   365
 72
   366
 73
   325
  0
VERTEX
  5
1631
330
1218
100
AcDbEntity
  8
0
 62
     7
100
AcDbFaceRecord
 10
0.0
 20
0.0
 30
0.0
 70
   128
 71
   367
 72
   333
 73
   332
  0
VERTEX
  5
1632
330
1218
100
AcDbEntity
  8
0
 62
     7
100
AcDbFaceRecord
 10
0.0
 20
0.0
 30
0.0
 70
   128
 71
   367
 72
   335
 73
   333
  0
VERTEX
  5
1633
330
1218
100
AcDbEntity
  8
0
 62
     7
100
AcDbFaceRecord
 10
0.0
 20
0.0
 30
0.0
 70
   128
 71
   367
 72
   329
 73
   335
  0
VERTEX
  5
1634
330
1218
100
AcDbEntity
  8
0
 62
     7
100
AcDbFaceRecord
 10
0.0
 20
0.0
 30
0.0
 70
   128
 71
   367
 72
   326
 73
   329
  0
VERTEX
  5
1635
330
1218
100
AcDbEntity
  8
0
 62
     7
100
AcDbFaceRecord
 10
0.0
 20
0.0
 30
0.0
 70
   128
 71
   367
 72
   327
 73
   326
  0
VERTEX
  5
1636
330
1218
100
AcDbEntity
  8
0
 62
     7
100
AcDbFaceRecord
 10
0.0
 20
0.0
 30
0.0
 70
   128
 71
   327
 72
   367
 73
   332
  0
VERTEX
  5
1637
330
1218
100
AcDbEntity
  8
0
 62
     7
100
AcDbFaceRecord
 10
0.0
 20
0.0
 30
0.0
 70
   128
 71
   368
 72
   358
 73
   360
  0
VERTEX
  5
1638
330
1218
100
AcDbEntity
  8
0
 62
     7
100
AcDbFaceRecord
 10
0.0
 20
0.0
 30
0.0
 70
   128
 71
   368
 72
   357
 73
   358
  0
VERTEX
  5
1639
330
1218
100
AcDbEntity
  8
0
 62
     7
100
AcDbFaceRecord
 10
0.0
 20
0.0
 30
0.0
 70
   128
 71
   368
 72
   336
 73
   357
  0
VERTEX
  5
163A
330
1218
100
AcDbEntity
  8
0
 62
     7
100
AcDbFaceRecord
 10
0.0
 20
0.0
 30
0.0
 70
   128
 71
   368
 72
   333
 73
   336
  0
VERTEX
  5
163B
330
1218
100
AcDbEntity
  8
0
 62
     7
100
AcDbFaceRecord
 10
0.0
 20
0.0
 30
0.0
 70
   128
 71
   368
 72
   334
 73
   333
  0
VERTEX
  5
163C
330
1218
100
AcDbEntity
  8
0
 62
     7
100
AcDbFaceRecord
 10
0.0
 20
0.0
 30
0.0
 70
   128
 71
   334
 72
   368
 73
   360
  0
VERTEX
  5
163D
330
1218
100
AcDbEntity
  8
0
 62
     7
100
AcDbFaceRecord
 10
0.0
 20
0.0
 30
0.0
 70
   128
 71
   360
 72
   359
 73
   342
  0
VERTEX
  5
163E
330
1218
100
AcDbEntity
  8
0
 62
     7
100
AcDbFaceRecord
 10
0.0
 20
0.0
 30
0.0
 70
   128
 71
   369
 72
   348
 73
   347
  0
VERTEX
  5
163F
330
1218
100
AcDbEntity
  8
0
 62
     7
100
AcDbFaceRecord
 10
0.0
 20
0.0
 30
0.0
 70
   128
 71
   369
 72
   346
 73
   348
  0
VERTEX
  5
1640
330
1218
100
AcDbEntity
  8
0
 62
     7
100
AcDbFaceRecord
 10
0.0
 20
0.0
 30
0.0
 70
   128
 71
   369
 72
   345
 73
   346
  0
VERTEX
  5
1641
330
1218
100
AcDbEntity
  8
0
 62
     7
100
AcDbFaceRecord
 10
0.0
 20
0.0
 30
0.0
 70
   128
 71
   369
 72
   343
 73
   345
  0
VERTEX
  5
1642
330
1218
100
AcDbEntity
  8
0
 62
     7
100
AcDbFaceRecord
 10
0.0
 20
0.0
 30
0.0
 70
   128
 71
   369
 72
   344
 73
   343
  0
VERTEX
  5
1643
330
1218
100
AcDbEntity
  8
0
 62
     7
100
AcDbFaceRecord
 10
0.0
 20
0.0
 30
0.0
 70
   128
 71
   344
 72
   369
 73
   347
  0
VERTEX
  5
1644
330
1218
100
AcDbEntity
  8
0
 62
     7
100
AcDbFaceRecord
 10
0.0
 20
0.0
 30
0.0
 70
   128
 71
   370
 72
   355
 73
   356
  0
VERTEX
  5
1645
330
1218
100
AcDbEntity
  8
0
 62
     7
100
AcDbFaceRecord
 10
0.0
 20
0.0
 30
0.0
 70
   128
 71
   370
 72
   352
 73
   355
  0
VERTEX
  5
1646
330
1218
100
AcDbEntity
  8
0
 62
     7
100
AcDbFaceRecord
 10
0.0
 20
0.0
 30
0.0
 70
   128
 71
   370
 72
   350
 73
   352
  0
VERTEX
  5
1647
330
1218
100
AcDbEntity
  8
0
 62
     7
100
AcDbFaceRecord
 10
0.0
 20
0.0
 30
0.0
 70
   128
 71
   370
 72
   348
 73
   350
  0
VERTEX
  5
1648
330
1218
100
AcDbEntity
  8
0
 62
     7
100
AcDbFaceRecord
 10
0.0
 20
0.0
 30
0.0
 70
   128
 71
   370
 72
   349
 73
   348
  0
VERTEX
  5
1649
330
1218
100
AcDbEntity
  8
0
 62
     7
100
AcDbFaceRecord
 10
0.0
 20
0.0
 30
0.0
 70
   128
 71
   349
 72
   370
 73
   356
  0
VERTEX
  5
164A
330
1218
100
AcDbEntity
  8
0
 62
     7
100
AcDbFaceRecord
 10
0.0
 20
0.0
 30
0.0
 70
   128
 71
    57
 72
    58
 73
   355
  0
VERTEX
  5
164B
330
1218
100
AcDbEntity
  8
0
 62
     7
100
AcDbFaceRecord
 10
0.0
 20
0.0
 30
0.0
 70
   128
 71
   371
 72
   354
 73
     9
  0
VERTEX
  5
164C
330
1218
100
AcDbEntity
  8
0
 62
     7
100
AcDbFaceRecord
 10
0.0
 20
0.0
 30
0.0
 70
   128
 71
   371
 72
   353
 73
   354
  0
VERTEX
  5
164D
330
1218
100
AcDbEntity
  8
0
 62
     7
100
AcDbFaceRecord
 10
0.0
 20
0.0
 30
0.0
 70
   128
 71
   371
 72
   352
 73
   353
  0
VERTEX
  5
164E
330
1218
100
AcDbEntity
  8
0
 62
     7
100
AcDbFaceRecord
 10
0.0
 20
0.0
 30
0.0
 70
   128
 71
   371
 72
   355
 73
   352
  0
VERTEX
  5
164F
330
1218
100
AcDbEntity
  8
0
 62
     7
100
AcDbFaceRecord
 10
0.0
 20
0.0
 30
0.0
 70
   128
 71
   371
 72
    57
 73
   355
  0
VERTEX
  5
1650
330
1218
100
AcDbEntity
  8
0
 62
     7
100
AcDbFaceRecord
 10
0.0
 20
0.0
 30
0.0
 70
   128
 71
    56
 72
    57
 73
   371
  0
VERTEX
  5
1651
330
1218
100
AcDbEntity
  8
0
 62
     7
100
AcDbFaceRecord
 10
0.0
 20
0.0
 30
0.0
 70
   128
 71
    56
 72
   371
 73
     9
  0
VERTEX
  5
1652
330
1218
100
AcDbEntity
  8
0
 62
     7
100
AcDbFaceRecord
 10
0.0
 20
0.0
 30
0.0
 70
   128
 71
   311
 72
   351
 73
   309
  0
VERTEX
  5
1653
330
1218
100
AcDbEntity
  8
0
 62
     7
100
AcDbFaceRecord
 10
0.0
 20
0.0
 30
0.0
 70
   128
 71
   311
 72
   353
 73
   351
  0
VERTEX
  5
1654
330
1218
100
AcDbEntity
  8
0
 62
     7
100
AcDbFaceRecord
 10
0.0
 20
0.0
 30
0.0
 70
   128
 71
   311
 72
   354
 73
   353
  0
VERTEX
  5
1655
330
1218
100
AcDbEntity
  8
0
 62
     7
100
AcDbFaceRecord
 10
0.0
 20
0.0
 30
0.0
 70
   128
 71
   311
 72
    55
 73
   354
  0
VERTEX
  5
1656
330
1218
100
AcDbEntity
  8
0
 62
     7
100
AcDbFaceRecord
 10
0.0
 20
0.0
 30
0.0
 70
   128
 71
    62
 72
   356
 73
    60
  0
VERTEX
  5
1657
330
1218
100
AcDbEntity
  8
0
 62
     7
100
AcDbFaceRecord
 10
0.0
 20
0.0
 30
0.0
 70
   128
 71
   349
 72
   356
 73
    62
  0
VERTEX
  5
1658
330
1218
100
AcDbEntity
  8
0
 62
     7
100
AcDbFaceRecord
 10
0.0
 20
0.0
 30
0.0
 70
   128
 71
    65
 72
   347
 73
    63
  0
VERTEX
  5
1659
330
1218
100
AcDbEntity
  8
0
 62
     7
100
AcDbFaceRecord
 10
0.0
 20
0.0
 30
0.0
 70
   128
 71
   344
 72
   347
 73
    65
  0
VERTEX
  5
165A
330
1218
100
AcDbEntity
  8
0
 62
     7
100
AcDbFaceRecord
 10
0.0
 20
0.0
 30
0.0
 70
   128
 71
    66
 72
   342
 73
    64
  0
VERTEX
  5
165B
330
1218
100
AcDbEntity
  8
0
 62
     7
100
AcDbFaceRecord
 10
0.0
 20
0.0
 30
0.0
 70
   128
 71
   360
 72
   342
 73
    66
  0
VERTEX
  5
165C
330
1218
100
AcDbEntity
  8
0
 62
     7
100
AcDbFaceRecord
 10
0.0
 20
0.0
 30
0.0
 70
   128
 71
    68
 72
   334
 73
    67
  0
VERTEX
  5
165D
330
1218
100
AcDbEntity
  8
0
 62
     7
100
AcDbFaceRecord
 10
0.0
 20
0.0
 30
0.0
 70
   128
 71
   332
 72
   334
 73
    68
  0
VERTEX
  5
165E
330
1218
100
AcDbEntity
  8
0
 62
     7
100
AcDbFaceRecord
 10
0.0
 20
0.0
 30
0.0
 70
   128
 71
    59
 72
   327
 73
    69
  0
VERTEX
  5
165F
330
1218
100
AcDbEntity
  8
0
 62
     7
100
AcDbFaceRecord
 10
0.0
 20
0.0
 30
0.0
 70
   128
 71
   325
 72
   327
 73
    59
  0
VERTEX
  5
1660
330
1218
100
AcDbEntity
  8
0
 62
     7
100
AcDbFaceRecord
 10
0.0
 20
0.0
 30
0.0
 70
   128
 71
    17
 72
   365
 73
    61
  0
VERTEX
  5
1661
330
1218
100
AcDbEntity
  8
0
 62
     7
100
AcDbFaceRecord
 10
0.0
 20
0.0
 30
0.0
 70
   128
 71
    19
 72
   365
 73
    17
  0
VERTEX
  5
1662
330
1218
100
AcDbEntity
  8
0
 62
     7
100
AcDbFaceRecord
 10
0.0
 20
0.0
 30
0.0
 70
   128
 71
   325
 72
    61
 73
   365
  0
VERTEX
  5
1663
330
1218
100
AcDbEntity
  8
0
 62
     7
100
AcDbFaceRecord
 10
0.0
 20
0.0
 30
0.0
 70
   128
 71
    61
 72
   325
 73
    59
  0
VERTEX
  5
1664
330
1218
100
AcDbEntity
  8
0
 62
     7
100
AcDbFaceRecord
 10
0.0
 20
0.0
 30
0.0
 70
   128
 71
   332
 72
    69
 73
   327
  0
VERTEX
  5
1665
330
1218
100
AcDbEntity
  8
0
 62
     7
100
AcDbFaceRecord
 10
0.0
 20
0.0
 30
0.0
 70
   128
 71
    69
 72
   332
 73
    68
  0
VERTEX
  5
1666
330
1218
100
AcDbEntity
  8
0
 62
     7
100
AcDbFaceRecord
 10
0.0
 20
0.0
 30
0.0
 70
   128
 71
   360
 72
    67
 73
   334
  0
VERTEX
  5
1667
330
1218
100
AcDbEntity
  8
0
 62
     7
100
AcDbFaceRecord
 10
0.0
 20
0.0
 30
0.0
 70
   128
 71
    67
 72
   360
 73
    66
  0
VERTEX
  5
1668
330
1218
100
AcDbEntity
  8
0
 62
     7
100
AcDbFaceRecord
 10
0.0
 20
0.0
 30
0.0
 70
   128
 71
   344
 72
    64
 73
   342
  0
VERTEX
  5
1669
330
1218
100
AcDbEntity
  8
0
 62
     7
100
AcDbFaceRecord
 10
0.0
 20
0.0
 30
0.0
 70
   128
 71
    64
 72
   344
 73
    65
  0
VERTEX
  5
166A
330
1218
100
AcDbEntity
  8
0
 62
     7
100
AcDbFaceRecord
 10
0.0
 20
0.0
 30
0.0
 70
   128
 71
   349
 72
    63
 73
   347
  0
VERTEX
  5
166B
330
1218
100
AcDbEntity
  8
0
 62
     7
100
AcDbFaceRecord
 10
0.0
 20
0.0
 30
0.0
 70
   128
 71
    63
 72
   349
 73
    62
  0
VERTEX
  5
166C
330
1218
100
AcDbEntity
  8
0
 62
     7
100
AcDbFaceRecord
 10
0.0
 20
0.0
 30
0.0
 70
   128
 71
    58
 72
    60
 73
   356
  0
VERTEX
  5
166D
330
1218
100
AcDbEntity
  8
0
 62
     7
100
AcDbFaceRecord
 10
0.0
 20
0.0
 30
0.0
 70
   128
 71
     8
 72
    60
 73
    58
  0
SEQEND
  5
166E
330
1218
100
AcDbEntity
  8
0
 62
     7
  0
INSERT
  5
166F
330
1F
100
AcDbEntity
  8
0
100
AcDbBlockReference
 66
     1
  2
RM_SDB
 10
-11.4365148503555
 20
0.0
 30
-0.0000000033307123
1001
AVE_MATERIAL
1002
{
1000
*GLOBAL*01
1000
2
1000

1002
{
1002
}
1002
{
1070
    39
1002
{
1002
{
1010
1.428571462631224
1020
1.428571462631224
1030
1.428571462631224
1002
}
1040
0.6999999880790711
1000

1040
0.0
1002
{
1002
}
1040
0.0
1002
{
1002
}
1040
0.0
1002
}
1002
{
1002
{
1010
1.0
1020
1.0
1030
1.0
1002
}
1040
1.0
1000

1040
0.0
1002
{
1002
}
1040
0.0
1002
{
1002
}
1040
0.0
1002
}
1002
{
1002
{
1010
5.0
1020
5.0
1030
5.0
1002
}
1040
0.2000000029802322
1000

1040
0.0
1002
{
1002
}
1040
0.0
1002
{
1002
}
1040
0.0
1002
}
1002
{
1070
     0
1002
{
1070
     1
1002
{
1040
1.0
1040
1.0
1000

1040
0.0
1002
{
1002
}
1040
0.0
1002
{
1002
}
1040
0.0
1002
}
1002
}
1040
0.0
1040
0.0
1040
0.0
1002
}
1002
{
1040
0.0
1040
0.0
1000

1040
0.0
1002
{
1002
}
1040
0.0
1002
{
1002
}
1040
0.0
1002
}
1002
{
1040
0.5
1040
1.0
1000

1040
0.0
1002
{
1002
}
1040
0.0
1002
{
1002
}
1040
0.0
1002
}
1002
{
1070
     0
1040
0.0
1002
{
1002
}
1040
0.0
1002
{
1002
}
1040
0.0
1002
}
1002
{
1040
0.0
1002
{
1002
{
1010
0.0
1020
0.0
1030
0.0
1002
}
1040
0.0
1000

1040
0.0
1002
{
1002
}
1040
0.0
1002
{
1002
}
1040
0.0
1002
}
1002
}
1002
{
1002
{
1070
     1
1002
{
1040
0.0
1040
1.0
1000

1040
0.0
1002
{
1002
}
1040
0.0
1002
{
1002
}
1040
0.0
1002
}
1002
}
1040
0.0
1002
{
1002
}
1010
0.0
1020
0.0
1030
0.0
1010
0.0
1020
0.0
1030
0.0
1010
0.0
1020
0.0
1030
0.0
1070
     0
1002
}
1002
{
1002
{
1040
0.0
1040
0.0
1002
{
1070
     0
1002
}
1002
}
1070
     0
1040
0.0
1002
{
1002
}
1002
}
1002
{
1002
}
1002
}
1002
{
1071
        3
1070
     3
1070
     0
1002
{
1070
     2
1070
     1
1070
     0
1040
0.0
1002
}
1070
     0
1070
     2
1002
{
1002
}
1002
}
1002
{
1040
8030.0
1040
190.3000030517578
1040
0.3050000071525574
1040
228.0
1040
545.0
1040
14.0
1040
17.39999961853027
1040
0.4560000002384186
1002
}
1000
D7D
1002
}
  0
ATTRIB
  5
1670
330
166F
100
AcDbEntity
  8
0
100
AcDbText
 10
-11.4365148503555
 20
0.0
 30
-0.0000000033307123
 40
0.2
  1
*GLOBAL*01
100
AcDbAttribute
  2
NAME
 70
     1
  0
ATTRIB
  5
1671
330
166F
100
AcDbEntity
  8
0
100
AcDbText
 10
-11.4365148503555
 20
0.0
 30
-0.0000000033307123
 40
0.2
  1

100
AcDbAttribute
  2
ACADCOLOR
 70
     1
  0
ATTRIB
  5
1672
330
166F
100
AcDbEntity
  8
0
100
AcDbText
 10
-11.4365148503555
 20
0.0
 30
-0.0000000033307123
 40
0.2
  1
1.0000,1.0000,1.0000
100
AcDbAttribute
  2
COLOR
 70
     1
  0
ATTRIB
  5
1673
330
166F
100
AcDbEntity
  8
0
100
AcDbText
 10
-11.4365148503555
 20
0.0
 30
-0.0000000033307123
 40
0.2
  1
1.0,1.0,1.0
100
AcDbAttribute
  2
OPACITY
 70
     1
  0
ATTRIB
  5
1674
330
166F
100
AcDbEntity
  8
0
100
AcDbText
 10
-11.4365148503555
 20
0.0
 30
-0.0000000033307123
 40
0.2
  1
("nullsurf" "")
100
AcDbAttribute
  2
SURFACE
 70
     1
  0
ATTRIB
  5
1675
330
166F
100
AcDbEntity
  8
0
100
AcDbText
 10
-11.4365148503555
 20
0.0
 30
-0.0000000033307123
 40
0.2
  1
(11 "Ka" "0.7")(11 "Kd" "1")(11 "Ks" "0.2")(11 "roughness" "0.5")
100
AcDbAttribute
  2
SURF1
 70
     1
  0
ATTRIB
  5
1676
330
166F
100
AcDbEntity
  8
0
100
AcDbText
 10
-11.4365148503555
 20
0.0
 30
-0.0000000033307123
 40
0.2
  1

100
AcDbAttribute
  2
SURF2
 70
     1
  0
ATTRIB
  5
1677
330
166F
100
AcDbEntity
  8
0
100
AcDbText
 10
-11.4365148503555
 20
0.0
 30
-0.0000000033307123
 40
0.2
  1

100
AcDbAttribute
  2
SURF3
 70
     1
  0
ATTRIB
  5
1678
330
166F
100
AcDbEntity
  8
0
100
AcDbText
 10
-11.4365148503555
 20
0.0
 30
-0.0000000033307123
 40
0.2
  1

100
AcDbAttribute
  2
SURF4
 70
     1
  0
ATTRIB
  5
1679
330
166F
100
AcDbEntity
  8
0
100
AcDbText
 10
-11.4365148503555
 20
0.0
 30
-0.0000000033307123
 40
0.2
  1
-1.0
100
AcDbAttribute
  2
SHADINGRATE
 70
     1
  0
ATTRIB
  5
167A
330
166F
100
AcDbEntity
  8
0
100
AcDbText
 10
-11.4365148503555
 20
0.0
 30
-0.0000000033307123
 40
0.2
  1
("nulldisp" "")
100
AcDbAttribute
  2
DISPLACEMENT
 70
     1
  0
ATTRIB
  5
167B
330
166F
100
AcDbEntity
  8
0
100
AcDbText
 10
-11.4365148503555
 20
0.0
 30
-0.0000000033307123
 40
0.2
  1

100
AcDbAttribute
  2
DISP1
 70
     1
  0
ATTRIB
  5
167C
330
166F
100
AcDbEntity
  8
0
100
AcDbText
 10
-11.4365148503555
 20
0.0
 30
-0.0000000033307123
 40
0.2
  1

100
AcDbAttribute
  2
DISP2
 70
     1
  0
ATTRIB
  5
167D
330
166F
100
AcDbEntity
  8
0
100
AcDbText
 10
-11.4365148503555
 20
0.0
 30
-0.0000000033307123
 40
0.2
  1

100
AcDbAttribute
  2
DISP3
 70
     1
  0
ATTRIB
  5
167E
330
166F
100
AcDbEntity
  8
0
100
AcDbText
 10
-11.4365148503555
 20
0.0
 30
-0.0000000033307123
 40
0.2
  1

100
AcDbAttribute
  2
DISP4
 70
     1
  0
ATTRIB
  5
167F
330
166F
100
AcDbEntity
  8
0
100
AcDbText
 10
-11.4365148503555
 20
0.0
 30
-0.0000000033307123
 40
0.2
  1
0.0
100
AcDbAttribute
  2
DBOUND
 70
     1
  0
ATTRIB
  5
1680
330
166F
100
AcDbEntity
  8
0
100
AcDbText
 10
-11.4365148503555
 20
0.0
 30
-0.0000000033307123
 40
0.2
  1
0
100
AcDbAttribute
  2
SMOOTH
 70
     1
  0
ATTRIB
  5
1681
330
166F
100
AcDbEntity
  8
0
100
AcDbText
 10
-11.4365148503555
 20
0.0
 30
-0.0000000033307123
 40
0.2
  1
("" "")
100
AcDbAttribute
  2
ATMOSHPERE
 70
     1
  0
ATTRIB
  5
1682
330
166F
100
AcDbEntity
  8
0
100
AcDbText
 10
-11.4365148503555
 20
0.0
 30
-0.0000000033307123
 40
0.2
  1

100
AcDbAttribute
  2
ATMO1
 70
     1
  0
ATTRIB
  5
1683
330
166F
100
AcDbEntity
  8
0
100
AcDbText
 10
-11.4365148503555
 20
0.0
 30
-0.0000000033307123
 40
0.2
  1

100
AcDbAttribute
  2
ATMO2
 70
     1
  0
ATTRIB
  5
1684
330
166F
100
AcDbEntity
  8
0
100
AcDbText
 10
-11.4365148503555
 20
0.0
 30
-0.0000000033307123
 40
0.2
  1

100
AcDbAttribute
  2
ATMO3
 70
     1
  0
ATTRIB
  5
1685
330
166F
100
AcDbEntity
  8
0
100
AcDbText
 10
-11.4365148503555
 20
0.0
 30
-0.0000000033307123
 40
0.2
  1

100
AcDbAttribute
  2
ATMO4
 70
     1
  0
ATTRIB
  5
1686
330
166F
100
AcDbEntity
  8
0
100
AcDbText
 10
-11.4365148503555
 20
0.0
 30
-0.0000000033307123
 40
0.2
  1
0.0 0.0 1.0 0.0 0.0 1.0 1.0 1.0
100
AcDbAttribute
  2
TCCORD
 70
     1
  0
SEQEND
  5
1687
330
166F
100
AcDbEntity
  8
0
  0
ENDSEC
  0
SECTION
  2
OBJECTS
  0
DICTIONARY
  5
C
330
0
100
AcDbDictionary
281
     1
  3
ACAD_COLOR
350
7B7
  3
ACAD_GROUP
350
D
  3
ACAD_LAYOUT
350
1A
  3
ACAD_MATERIAL
350
7B6
  3
ACAD_MLEADERSTYLE
350
8CE
  3
ACAD_MLINESTYLE
350
17
  3
ACAD_PLOTSETTINGS
350
19
  3
ACAD_PLOTSTYLENAME
350
E
  3
ACAD_SCALELIST
350
8AC
  3
ACAD_TABLESTYLE
350
7B8
  3
ACAD_VISUALSTYLE
350
89B
  3
ACDB_RECOMPOSE_DATA
350
D93
  3
AcDbVariableDictionary
350
7AF
  3
AVE_ACITABLE
350
8DE
  3
DWGPROPS
350
1689
  0
DICTIONARY
  5
D85
330
10
100
AcDbDictionary
280
     1
281
     1
  3
ADSK_XREC_LAYER_RECONCILED
360
D86
  0
DICTIONARY
  5
D87
330
D2
100
AcDbDictionary
280
     1
281
     1
  3
ADSK_XREC_LAYER_RECONCILED
360
D88
  0
DICTIONARY
  5
D89
330
798
100
AcDbDictionary
280
     1
281
     1
  3
ADSK_XREC_LAYER_RECONCILED
360
D8A
  0
DICTIONARY
  5
D8B
330
8D9
100
AcDbDictionary
280
     1
281
     1
  3
ADSK_XREC_LAYER_RECONCILED
360
D8C
  0
DICTIONARY
  5
80B
330
7FA
100
AcDbDictionary
280
     1
281
     1
  3
ACAD_SORTENTS
360
80C
  0
DICTIONARY
  5
7B7
102
{ACAD_REACTORS
330
C
102
}
330
C
100
AcDbDictionary
281
     1
  0
DICTIONARY
  5
D
102
{ACAD_REACTORS
330
C
102
}
330
C
100
AcDbDictionary
281
     1
  0
DICTIONARY
  5
1A
102
{ACAD_REACTORS
330
C
102
}
330
C
100
AcDbDictionary
281
     1
  3
Layout1
350
1E
  3
Layout2
350
26
  3
Model
350
22
  0
DICTIONARY
  5
7B6
102
{ACAD_REACTORS
330
C
102
}
330
C
100
AcDbDictionary
281
     1
  3
_GLOBAL_01
350
D7D
  3
ByBlock
350
88B
  3
ByLayer
350
883
  3
Global
350
893
  0
DICTIONARY
  5
8CE
102
{ACAD_REACTORS
330
C
102
}
330
C
100
AcDbDictionary
281
     1
  3
Standard
350
8CF
  0
DICTIONARY
  5
17
102
{ACAD_REACTORS
330
C
102
}
330
C
100
AcDbDictionary
281
     1
  3
Standard
350
18
  0
DICTIONARY
  5
19
102
{ACAD_REACTORS
330
C
102
}
330
C
100
AcDbDictionary
281
     1
  0
ACDBDICTIONARYWDFLT
  5
E
102
{ACAD_REACTORS
330
C
102
}
330
C
100
AcDbDictionary
281
     1
  3
Normal
350
F
100
AcDbDictionaryWithDefault
340
F
  0
DICTIONARY
  5
8AC
102
{ACAD_REACTORS
330
C
102
}
330
C
100
AcDbDictionary
281
     1
  3
A0
350
8AD
  3
A1
350
8AE
  3
A2
350
8AF
  3
A3
350
8B0
  3
A4
350
8B1
  3
A5
350
8B2
  3
A6
350
8B3
  3
A7
350
8B4
  3
A8
350
8B5
  3
A9
350
8B6
  3
B0
350
8B7
  3
B1
350
8B8
  3
B2
350
8B9
  3
B3
350
8BA
  3
B4
350
8BB
  3
B5
350
8BC
  3
B6
350
8BD
  3
B7
350
8BE
  3
B8
350
8BF
  3
B9
350
8C0
  3
C0
350
8C1
  3
C1
350
8C2
  3
C2
350
8C3
  3
C3
350
8C4
  3
C4
350
8C5
  3
C5
350
8C6
  3
C6
350
8C7
  3
C7
350
8C8
  3
C8
350
8C9
  3
C9
350
8CA
  3
D0
350
8CB
  3
D1
350
8CC
  3
D2
350
8CD
  0
DICTIONARY
  5
7B8
102
{ACAD_REACTORS
330
C
102
}
330
C
100
AcDbDictionary
281
     1
  3
Standard
350
7B9
  0
DICTIONARY
  5
89B
102
{ACAD_REACTORS
330
C
102
}
330
C
100
AcDbDictionary
281
     1
  3
2dWireframe
350
8A1
  3
3D Hidden
350
8A3
  3
3dWireframe
350
8A2
  3
Basic
350
8A0
  3
Brighten
350
8A7
  3
ColorChange
350
8AB
  3
Conceptual
350
8A4
  3
Dim
350
8A6
  3
Facepattern
350
8AA
  3
Flat
350
89C
  3
FlatWithEdges
350
89D
  3
Gouraud
350
89E
  3
GouraudWithEdges
350
89F
  3
Linepattern
350
8A9
  3
Realistic
350
8A5
  3
Thicken
350
8A8
  0
XRECORD
  5
D93
102
{ACAD_REACTORS
330
C
102
}
330
C
100
AcDbXrecord
280
     1
 90
        1
330
7B9
  0
DICTIONARY
  5
7AF
102
{ACAD_REACTORS
330
C
102
}
330
C
100
AcDbDictionary
281
     1
  3
CANNOSCALE
350
D8E
  3
CMLEADERSTYLE
350
D8D
  3
CTABLESTYLE
350
7C8
  3
DIMASSOC
350
7B0
  3
INDEXCTL
350
D90
  3
SORTENTS
350
D8F
  0
DICTIONARY
  5
8DE
102
{ACAD_REACTORS
330
C
102
}
330
C
100
AcDbDictionary
281
     1
  0
XRECORD
  5
1689
102
{ACAD_REACTORS
330
C
102
}
330
C
100
AcDbXrecord
280
     1
  1
DWGPROPS COOKIE
  2

  3

  4

  6

  7

  8
Christian
  9

300
=
301
=
302
=
303
=
304
=
305
=
306
=
307
=
308
=
309
=
 40
0.5970168402777779
 41
2452587.497350764
 42
2454459.465605602
  1

 90
        0
  0
XRECORD
  5
D86
102
{ACAD_REACTORS
330
D85
102
}
330
D85
100
AcDbXrecord
280
     1
290
     1
  0
XRECORD
  5
D88
102
{ACAD_REACTORS
330
D87
102
}
330
D87
100
AcDbXrecord
280
     1
290
     1
  0
XRECORD
  5
D8A
102
{ACAD_REACTORS
330
D89
102
}
330
D89
100
AcDbXrecord
280
     1
290
     1
  0
XRECORD
  5
D8C
102
{ACAD_REACTORS
330
D8B
102
}
330
D8B
100
AcDbXrecord
280
     1
290
     1
  0
SORTENTSTABLE
  5
80C
102
{ACAD_REACTORS
330
80B
102
}
330
80B
100
AcDbSortentsTable
330
7FA
  0
LAYOUT
  5
1E
102
{ACAD_XDICTIONARY
360
168A
102
}
102
{ACAD_REACTORS
330
1A
102
}
330
1A
100
AcDbPlotSettings
  1

  2

  4

  6

 40
0.0
 41
0.0
 42
0.0
 43
0.0
 44
0.0
 45
0.0
 46
0.0
 47
0.0
 48
0.0
 49
0.0
140
0.0
141
0.0
142
1.0
143
1.0
 70
   688
 72
     0
 73
     0
 74
     5
  7

 75
    16
147
1.0
148
0.0
149
0.0
100
AcDbLayout
  1
Layout1
 70
     1
 71
     1
 10
0.0
 20
0.0
 11
12.0
 21
9.0
 12
0.0
 22
0.0
 32
0.0
 14
1.000000000000000E+20
 24
1.000000000000000E+20
 34
1.000000000000000E+20
 15
-1.000000000000000E+20
 25
-1.000000000000000E+20
 35
-1.000000000000000E+20
146
0.0
 13
0.0
 23
0.0
 33
0.0
 16
1.0
 26
0.0
 36
0.0
 17
0.0
 27
1.0
 37
0.0
 76
     0
330
1B
  0
LAYOUT
  5
26
102
{ACAD_XDICTIONARY
360
168E
102
}
102
{ACAD_REACTORS
330
1A
102
}
330
1A
100
AcDbPlotSettings
  1

  2

  4

  6

 40
0.0
 41
0.0
 42
0.0
 43
0.0
 44
0.0
 45
0.0
 46
0.0
 47
0.0
 48
0.0
 49
0.0
140
0.0
141
0.0
142
1.0
143
1.0
 70
   688
 72
     0
 73
     0
 74
     5
  7

 75
    16
147
1.0
148
0.0
149
0.0
100
AcDbLayout
  1
Layout2
 70
     1
 71
     2
 10
0.0
 20
0.0
 11
12.0
 21
9.0
 12
0.0
 22
0.0
 32
0.0
 14
0.0
 24
0.0
 34
0.0
 15
0.0
 25
0.0
 35
0.0
146
0.0
 13
0.0
 23
0.0
 33
0.0
 16
1.0
 26
0.0
 36
0.0
 17
0.0
 27
1.0
 37
0.0
 76
     0
330
23
  0
LAYOUT
  5
22
102
{ACAD_XDICTIONARY
360
168C
102
}
102
{ACAD_REACTORS
330
1A
102
}
330
1A
100
AcDbPlotSettings
  1

  2
EPSON Stylus C80 Series
  4
Letter
  6

 40
3.757083177566528
 41
14.76376056671143
 42
3.757080078125
 43
3.757080078125
 44
215.8999938964844
 45
279.3999938964844
 46
0.0
 47
0.0
 48
0.0
 49
0.0
140
0.0
141
0.0
142
1.0
143
1.0
 70
 11952
 72
     0
 73
     1
 74
     0
  7

 75
     0
147
1.0
148
-32.82152498042917
149
339.8261437359589
100
AcDbLayout
  1
Model
 70
     1
 71
     0
 10
0.0
 20
0.0
 11
12.0
 21
9.0
 12
0.0
 22
0.0
 32
0.0
 14
0.0
 24
0.0
 34
0.0
 15
0.0
 25
0.0
 35
0.0
146
0.0
 13
0.0
 23
0.0
 33
0.0
 16
1.0
 26
0.0
 36
0.0
 17
0.0
 27
1.0
 37
0.0
 76
     0
330
1F
331
86E
  0
MATERIAL
  5
D7D
102
{ACAD_XDICTIONARY
360
D7E
102
}
102
{ACAD_REACTORS
330
7B6
102
}
330
7B6
100
AcDbMaterial
  1
_GLOBAL_01
 70
     1
 40
0.6999999880790711
 90
-1033081748
 71
     1
 91
-1023410177
 72
     0
 76
     1
 45
0.2000000029802322
 92
-1023673349
 77
     0
171
     0
175
     0
179
     0
  0
MATERIAL
  5
88B
102
{ACAD_XDICTIONARY
360
88C
102
}
102
{ACAD_REACTORS
330
7B6
102
}
330
7B6
100
AcDbMaterial
  1
ByBlock
 72
     0
 43
0.0208333333333333
 43
0.0
 43
0.0
 43
0.0
 43
0.0
 43
0.0208333333333333
 43
0.0
 43
0.0
 43
0.0
 43
0.0
 43
1.0
 43
0.0
 43
0.0
 43
0.0
 43
0.0
 43
1.0
 77
     0
 47
0.0208333333333333
 47
0.0
 47
0.0
 47
0.0
 47
0.0
 47
0.0208333333333333
 47
0.0
 47
0.0
 47
0.0
 47
0.0
 47
1.0
 47
0.0
 47
0.0
 47
0.0
 47
0.0
 47
1.0
171
     0
 49
0.0208333333333333
 49
0.0
 49
0.0
 49
0.0
 49
0.0
 49
0.0208333333333333
 49
0.0
 49
0.0
 49
0.0
 49
0.0
 49
1.0
 49
0.0
 49
0.0
 49
0.0
 49
0.0
 49
1.0
175
     0
142
0.0208333333333333
142
0.0
142
0.0
142
0.0
142
0.0
142
0.0208333333333333
142
0.0
142
0.0
142
0.0
142
0.0
142
1.0
142
0.0
142
0.0
142
0.0
142
0.0
142
1.0
179
     0
144
0.0208333333333333
144
0.0
144
0.0
144
0.0
144
0.0
144
0.0208333333333333
144
0.0
144
0.0
144
0.0
144
0.0
144
1.0
144
0.0
144
0.0
144
0.0
144
0.0
144
1.0
147
0.0208333333333333
147
0.0
147
0.0
147
0.0
147
0.0
147
0.0208333333333333
147
0.0
147
0.0
147
0.0
147
0.0
147
1.0
147
0.0
147
0.0
147
0.0
147
0.0
147
1.0
  0
MATERIAL
  5
883
102
{ACAD_XDICTIONARY
360
884
102
}
102
{ACAD_REACTORS
330
7B6
102
}
330
7B6
100
AcDbMaterial
  1
ByLayer
 72
     0
 43
0.0208333333333333
 43
0.0
 43
0.0
 43
0.0
 43
0.0
 43
0.0208333333333333
 43
0.0
 43
0.0
 43
0.0
 43
0.0
 43
1.0
 43
0.0
 43
0.0
 43
0.0
 43
0.0
 43
1.0
 77
     0
 47
0.0208333333333333
 47
0.0
 47
0.0
 47
0.0
 47
0.0
 47
0.0208333333333333
 47
0.0
 47
0.0
 47
0.0
 47
0.0
 47
1.0
 47
0.0
 47
0.0
 47
0.0
 47
0.0
 47
1.0
171
     0
 49
0.0208333333333333
 49
0.0
 49
0.0
 49
0.0
 49
0.0
 49
0.0208333333333333
 49
0.0
 49
0.0
 49
0.0
 49
0.0
 49
1.0
 49
0.0
 49
0.0
 49
0.0
 49
0.0
 49
1.0
175
     0
142
0.0208333333333333
142
0.0
142
0.0
142
0.0
142
0.0
142
0.0208333333333333
142
0.0
142
0.0
142
0.0
142
0.0
142
1.0
142
0.0
142
0.0
142
0.0
142
0.0
142
1.0
179
     0
144
0.0208333333333333
144
0.0
144
0.0
144
0.0
144
0.0
144
0.0208333333333333
144
0.0
144
0.0
144
0.0
144
0.0
144
1.0
144
0.0
144
0.0
144
0.0
144
0.0
144
1.0
147
0.0208333333333333
147
0.0
147
0.0
147
0.0
147
0.0
147
0.0208333333333333
147
0.0
147
0.0
147
0.0
147
0.0
147
1.0
147
0.0
147
0.0
147
0.0
147
0.0
147
1.0
  0
MATERIAL
  5
893
102
{ACAD_XDICTIONARY
360
894
102
}
102
{ACAD_REACTORS
330
7B6
102
}
330
7B6
100
AcDbMaterial
  1
Global
 72
     0
 43
0.0208333333333333
 43
0.0
 43
0.0
 43
0.0
 43
0.0
 43
0.0208333333333333
 43
0.0
 43
0.0
 43
0.0
 43
0.0
 43
1.0
 43
0.0
 43
0.0
 43
0.0
 43
0.0
 43
1.0
 77
     0
 47
0.0208333333333333
 47
0.0
 47
0.0
 47
0.0
 47
0.0
 47
0.0208333333333333
 47
0.0
 47
0.0
 47
0.0
 47
0.0
 47
1.0
 47
0.0
 47
0.0
 47
0.0
 47
0.0
 47
1.0
171
     0
 49
0.0208333333333333
 49
0.0
 49
0.0
 49
0.0
 49
0.0
 49
0.0208333333333333
 49
0.0
 49
0.0
 49
0.0
 49
0.0
 49
1.0
 49
0.0
 49
0.0
 49
0.0
 49
0.0
 49
1.0
175
     0
142
0.0208333333333333
142
0.0
142
0.0
142
0.0
142
0.0
142
0.0208333333333333
142
0.0
142
0.0
142
0.0
142
0.0
142
1.0
142
0.0
142
0.0
142
0.0
142
0.0
142
1.0
179
     0
144
0.0208333333333333
144
0.0
144
0.0
144
0.0
144
0.0
144
0.0208333333333333
144
0.0
144
0.0
144
0.0
144
0.0
144
1.0
144
0.0
144
0.0
144
0.0
144
0.0
144
1.0
147
0.0208333333333333
147
0.0
147
0.0
147
0.0
147
0.0
147
0.0208333333333333
147
0.0
147
0.0
147
0.0
147
0.0
147
1.0
147
0.0
147
0.0
147
0.0
147
0.0
147
1.0
  0
MLEADERSTYLE
  5
8CF
102
{ACAD_REACTORS
330
8CE
102
}
330
8CE
100
AcDbMLeaderStyle
170
     2
171
     1
172
     0
 90
        2
 40
0.0
 41
0.0
173
     1
 91
-1056964608
340
14
 92
       -2
290
     1
 42
0.09
291
     1
 43
0.36
  3
Standard
 44
0.18
300

342
11
174
     1
178
     6
175
     1
176
     0
 93
-1056964608
 45
0.18
292
     0
297
     0
 46
0.18
 94
-1056964608
 47
1.0
 49
1.0
140
1.0
293
     1
141
0.0
294
     1
177
     0
142
1.0
295
     0
296
     0
143
0.125
1001
ACAD_MLEADERVER
1070
     2
  0
MLINESTYLE
  5
18
102
{ACAD_REACTORS
330
17
102
}
330
17
100
AcDbMlineStyle
  2
STANDARD
 70
     0
  3

 62
   256
 51
90.0
 52
90.0
 71
     2
 49
0.5
 62
   256
  6
BYLAYER
 49
-0.5
 62
   256
  6
BYLAYER
  0
ACDBPLACEHOLDER
  5
F
102
{ACAD_REACTORS
330
E
102
}
330
E
  0
SCALE
  5
8AD
102
{ACAD_REACTORS
330
8AC
102
}
330
8AC
100
AcDbScale
 70
     0
300
1:1
140
1.0
141
1.0
290
     1
  0
SCALE
  5
8AE
102
{ACAD_REACTORS
330
8AC
102
}
330
8AC
100
AcDbScale
 70
     0
300
1:2
140
1.0
141
2.0
290
     0
  0
SCALE
  5
8AF
102
{ACAD_REACTORS
330
8AC
102
}
330
8AC
100
AcDbScale
 70
     0
300
1:4
140
1.0
141
4.0
290
     0
  0
SCALE
  5
8B0
102
{ACAD_REACTORS
330
8AC
102
}
330
8AC
100
AcDbScale
 70
     0
300
1:5
140
1.0
141
5.0
290
     0
  0
SCALE
  5
8B1
102
{ACAD_REACTORS
330
8AC
102
}
330
8AC
100
AcDbScale
 70
     0
300
1:8
140
1.0
141
8.0
290
     0
  0
SCALE
  5
8B2
102
{ACAD_REACTORS
330
8AC
102
}
330
8AC
100
AcDbScale
 70
     0
300
1:10
140
1.0
141
10.0
290
     0
  0
SCALE
  5
8B3
102
{ACAD_REACTORS
330
8AC
102
}
330
8AC
100
AcDbScale
 70
     0
300
1:16
140
1.0
141
16.0
290
     0
  0
SCALE
  5
8B4
102
{ACAD_REACTORS
330
8AC
102
}
330
8AC
100
AcDbScale
 70
     0
300
1:20
140
1.0
141
20.0
290
     0
  0
SCALE
  5
8B5
102
{ACAD_REACTORS
330
8AC
102
}
330
8AC
100
AcDbScale
 70
     0
300
1:30
140
1.0
141
30.0
290
     0
  0
SCALE
  5
8B6
102
{ACAD_REACTORS
330
8AC
102
}
330
8AC
100
AcDbScale
 70
     0
300
1:40
140
1.0
141
40.0
290
     0
  0
SCALE
  5
8B7
102
{ACAD_REACTORS
330
8AC
102
}
330
8AC
100
AcDbScale
 70
     0
300
1:50
140
1.0
141
50.0
290
     0
  0
SCALE
  5
8B8
102
{ACAD_REACTORS
330
8AC
102
}
330
8AC
100
AcDbScale
 70
     0
300
1:100
140
1.0
141
100.0
290
     0
  0
SCALE
  5
8B9
102
{ACAD_REACTORS
330
8AC
102
}
330
8AC
100
AcDbScale
 70
     0
300
2:1
140
2.0
141
1.0
290
     0
  0
SCALE
  5
8BA
102
{ACAD_REACTORS
330
8AC
102
}
330
8AC
100
AcDbScale
 70
     0
300
4:1
140
4.0
141
1.0
290
     0
  0
SCALE
  5
8BB
102
{ACAD_REACTORS
330
8AC
102
}
330
8AC
100
AcDbScale
 70
     0
300
8:1
140
8.0
141
1.0
290
     0
  0
SCALE
  5
8BC
102
{ACAD_REACTORS
330
8AC
102
}
330
8AC
100
AcDbScale
 70
     0
300
10:1
140
10.0
141
1.0
290
     0
  0
SCALE
  5
8BD
102
{ACAD_REACTORS
330
8AC
102
}
330
8AC
100
AcDbScale
 70
     0
300
100:1
140
100.0
141
1.0
290
     0
  0
SCALE
  5
8BE
102
{ACAD_REACTORS
330
8AC
102
}
330
8AC
100
AcDbScale
 70
     0
300
1/128" = 1'-0"
140
0.0078125
141
12.0
290
     0
  0
SCALE
  5
8BF
102
{ACAD_REACTORS
330
8AC
102
}
330
8AC
100
AcDbScale
 70
     0
300
1/64" = 1'-0"
140
0.015625
141
12.0
290
     0
  0
SCALE
  5
8C0
102
{ACAD_REACTORS
330
8AC
102
}
330
8AC
100
AcDbScale
 70
     0
300
1/32" = 1'-0"
140
0.03125
141
12.0
290
     0
  0
SCALE
  5
8C1
102
{ACAD_REACTORS
330
8AC
102
}
330
8AC
100
AcDbScale
 70
     0
300
1/16" = 1'-0"
140
0.0625
141
12.0
290
     0
  0
SCALE
  5
8C2
102
{ACAD_REACTORS
330
8AC
102
}
330
8AC
100
AcDbScale
 70
     0
300
3/32" = 1'-0"
140
0.09375
141
12.0
290
     0
  0
SCALE
  5
8C3
102
{ACAD_REACTORS
330
8AC
102
}
330
8AC
100
AcDbScale
 70
     0
300
1/8" = 1'-0"
140
0.125
141
12.0
290
     0
  0
SCALE
  5
8C4
102
{ACAD_REACTORS
330
8AC
102
}
330
8AC
100
AcDbScale
 70
     0
300
3/16" = 1'-0"
140
0.1875
141
12.0
290
     0
  0
SCALE
  5
8C5
102
{ACAD_REACTORS
330
8AC
102
}
330
8AC
100
AcDbScale
 70
     0
300
1/4" = 1'-0"
140
0.25
141
12.0
290
     0
  0
SCALE
  5
8C6
102
{ACAD_REACTORS
330
8AC
102
}
330
8AC
100
AcDbScale
 70
     0
300
3/8" = 1'-0"
140
0.375
141
12.0
290
     0
  0
SCALE
  5
8C7
102
{ACAD_REACTORS
330
8AC
102
}
330
8AC
100
AcDbScale
 70
     0
300
1/2" = 1'-0"
140
0.5
141
12.0
290
     0
  0
SCALE
  5
8C8
102
{ACAD_REACTORS
330
8AC
102
}
330
8AC
100
AcDbScale
 70
     0
300
3/4" = 1'-0"
140
0.75
141
12.0
290
     0
  0
SCALE
  5
8C9
102
{ACAD_REACTORS
330
8AC
102
}
330
8AC
100
AcDbScale
 70
     0
300
1" = 1'-0"
140
1.0
141
12.0
290
     0
  0
SCALE
  5
8CA
102
{ACAD_REACTORS
330
8AC
102
}
330
8AC
100
AcDbScale
 70
     0
300
1-1/2" = 1'-0"
140
1.5
141
12.0
290
     0
  0
SCALE
  5
8CB
102
{ACAD_REACTORS
330
8AC
102
}
330
8AC
100
AcDbScale
 70
     0
300
3" = 1'-0"
140
3.0
141
12.0
290
     0
  0
SCALE
  5
8CC
102
{ACAD_REACTORS
330
8AC
102
}
330
8AC
100
AcDbScale
 70
     0
300
6" = 1'-0"
140
6.0
141
12.0
290
     0
  0
SCALE
  5
8CD
102
{ACAD_REACTORS
330
8AC
102
}
330
8AC
100
AcDbScale
 70
     0
300
1'-0" = 1'-0"
140
12.0
141
12.0
290
     0
  0
TABLESTYLE
  5
7B9
102
{ACAD_XDICTIONARY
360
D91
102
}
102
{ACAD_REACTORS
330
7B8
102
}
330
7B8
100
AcDbTableStyle
  3
Standard
 70
     0
 71
     0
 40
0.06
 41
0.06
280
     0
281
     0
  7
Standard
140
0.18
170
     2
 62
     0
 63
     7
283
     0
274
    -2
284
     1
 64
     0
275
    -2
285
     1
 65
     0
276
    -2
286
     1
 66
     0
277
    -2
287
     1
 67
     0
278
    -2
288
     1
 68
     0
279
    -2
289
     1
 69
     0
  7
Standard
140
0.25
170
     5
 62
     0
 63
     7
283
     0
274
    -2
284
     1
 64
     0
275
    -2
285
     1
 65
     0
276
    -2
286
     1
 66
     0
277
    -2
287
     1
 67
     0
278
    -2
288
     1
 68
     0
279
    -2
289
     1
 69
     0
  7
Standard
140
0.18
170
     5
 62
     0
 63
     7
283
     0
274
    -2
284
     1
 64
     0
275
    -2
285
     1
 65
     0
276
    -2
286
     1
 66
     0
277
    -2
287
     1
 67
     0
278
    -2
288
     1
 68
     0
279
    -2
289
     1
 69
     0
  0
VISUALSTYLE
  5
8A1
102
{ACAD_REACTORS
330
89B
102
}
330
89B
100
AcDbVisualStyle
  2
2dWireframe
 70
     4
 71
     0
 72
     2
 73
     0
 90
        0
 40
-0.6
 41
-30.0
 62
     5
 63
     7
 74
     1
 91
        4
 64
     7
 65
   257
 75
     1
175
     1
 42
1.0
 92
        0
 66
   257
 43
1.0
 76
     1
 77
     6
 78
     2
 67
     7
 79
     5
170
     0
171
     0
290
     0
174
     0
 93
        1
 44
0.0
173
     0
291
     0
 45
0.0
1001
ACAD
1000
AcDbSavedByObjectVersion
1070
     0
1000
AcDbSavedByObjectVersion
1070
     0
  0
VISUALSTYLE
  5
8A3
102
{ACAD_REACTORS
330
89B
102
}
330
89B
100
AcDbVisualStyle
  2
3D Hidden
 70
     6
 71
     1
 72
     2
 73
     2
 90
        0
 40
-0.6
 41
-30.0
 62
     5
 63
     7
 74
     2
 91
        2
 64
     7
 65
   257
 75
     2
175
     1
 42
40.0
 92
        0
 66
   257
 43
1.0
 76
     1
 77
     6
 78
     2
 67
     7
 79
     3
170
     0
171
     0
290
     0
174
     0
 93
        1
 44
0.0
173
     0
291
     0
 45
0.0
1001
ACAD
1000
AcDbSavedByObjectVersion
1070
     0
1000
AcDbSavedByObjectVersion
1070
     0
  0
VISUALSTYLE
  5
8A2
102
{ACAD_REACTORS
330
89B
102
}
330
89B
100
AcDbVisualStyle
  2
3dWireframe
 70
     5
 71
     0
 72
     2
 73
     0
 90
        0
 40
-0.6
 41
-30.0
 62
     5
 63
     7
 74
     1
 91
        4
 64
     7
 65
   257
 75
     1
175
     1
 42
1.0
 92
        0
 66
   257
 43
1.0
 76
     1
 77
     6
 78
     2
 67
     7
 79
     5
170
     0
171
     0
290
     0
174
     0
 93
        1
 44
0.0
173
     0
291
     0
 45
0.0
1001
ACAD
1000
AcDbSavedByObjectVersion
1070
     0
1000
AcDbSavedByObjectVersion
1070
     0
  0
VISUALSTYLE
  5
8A0
102
{ACAD_REACTORS
330
89B
102
}
330
89B
100
AcDbVisualStyle
  2
Basic
 70
     7
 71
     1
 72
     0
 73
     1
 90
        0
 40
-0.6
 41
-30.0
 62
     5
 63
     7
 74
     0
 91
        4
 64
     7
 65
   257
 75
     1
175
     1
 42
1.0
 92
        8
 66
     7
 43
1.0
 76
     1
 77
     6
 78
     2
 67
     7
 79
     5
170
     0
171
     0
290
     0
174
     0
 93
        1
 44
0.0
173
     0
291
     1
 45
0.0
1001
ACAD
1000
AcDbSavedByObjectVersion
1070
     0
1000
AcDbSavedByObjectVersion
1070
     0
  0
VISUALSTYLE
  5
8A7
102
{ACAD_REACTORS
330
89B
102
}
330
89B
100
AcDbVisualStyle
  2
Brighten
 70
    12
 71
     2
 72
     2
 73
     0
 90
        0
 40
-0.6
 41
-30.0
 62
     5
 63
     7
 74
     1
 91
        4
 64
     7
 65
   257
 75
     1
175
     1
 42
1.0
 92
        8
 66
     7
 43
1.0
 76
     1
 77
     6
 78
     2
 67
     7
 79
     5
170
     0
171
     0
290
     0
174
     0
 93
        1
 44
50.0
173
     0
291
     1
 45
0.0
1001
ACAD
1000
AcDbSavedByObjectVersion
1070
     0
1000
AcDbSavedByObjectVersion
1070
     0
  0
VISUALSTYLE
  5
8AB
102
{ACAD_REACTORS
330
89B
102
}
330
89B
100
AcDbVisualStyle
  2
ColorChange
 70
    16
 71
     2
 72
     2
 73
     3
 90
        0
 40
-0.6
 41
-30.0
 62
     5
 63
     8
 74
     1
 91
        4
 64
     7
 65
   257
 75
     1
175
     1
 42
1.0
 92
        8
 66
     8
 43
1.0
 76
     1
 77
     6
 78
     2
 67
     7
 79
     5
170
     0
171
     0
290
     0
174
     0
 93
        1
 44
0.0
173
     0
291
     1
 45
0.0
1001
ACAD
1000
AcDbSavedByObjectVersion
1070
     0
1000
AcDbSavedByObjectVersion
1070
     0
  0
VISUALSTYLE
  5
8A4
102
{ACAD_REACTORS
330
89B
102
}
330
89B
100
AcDbVisualStyle
  2
Conceptual
 70
     9
 71
     3
 72
     2
 73
     0
 90
        0
 40
-0.6
 41
-30.0
 62
     5
 63
     7
 74
     2
 91
        2
 64
     7
 65
   257
 75
     1
175
     1
 42
40.0
 92
        8
 66
     7
 43
1.0
 76
     1
 77
     6
 78
     2
 67
     7
 79
     3
170
     0
171
     0
290
     0
174
     0
 93
        1
 44
0.0
173
     0
291
     0
 45
0.0
1001
ACAD
1000
AcDbSavedByObjectVersion
1070
     0
1000
AcDbSavedByObjectVersion
1070
     0
  0
VISUALSTYLE
  5
8A6
102
{ACAD_REACTORS
330
89B
102
}
330
89B
100
AcDbVisualStyle
  2
Dim
 70
    11
 71
     2
 72
     2
 73
     0
 90
        0
 40
-0.6
 41
-30.0
 62
     5
 63
     7
 74
     1
 91
        4
 64
     7
 65
   257
 75
     1
175
     1
 42
1.0
 92
        8
 66
     7
 43
1.0
 76
     1
 77
     6
 78
     2
 67
     7
 79
     5
170
     0
171
     0
290
     0
174
     0
 93
        1
 44
-50.0
173
     0
291
     1
 45
0.0
1001
ACAD
1000
AcDbSavedByObjectVersion
1070
     0
1000
AcDbSavedByObjectVersion
1070
     0
  0
VISUALSTYLE
  5
8AA
102
{ACAD_REACTORS
330
89B
102
}
330
89B
100
AcDbVisualStyle
  2
Facepattern
 70
    15
 71
     2
 72
     2
 73
     0
 90
        0
 40
-0.6
 41
-30.0
 62
     5
 63
     7
 74
     1
 91
        4
 64
     7
 65
   257
 75
     1
175
     1
 42
1.0
 92
        8
 66
     7
 43
1.0
 76
     1
 77
     6
 78
     2
 67
     7
 79
     5
170
     0
171
     0
290
     0
174
     0
 93
        1
 44
0.0
173
     0
291
     1
 45
0.0
1001
ACAD
1000
AcDbSavedByObjectVersion
1070
     0
1000
AcDbSavedByObjectVersion
1070
     0
  0
VISUALSTYLE
  5
89C
102
{ACAD_REACTORS
330
89B
102
}
330
89B
100
AcDbVisualStyle
  2
Flat
 70
     0
 71
     2
 72
     1
 73
     1
 90
        2
 40
-0.6
 41
30.0
 62
     5
 63
     7
 74
     0
 91
        4
 64
     7
 65
   257
 75
     1
175
     1
 42
1.0
 92
        8
 66
     7
 43
1.0
 76
     1
 77
     6
 78
     2
 67
     7
 79
     5
170
     0
171
     0
290
     0
174
     0
 93
       13
 44
0.0
173
     0
291
     1
 45
0.0
1001
ACAD
1000
AcDbSavedByObjectVersion
1070
     0
1000
AcDbSavedByObjectVersion
1070
     0
  0
VISUALSTYLE
  5
89D
102
{ACAD_REACTORS
330
89B
102
}
330
89B
100
AcDbVisualStyle
  2
FlatWithEdges
 70
     1
 71
     2
 72
     1
 73
     1
 90
        2
 40
-0.6
 41
30.0
 62
     5
 63
     7
 74
     1
 91
        4
 64
     7
 65
   257
 75
     1
175
     1
 42
1.0
 92
        0
 66
   257
 43
1.0
 76
     1
 77
     6
 78
     2
 67
     7
 79
     5
170
     0
171
     0
290
     0
174
     0
 93
       13
 44
0.0
173
     0
291
     1
 45
0.0
1001
ACAD
1000
AcDbSavedByObjectVersion
1070
     0
1000
AcDbSavedByObjectVersion
1070
     0
  0
VISUALSTYLE
  5
89E
102
{ACAD_REACTORS
330
89B
102
}
330
89B
100
AcDbVisualStyle
  2
Gouraud
 70
     2
 71
     2
 72
     2
 73
     1
 90
        2
 40
-0.6
 41
30.0
 62
     5
 63
     7
 74
     0
 91
        4
 64
     7
 65
   257
 75
     1
175
     1
 42
1.0
 92
        0
 66
     7
 43
1.0
 76
     1
 77
     6
 78
     2
 67
     7
 79
     5
170
     0
171
     0
290
     0
174
     0
 93
       13
 44
0.0
173
     0
291
     1
 45
0.0
1001
ACAD
1000
AcDbSavedByObjectVersion
1070
     0
1000
AcDbSavedByObjectVersion
1070
     0
  0
VISUALSTYLE
  5
89F
102
{ACAD_REACTORS
330
89B
102
}
330
89B
100
AcDbVisualStyle
  2
GouraudWithEdges
 70
     3
 71
     2
 72
     2
 73
     1
 90
        2
 40
-0.6
 41
30.0
 62
     5
 63
     7
 74
     1
 91
        4
 64
     7
 65
   257
 75
     1
175
     1
 42
1.0
 92
        0
 66
   257
 43
1.0
 76
     1
 77
     6
 78
     2
 67
     7
 79
     5
170
     0
171
     0
290
     0
174
     0
 93
       13
 44
0.0
173
     0
291
     1
 45
0.0
1001
ACAD
1000
AcDbSavedByObjectVersion
1070
     0
1000
AcDbSavedByObjectVersion
1070
     0
  0
VISUALSTYLE
  5
8A9
102
{ACAD_REACTORS
330
89B
102
}
330
89B
100
AcDbVisualStyle
  2
Linepattern
 70
    14
 71
     2
 72
     2
 73
     0
 90
        0
 40
-0.6
 41
-30.0
 62
     5
 63
     7
 74
     1
 91
        4
 64
     7
 65
   257
 75
     7
175
     7
 42
1.0
 92
        8
 66
     7
 43
1.0
 76
     1
 77
     6
 78
     2
 67
     7
 79
     5
170
     0
171
     0
290
     0
174
     0
 93
        1
 44
0.0
173
     0
291
     1
 45
0.0
1001
ACAD
1000
AcDbSavedByObjectVersion
1070
     0
1000
AcDbSavedByObjectVersion
1070
     0
  0
VISUALSTYLE
  5
8A5
102
{ACAD_REACTORS
330
89B
102
}
330
89B
100
AcDbVisualStyle
  2
Realistic
 70
     8
 71
     2
 72
     2
 73
     0
 90
        0
 40
-0.6
 41
-30.0
 62
     5
 63
     7
 74
     1
 91
        0
 64
     7
 65
   257
 75
     1
175
     1
 42
1.0
 92
        8
 66
     8
 43
1.0
 76
     1
 77
     6
 78
     2
 67
     7
 79
     5
170
     0
171
     0
290
     0
174
     0
 93
       13
 44
0.0
173
     0
291
     0
 45
0.0
1001
ACAD
1000
AcDbSavedByObjectVersion
1070
     0
1000
AcDbSavedByObjectVersion
1070
     0
  0
VISUALSTYLE
  5
8A8
102
{ACAD_REACTORS
330
89B
102
}
330
89B
100
AcDbVisualStyle
  2
Thicken
 70
    13
 71
     2
 72
     2
 73
     0
 90
        0
 40
-0.6
 41
-30.0
 62
     5
 63
     7
 74
     1
 91
        4
 64
     7
 65
   257
 75
     1
175
     1
 42
1.0
 92
       12
 66
     7
 43
1.0
 76
     1
 77
     6
 78
     2
 67
     7
 79
     5
170
     0
171
     0
290
     0
174
     0
 93
        1
 44
0.0
173
     0
291
     1
 45
0.0
1001
ACAD
1000
AcDbSavedByObjectVersion
1070
     0
1000
AcDbSavedByObjectVersion
1070
     0
  0
DICTIONARYVAR
  5
D8E
102
{ACAD_REACTORS
330
7AF
102
}
330
7AF
100
DictionaryVariables
280
     0
  1
1:1
  0
DICTIONARYVAR
  5
D8D
102
{ACAD_REACTORS
330
7AF
102
}
330
7AF
100
DictionaryVariables
280
     0
  1
STANDARD
  0
DICTIONARYVAR
  5
7C8
102
{ACAD_REACTORS
330
7AF
102
}
330
7AF
100
DictionaryVariables
280
     0
  1
STANDARD
  0
DICTIONARYVAR
  5
7B0
102
{ACAD_REACTORS
330
7AF
102
}
330
7AF
100
DictionaryVariables
280
     0
  1
1
  0
DICTIONARYVAR
  5
D90
102
{ACAD_REACTORS
330
7AF
102
}
330
7AF
100
DictionaryVariables
280
     0
  1
0
  0
DICTIONARYVAR
  5
D8F
102
{ACAD_REACTORS
330
7AF
102
}
330
7AF
100
DictionaryVariables
280
     0
  1
127
  0
DICTIONARY
  5
168A
330
1E
100
AcDbDictionary
280
     1
281
     1
  3
ACAD_XREC_ROUNDTRIP
360
168B
  0
DICTIONARY
  5
168E
330
26
100
AcDbDictionary
280
     1
281
     1
  3
ACAD_XREC_ROUNDTRIP
360
168F
  0
DICTIONARY
  5
168C
330
22
100
AcDbDictionary
280
     1
281
     1
  3
ACAD_XREC_ROUNDTRIP
360
168D
  0
DICTIONARY
  5
D7E
330
D7D
100
AcDbDictionary
280
     1
281
     1
  3
ACAD_XREC_ROUNDTRIP
360
D9F
  3
BUMPTILE
360
D83
  3
DIFFUSETILE
360
D7F
  3
OPACITYTILE
360
D82
  3
REFLECTIONTILE
360
D81
  3
REFRACTIONTILE
360
D84
  3
SPECULARTILE
360
D80
  0
DICTIONARY
  5
88C
330
88B
100
AcDbDictionary
280
     1
281
     1
  3
ACAD_XREC_ROUNDTRIP
360
D9D
  3
BUMPTILE
360
88E
  3
DIFFUSETILE
360
88D
  3
OPACITYTILE
360
891
  3
REFLECTIONTILE
360
890
  3
REFRACTIONTILE
360
892
  3
SPECULARTILE
360
88F
  0
DICTIONARY
  5
884
330
883
100
AcDbDictionary
280
     1
281
     1
  3
ACAD_XREC_ROUNDTRIP
360
D9C
  3
BUMPTILE
360
886
  3
DIFFUSETILE
360
885
  3
OPACITYTILE
360
889
  3
REFLECTIONTILE
360
888
  3
REFRACTIONTILE
360
88A
  3
SPECULARTILE
360
887
  0
DICTIONARY
  5
894
330
893
100
AcDbDictionary
280
     1
281
     1
  3
ACAD_XREC_ROUNDTRIP
360
D9E
  3
BUMPTILE
360
896
  3
DIFFUSETILE
360
895
  3
OPACITYTILE
360
899
  3
REFLECTIONTILE
360
898
  3
REFRACTIONTILE
360
89A
  3
SPECULARTILE
360
897
  0
DICTIONARY
  5
D91
330
7B9
100
AcDbDictionary
280
     1
281
     1
  3
ACAD_ROUNDTRIP_2008_TABLESTYLE_CELLSTYLEMAP
360
1688
  3
ACAD_XREC_ROUNDTRIP
360
1690
  0
XRECORD
  5
168B
102
{ACAD_REACTORS
330
168A
102
}
330
168A
100
AcDbXrecord
280
     1
102
SHADEPLOT
 70
     0
102
SHADEPLOTRESLEVEL
 70
     2
102
SHADEPLOTCUSTOMDPI
 70
   300
  0
XRECORD
  5
168F
102
{ACAD_REACTORS
330
168E
102
}
330
168E
100
AcDbXrecord
280
     1
102
SHADEPLOT
 70
     0
102
SHADEPLOTRESLEVEL
 70
     2
102
SHADEPLOTCUSTOMDPI
 70
   300
  0
XRECORD
  5
168D
102
{ACAD_REACTORS
330
168C
102
}
330
168C
100
AcDbXrecord
280
     1
102
SHADEPLOT
 70
     0
102
SHADEPLOTRESLEVEL
 70
     2
102
SHADEPLOTCUSTOMDPI
 70
   300
  0
XRECORD
  5
D9F
102
{ACAD_REACTORS
330
D7E
102
}
330
D7E
100
AcDbXrecord
280
     1
102
MATERIAL
148
0.0
149
0.0
149
0.0
 93
        0
 94
      127
282
     0
 72
     0
 77
     0
171
     0
175
     0
179
     0
273
     0
  0
XRECORD
  5
D83
102
{ACAD_REACTORS
330
D7E
102
}
330
D7E
100
AcDbXrecord
280
     1
270
     1
271
     1
  0
XRECORD
  5
D7F
102
{ACAD_REACTORS
330
D7E
102
}
330
D7E
100
AcDbXrecord
280
     1
270
     1
271
     1
  0
XRECORD
  5
D82
102
{ACAD_REACTORS
330
D7E
102
}
330
D7E
100
AcDbXrecord
280
     1
270
     1
271
     1
  0
XRECORD
  5
D81
102
{ACAD_REACTORS
330
D7E
102
}
330
D7E
100
AcDbXrecord
280
     1
270
     1
271
     1
  0
XRECORD
  5
D84
102
{ACAD_REACTORS
330
D7E
102
}
330
D7E
100
AcDbXrecord
280
     1
270
     1
271
     1
  0
XRECORD
  5
D80
102
{ACAD_REACTORS
330
D7E
102
}
330
D7E
100
AcDbXrecord
280
     1
270
     1
271
     1
  0
XRECORD
  5
D9D
102
{ACAD_REACTORS
330
88C
102
}
330
88C
100
AcDbXrecord
280
     1
102
MATERIAL
148
0.0
149
0.0
149
0.0
 93
        0
 94
      127
282
     0
 72
     0
 77
     0
171
     0
175
     0
179
     0
273
     0
  0
XRECORD
  5
88E
102
{ACAD_REACTORS
330
88C
102
}
330
88C
100
AcDbXrecord
280
     1
270
     1
271
     1
  0
XRECORD
  5
88D
102
{ACAD_REACTORS
330
88C
102
}
330
88C
100
AcDbXrecord
280
     1
270
     1
271
     1
  0
XRECORD
  5
891
102
{ACAD_REACTORS
330
88C
102
}
330
88C
100
AcDbXrecord
280
     1
270
     1
271
     1
  0
XRECORD
  5
890
102
{ACAD_REACTORS
330
88C
102
}
330
88C
100
AcDbXrecord
280
     1
270
     1
271
     1
  0
XRECORD
  5
892
102
{ACAD_REACTORS
330
88C
102
}
330
88C
100
AcDbXrecord
280
     1
270
     1
271
     1
  0
XRECORD
  5
88F
102
{ACAD_REACTORS
330
88C
102
}
330
88C
100
AcDbXrecord
280
     1
270
     1
271
     1
  0
XRECORD
  5
D9C
102
{ACAD_REACTORS
330
884
102
}
330
884
100
AcDbXrecord
280
     1
102
MATERIAL
148
0.0
149
0.0
149
0.0
 93
        0
 94
      127
282
     0
 72
     0
 77
     0
171
     0
175
     0
179
     0
273
     0
  0
XRECORD
  5
886
102
{ACAD_REACTORS
330
884
102
}
330
884
100
AcDbXrecord
280
     1
270
     1
271
     1
  0
XRECORD
  5
885
102
{ACAD_REACTORS
330
884
102
}
330
884
100
AcDbXrecord
280
     1
270
     1
271
     1
  0
XRECORD
  5
889
102
{ACAD_REACTORS
330
884
102
}
330
884
100
AcDbXrecord
280
     1
270
     1
271
     1
  0
XRECORD
  5
888
102
{ACAD_REACTORS
330
884
102
}
330
884
100
AcDbXrecord
280
     1
270
     1
271
     1
  0
XRECORD
  5
88A
102
{ACAD_REACTORS
330
884
102
}
330
884
100
AcDbXrecord
280
     1
270
     1
271
     1
  0
XRECORD
  5
887
102
{ACAD_REACTORS
330
884
102
}
330
884
100
AcDbXrecord
280
     1
270
     1
271
     1
  0
XRECORD
  5
D9E
102
{ACAD_REACTORS
330
894
102
}
330
894
100
AcDbXrecord
280
     1
102
MATERIAL
148
0.0
149
0.0
149
0.0
 93
        0
 94
      127
282
     0
 72
     0
 77
     0
171
     0
175
     0
179
     0
273
     0
  0
XRECORD
  5
896
102
{ACAD_REACTORS
330
894
102
}
330
894
100
AcDbXrecord
280
     1
270
     1
271
     1
  0
XRECORD
  5
895
102
{ACAD_REACTORS
330
894
102
}
330
894
100
AcDbXrecord
280
     1
270
     1
271
     1
  0
XRECORD
  5
899
102
{ACAD_REACTORS
330
894
102
}
330
894
100
AcDbXrecord
280
     1
270
     1
271
     1
  0
XRECORD
  5
898
102
{ACAD_REACTORS
330
894
102
}
330
894
100
AcDbXrecord
280
     1
270
     1
271
     1
  0
XRECORD
  5
89A
102
{ACAD_REACTORS
330
894
102
}
330
894
100
AcDbXrecord
280
     1
270
     1
271
     1
  0
XRECORD
  5
897
102
{ACAD_REACTORS
330
894
102
}
330
894
100
AcDbXrecord
280
     1
270
     1
271
     1
  0
CELLSTYLEMAP
  5
1688
102
{ACAD_REACTORS
330
D91
102
}
330
D91
100
AcDbCellStyleMap
 90
        3
300
CELLSTYLE
  1
TABLEFORMAT_BEGIN
 90
        5
170
     1
 91
        0
 92
    32768
 62
   257
 93
        1
300
CONTENTFORMAT
  1
CONTENTFORMAT_BEGIN
 90
        0
 91
        0
 92
        4
 93
        0
300

 40
0.0
140
1.0
 94
        5
 62
     0
340
11
144
0.25
309
CONTENTFORMAT_END
171
     1
301
MARGIN
  1
CELLMARGIN_BEGIN
 40
0.06
 40
0.06
 40
0.06
 40
0.06
 40
0.18
 40
0.18
309
CELLMARGIN_END
 94
        6
 95
        1
302
GRIDFORMAT
  1
GRIDFORMAT_BEGIN
 90
        0
 91
        1
 62
     0
 92
       -2
340
0
 93
        0
 40
0.045
309
GRIDFORMAT_END
 95
        2
302
GRIDFORMAT
  1
GRIDFORMAT_BEGIN
 90
        0
 91
        1
 62
     0
 92
       -2
340
0
 93
        0
 40
0.045
309
GRIDFORMAT_END
 95
        4
302
GRIDFORMAT
  1
GRIDFORMAT_BEGIN
 90
        0
 91
        1
 62
     0
 92
       -2
340
0
 93
        0
 40
0.045
309
GRIDFORMAT_END
 95
        8
302
GRIDFORMAT
  1
GRIDFORMAT_BEGIN
 90
        0
 91
        1
 62
     0
 92
       -2
340
0
 93
        0
 40
0.045
309
GRIDFORMAT_END
 95
       16
302
GRIDFORMAT
  1
GRIDFORMAT_BEGIN
 90
        0
 91
        1
 62
     0
 92
       -2
340
0
 93
        0
 40
0.045
309
GRIDFORMAT_END
 95
       32
302
GRIDFORMAT
  1
GRIDFORMAT_BEGIN
 90
        0
 91
        1
 62
     0
 92
       -2
340
0
 93
        0
 40
0.045
309
GRIDFORMAT_END
309
TABLEFORMAT_END
  1
CELLSTYLE_BEGIN
 90
        1
 91
        1
300
_TITLE
309
CELLSTYLE_END
300
CELLSTYLE
  1
TABLEFORMAT_BEGIN
 90
        5
170
     1
 91
        0
 92
        0
 62
   257
 93
        1
300
CONTENTFORMAT
  1
CONTENTFORMAT_BEGIN
 90
        0
 91
        0
 92
        4
 93
        0
300

 40
0.0
140
1.0
 94
        5
 62
     0
340
11
144
0.18
309
CONTENTFORMAT_END
171
     1
301
MARGIN
  1
CELLMARGIN_BEGIN
 40
0.06
 40
0.06
 40
0.06
 40
0.06
 40
0.18
 40
0.18
309
CELLMARGIN_END
 94
        6
 95
        1
302
GRIDFORMAT
  1
GRIDFORMAT_BEGIN
 90
        0
 91
        1
 62
     0
 92
       -2
340
0
 93
        0
 40
0.045
309
GRIDFORMAT_END
 95
        2
302
GRIDFORMAT
  1
GRIDFORMAT_BEGIN
 90
        0
 91
        1
 62
     0
 92
       -2
340
0
 93
        0
 40
0.045
309
GRIDFORMAT_END
 95
        4
302
GRIDFORMAT
  1
GRIDFORMAT_BEGIN
 90
        0
 91
        1
 62
     0
 92
       -2
340
0
 93
        0
 40
0.045
309
GRIDFORMAT_END
 95
        8
302
GRIDFORMAT
  1
GRIDFORMAT_BEGIN
 90
        0
 91
        1
 62
     0
 92
       -2
340
0
 93
        0
 40
0.045
309
GRIDFORMAT_END
 95
       16
302
GRIDFORMAT
  1
GRIDFORMAT_BEGIN
 90
        0
 91
        1
 62
     0
 92
       -2
340
0
 93
        0
 40
0.045
309
GRIDFORMAT_END
 95
       32
302
GRIDFORMAT
  1
GRIDFORMAT_BEGIN
 90
        0
 91
        1
 62
     0
 92
       -2
340
0
 93
        0
 40
0.045
309
GRIDFORMAT_END
309
TABLEFORMAT_END
  1
CELLSTYLE_BEGIN
 90
        2
 91
        1
300
_HEADER
309
CELLSTYLE_END
300
CELLSTYLE
  1
TABLEFORMAT_BEGIN
 90
        5
170
     1
 91
        0
 92
        0
 62
   257
 93
        1
300
CONTENTFORMAT
  1
CONTENTFORMAT_BEGIN
 90
        0
 91
        0
 92
        4
 93
        0
300

 40
0.0
140
1.0
 94
        2
 62
     0
340
11
144
0.18
309
CONTENTFORMAT_END
171
     1
301
MARGIN
  1
CELLMARGIN_BEGIN
 40
0.06
 40
0.06
 40
0.06
 40
0.06
 40
0.18
 40
0.18
309
CELLMARGIN_END
 94
        6
 95
        1
302
GRIDFORMAT
  1
GRIDFORMAT_BEGIN
 90
        0
 91
        1
 62
     0
 92
       -2
340
0
 93
        0
 40
0.045
309
GRIDFORMAT_END
 95
        2
302
GRIDFORMAT
  1
GRIDFORMAT_BEGIN
 90
        0
 91
        1
 62
     0
 92
       -2
340
0
 93
        0
 40
0.045
309
GRIDFORMAT_END
 95
        4
302
GRIDFORMAT
  1
GRIDFORMAT_BEGIN
 90
        0
 91
        1
 62
     0
 92
       -2
340
0
 93
        0
 40
0.045
309
GRIDFORMAT_END
 95
        8
302
GRIDFORMAT
  1
GRIDFORMAT_BEGIN
 90
        0
 91
        1
 62
     0
 92
       -2
340
0
 93
        0
 40
0.045
309
GRIDFORMAT_END
 95
       16
302
GRIDFORMAT
  1
GRIDFORMAT_BEGIN
 90
        0
 91
        1
 62
     0
 92
       -2
340
0
 93
        0
 40
0.045
309
GRIDFORMAT_END
 95
       32
302
GRIDFORMAT
  1
GRIDFORMAT_BEGIN
 90
        0
 91
        1
 62
     0
 92
       -2
340
0
 93
        0
 40
0.045
309
GRIDFORMAT_END
309
TABLEFORMAT_END
  1
CELLSTYLE_BEGIN
 90
        3
 91
        2
300
_DATA
309
CELLSTYLE_END
  0
XRECORD
  5
1690
102
{ACAD_REACTORS
330
D91
102
}
330
D91
100
AcDbXrecord
280
     1
102
ACAD_ROUNDTRIP_PRE2007_TABLESTYLE
 90
        4
 91
        0
  1

 92
        4
 93
        0
  2

 94
        4
 95
        0
  3

  0
ENDSEC
  0
EOF
