  0
SECTION
  2
HEADER
  9
$ACADVER
  1
AC1015
  9
$ACADMAINTVER
 70
    20
  9
$DWGCODEPAGE
  3
ANSI_1252
  9
$INSBASE
 10
0.0
 20
0.0
 30
0.0
  9
$EXTMIN
 10
-0.0000000059891487
 20
5.687992572784422
 30
-0.0000000005943398
  9
$EXTMAX
 10
12.21944522857666
 20
6.875763893127441
 30
3.0
  9
$LIMMIN
 10
0.0
 20
0.0
  9
$LIMMAX
 10
12.0
 20
9.0
  9
$ORTHOMODE
 70
     0
  9
$REGENMODE
 70
     1
  9
$FILLMODE
 70
     1
  9
$QTEXTMODE
 70
     0
  9
$MIRRTEXT
 70
     1
  9
$LTSCALE
 40
1.0
  9
$ATTMODE
 70
     1
  9
$TEXTSIZE
 40
0.2
  9
$TRACEWID
 40
0.05
  9
$TEXTSTYLE
  7
Standard
  9
$CLAYER
  8
0
  9
$CELTYPE
  6
ByLayer
  9
$CECOLOR
 62
   256
  9
$CELTSCALE
 40
1.0
  9
$DISPSILH
 70
     0
  9
$DIMSCALE
 40
1.0
  9
$DIMASZ
 40
0.18
  9
$DIMEXO
 40
0.0625
  9
$DIMDLI
 40
0.38
  9
$DIMRND
 40
0.0
  9
$DIMDLE
 40
0.0
  9
$DIMEXE
 40
0.18
  9
$DIMTP
 40
0.0
  9
$DIMTM
 40
0.0
  9
$DIMTXT
 40
0.18
  9
$DIMCEN
 40
0.09
  9
$DIMTSZ
 40
0.0
  9
$DIMTOL
 70
     0
  9
$DIMLIM
 70
     0
  9
$DIMTIH
 70
     1
  9
$DIMTOH
 70
     1
  9
$DIMSE1
 70
     0
  9
$DIMSE2
 70
     0
  9
$DIMTAD
 70
     0
  9
$DIMZIN
 70
     0
  9
$DIMBLK
  1
ArchTick
  9
$DIMASO
 70
     1
  9
$DIMSHO
 70
     1
  9
$DIMPOST
  1

  9
$DIMAPOST
  1

  9
$DIMALT
 70
     0
  9
$DIMALTD
 70
     2
  9
$DIMALTF
 40
25.4
  9
$DIMLFAC
 40
1.0
  9
$DIMTOFL
 70
     0
  9
$DIMTVP
 40
0.0
  9
$DIMTIX
 70
     0
  9
$DIMSOXD
 70
     0
  9
$DIMSAH
 70
     0
  9
$DIMBLK1
  1

  9
$DIMBLK2
  1

  9
$DIMSTYLE
  2
Copy of Standard
  9
$DIMCLRD
 70
     0
  9
$DIMCLRE
 70
     0
  9
$DIMCLRT
 70
     0
  9
$DIMTFAC
 40
1.0
  9
$DIMGAP
 40
0.09
  9
$DIMJUST
 70
     0
  9
$DIMSD1
 70
     0
  9
$DIMSD2
 70
     0
  9
$DIMTOLJ
 70
     1
  9
$DIMTZIN
 70
     0
  9
$DIMALTZ
 70
     0
  9
$DIMALTTZ
 70
     0
  9
$DIMUPT
 70
     0
  9
$DIMDEC
 70
     4
  9
$DIMTDEC
 70
     4
  9
$DIMALTU
 70
     2
  9
$DIMALTTD
 70
     2
  9
$DIMTXSTY
  7
Standard
  9
$DIMAUNIT
 70
     0
  9
$DIMADEC
 70
     0
  9
$DIMALTRND
 40
0.0
  9
$DIMAZIN
 70
     0
  9
$DIMDSEP
 70
    46
  9
$DIMATFIT
 70
     3
  9
$DIMFRAC
 70
     0
  9
$DIMLDRBLK
  1

  9
$DIMLUNIT
 70
     4
  9
$DIMLWD
 70
    -2
  9
$DIMLWE
 70
    -2
  9
$DIMTMOVE
 70
     0
  9
$LUNITS
 70
     2
  9
$LUPREC
 70
     4
  9
$SKETCHINC
 40
0.1
  9
$FILLETRAD
 40
0.5
  9
$AUNITS
 70
     0
  9
$AUPREC
 70
     0
  9
$MENU
  1
.
  9
$ELEVATION
 40
0.0
  9
$PELEVATION
 40
0.0
  9
$THICKNESS
 40
0.0
  9
$LIMCHECK
 70
     0
  9
$CHAMFERA
 40
0.5
  9
$CHAMFERB
 40
0.5
  9
$CHAMFERC
 40
1.0
  9
$CHAMFERD
 40
0.0
  9
$SKPOLY
 70
     0
  9
$TDCREATE
 40
2452587.497350764
  9
$TDUCREATE
 40
2452587.705684097
  9
$TDUPDATE
 40
2454459.465801632
  9
$TDUUPDATE
 40
2454459.674134965
  9
$TDINDWG
 40
0.6017887847
  9
$TDUSRTIMER
 40
0.6017886111
  9
$USRTIMER
 70
     1
  9
$ANGBASE
 50
0.0
  9
$ANGDIR
 70
     0
  9
$PDMODE
 70
     0
  9
$PDSIZE
 40
0.0
  9
$PLINEWID
 40
0.0
  9
$SPLFRAME
 70
     0
  9
$SPLINETYPE
 70
     6
  9
$SPLINESEGS
 70
     8
  9
$HANDSEED
  5
150B
  9
$SURFTAB1
 70
     6
  9
$SURFTAB2
 70
     6
  9
$SURFTYPE
 70
     6
  9
$SURFU
 70
     6
  9
$SURFV
 70
     6
  9
$UCSBASE
  2

  9
$UCSNAME
  2

  9
$UCSORG
 10
0.0
 20
0.0
 30
0.0
  9
$UCSXDIR
 10
1.0
 20
0.0
 30
0.0
  9
$UCSYDIR
 10
0.0
 20
0.0
 30
1.0
  9
$UCSORTHOREF
  2

  9
$UCSORTHOVIEW
 70
     0
  9
$UCSORGTOP
 10
0.0
 20
0.0
 30
0.0
  9
$UCSORGBOTTOM
 10
0.0
 20
0.0
 30
0.0
  9
$UCSORGLEFT
 10
0.0
 20
0.0
 30
0.0
  9
$UCSORGRIGHT
 10
0.0
 20
0.0
 30
0.0
  9
$UCSORGFRONT
 10
0.0
 20
0.0
 30
0.0
  9
$UCSORGBACK
 10
0.0
 20
0.0
 30
0.0
  9
$PUCSBASE
  2

  9
$PUCSNAME
  2

  9
$PUCSORG
 10
0.0
 20
0.0
 30
0.0
  9
$PUCSXDIR
 10
1.0
 20
0.0
 30
0.0
  9
$PUCSYDIR
 10
0.0
 20
1.0
 30
0.0
  9
$PUCSORTHOREF
  2

  9
$PUCSORTHOVIEW
 70
     0
  9
$PUCSORGTOP
 10
0.0
 20
0.0
 30
0.0
  9
$PUCSORGBOTTOM
 10
0.0
 20
0.0
 30
0.0
  9
$PUCSORGLEFT
 10
0.0
 20
0.0
 30
0.0
  9
$PUCSORGRIGHT
 10
0.0
 20
0.0
 30
0.0
  9
$PUCSORGFRONT
 10
0.0
 20
0.0
 30
0.0
  9
$PUCSORGBACK
 10
0.0
 20
0.0
 30
0.0
  9
$USERI1
 70
     0
  9
$USERI2
 70
     0
  9
$USERI3
 70
     0
  9
$USERI4
 70
     0
  9
$USERI5
 70
     0
  9
$USERR1
 40
0.0
  9
$USERR2
 40
0.0
  9
$USERR3
 40
0.0
  9
$USERR4
 40
0.0
  9
$USERR5
 40
0.0
  9
$WORLDVIEW
 70
     1
  9
$SHADEDGE
 70
     3
  9
$SHADEDIF
 70
    70
  9
$TILEMODE
 70
     1
  9
$MAXACTVP
 70
    64
  9
$PINSBASE
 10
0.0
 20
0.0
 30
0.0
  9
$PLIMCHECK
 70
     0
  9
$PEXTMIN
 10
1.000000000000000E+20
 20
1.000000000000000E+20
 30
1.000000000000000E+20
  9
$PEXTMAX
 10
-1.000000000000000E+20
 20
-1.000000000000000E+20
 30
-1.000000000000000E+20
  9
$PLIMMIN
 10
0.0
 20
0.0
  9
$PLIMMAX
 10
12.0
 20
9.0
  9
$UNITMODE
 70
     0
  9
$VISRETAIN
 70
     1
  9
$PLINEGEN
 70
     0
  9
$PSLTSCALE
 70
     1
  9
$TREEDEPTH
 70
  3020
  9
$CMLSTYLE
  2
Standard
  9
$CMLJUST
 70
     0
  9
$CMLSCALE
 40
1.0
  9
$PROXYGRAPHICS
 70
     1
  9
$MEASUREMENT
 70
     0
  9
$CELWEIGHT
370
    -1
  9
$ENDCAPS
280
     0
  9
$JOINSTYLE
280
     0
  9
$LWDISPLAY
290
     0
  9
$INSUNITS
 70
     1
  9
$HYPERLINKBASE
  1

  9
$STYLESHEET
  1

  9
$XEDIT
290
     1
  9
$CEPSNTYPE
380
     0
  9
$PSTYLEMODE
290
     1
  9
$FINGERPRINTGUID
  2
{FDEAD576-A652-11D2-9A35-0060089B3A3F}
  9
$VERSIONGUID
  2
{3631A9B6-0103-4D63-9EB7-D3AE7E38C463}
  9
$EXTNAMES
290
     1
  9
$PSVPSCALE
 40
0.0
  9
$OLESTARTUP
290
     0
  0
ENDSEC
  0
SECTION
  2
CLASSES
  0
CLASS
  1
ACDBDICTIONARYWDFLT
  2
AcDbDictionaryWithDefault
  3
ObjectDBX Classes
 90
        0
280
     0
281
     0
  0
CLASS
  1
ACDBPLACEHOLDER
  2
AcDbPlaceHolder
  3
ObjectDBX Classes
 90
        0
280
     0
281
     0
  0
CLASS
  1
LAYOUT
  2
AcDbLayout
  3
ObjectDBX Classes
 90
        0
280
     0
281
     0
  0
CLASS
  1
DICTIONARYVAR
  2
AcDbDictionaryVar
  3
ObjectDBX Classes
 90
        0
280
     0
281
     0
  0
CLASS
  1
TABLESTYLE
  2
AcDbTableStyle
  3
ObjectDBX Classes
 90
     4095
280
     0
281
     0
  0
CLASS
  1
SORTENTSTABLE
  2
AcDbSortentsTable
  3
ObjectDBX Classes
 90
        0
280
     0
281
     0
  0
CLASS
  1
MATERIAL
  2
AcDbMaterial
  3
ObjectDBX Classes
 90
     1153
280
     0
281
     0
  0
CLASS
  1
VISUALSTYLE
  2
AcDbVisualStyle
  3
ObjectDBX Classes
 90
     4095
280
     0
281
     0
  0
CLASS
  1
SCALE
  2
AcDbScale
  3
ObjectDBX Classes
 90
     1153
280
     0
281
     0
  0
CLASS
  1
MLEADERSTYLE
  2
AcDbMLeaderStyle
  3
ACDB_MLEADERSTYLE_CLASS
 90
     4095
280
     0
281
     0
  0
CLASS
  1
CELLSTYLEMAP
  2
AcDbCellStyleMap
  3
ObjectDBX Classes
 90
     1152
280
     0
281
     0
  0
ENDSEC
  0
SECTION
  2
TABLES
  0
TABLE
  2
VPORT
  5
8
330
0
100
AcDbSymbolTable
 70
     1
  0
VPORT
  5
8D7
330
8
100
AcDbSymbolTableRecord
100
AcDbViewportTableRecord
  2
*Active
 70
     0
 10
0.0
 20
0.0
 11
1.0
 21
1.0
 12
-1.660812578054524
 22
1.478719362447904
 13
0.0
 23
0.0
 14
0.5
 24
0.5
 15
0.5
 25
0.5
 16
0.0
 26
-1.0
 36
0.0
 17
12.8395441573509
 27
6.409320539457124
 37
0.0212806603993014
 40
3.024590210003383
 41
1.952107279693486
 42
50.0
 43
0.0
 44
0.0
 50
0.0
 51
0.0
 71
     0
 72
   100
 73
     1
 74
     3
 75
     0
 76
     0
 77
     0
 78
     0
281
     0
 65
     1
110
0.0
120
0.0
130
0.0
111
1.0
121
0.0
131
0.0
112
0.0
122
0.0
132
1.0
 79
     0
146
0.0
  0
ENDTAB
  0
TABLE
  2
LTYPE
  5
5
330
0
100
AcDbSymbolTable
 70
     1
  0
LTYPE
  5
14
330
5
100
AcDbSymbolTableRecord
100
AcDbLinetypeTableRecord
  2
ByBlock
 70
     0
  3

 72
    65
 73
     0
 40
0.0
  0
LTYPE
  5
15
330
5
100
AcDbSymbolTableRecord
100
AcDbLinetypeTableRecord
  2
ByLayer
 70
     0
  3

 72
    65
 73
     0
 40
0.0
  0
LTYPE
  5
16
330
5
100
AcDbSymbolTableRecord
100
AcDbLinetypeTableRecord
  2
Continuous
 70
     0
  3
Solid line
 72
    65
 73
     0
 40
0.0
  0
ENDTAB
  0
TABLE
  2
LAYER
  5
2
330
0
100
AcDbSymbolTable
 70
     5
  0
LAYER
  5
10
102
{ACAD_XDICTIONARY
360
D49
102
}
330
2
100
AcDbSymbolTableRecord
100
AcDbLayerTableRecord
  2
0
 70
     0
 62
     7
  6
Continuous
370
    -3
390
F
  0
LAYER
  5
D2
102
{ACAD_XDICTIONARY
360
D4B
102
}
330
2
100
AcDbSymbolTableRecord
100
AcDbLayerTableRecord
  2
Layer1
 70
     0
 62
     1
  6
Continuous
370
    -3
390
F
  0
LAYER
  5
5D4
330
2
100
AcDbSymbolTableRecord
100
AcDbLayerTableRecord
  2
Defpoints
 70
     0
 62
     7
  6
Continuous
290
     0
370
    -3
390
F
  0
LAYER
  5
798
102
{ACAD_XDICTIONARY
360
D4D
102
}
330
2
100
AcDbSymbolTableRecord
100
AcDbLayerTableRecord
  2
HOLES
 70
     0
 62
     7
  6
Continuous
370
    -3
390
F
  0
LAYER
  5
942
102
{ACAD_XDICTIONARY
360
D4F
102
}
330
2
100
AcDbSymbolTableRecord
100
AcDbLayerTableRecord
  2
ASHADE
 70
     4
 62
     7
  6
Continuous
370
    -3
390
F
  0
ENDTAB
  0
TABLE
  2
STYLE
  5
3
330
0
100
AcDbSymbolTable
 70
     2
  0
STYLE
  5
11
330
3
100
AcDbSymbolTableRecord
100
AcDbTextStyleTableRecord
  2
Standard
 70
     0
 40
0.0
 41
1.0
 50
0.0
 71
     0
 42
0.2
  3
txt
  4

  0
STYLE
  5
93C
330
3
100
AcDbSymbolTableRecord
100
AcDbTextStyleTableRecord
  2
ASHADE
 70
     0
 40
0.2
 41
1.0
 50
0.0
 71
     0
 42
0.2
  3
simplex
  4

  0
ENDTAB
  0
TABLE
  2
VIEW
  5
6
330
0
100
AcDbSymbolTable
 70
     0
  0
ENDTAB
  0
TABLE
  2
UCS
  5
7
330
0
100
AcDbSymbolTable
 70
     0
  0
ENDTAB
  0
TABLE
  2
APPID
  5
9
330
0
100
AcDbSymbolTable
 70
     8
  0
APPID
  5
12
330
9
100
AcDbSymbolTableRecord
100
AcDbRegAppTableRecord
  2
ACAD
 70
     0
  0
APPID
  5
8D1
330
9
100
AcDbSymbolTableRecord
100
AcDbRegAppTableRecord
  2
ACAD_EXEMPT_FROM_CAD_STANDARDS
 70
     0
  0
APPID
  5
939
330
9
100
AcDbSymbolTableRecord
100
AcDbRegAppTableRecord
  2
ACAD_MLEADERVER
 70
     0
  0
APPID
  5
93D
330
9
100
AcDbSymbolTableRecord
100
AcDbRegAppTableRecord
  2
AVE_RENDER
 70
     0
  0
APPID
  5
93E
330
9
100
AcDbSymbolTableRecord
100
AcDbRegAppTableRecord
  2
AVE_ENTITY_MATERIAL
 70
     0
  0
APPID
  5
93F
330
9
100
AcDbSymbolTableRecord
100
AcDbRegAppTableRecord
  2
AVE_FINISH
 70
     0
  0
APPID
  5
940
330
9
100
AcDbSymbolTableRecord
100
AcDbRegAppTableRecord
  2
AVE_MATERIAL
 70
     0
  0
APPID
  5
941
330
9
100
AcDbSymbolTableRecord
100
AcDbRegAppTableRecord
  2
AVE_GLOBAL
 70
     0
  0
ENDTAB
  0
TABLE
  2
DIMSTYLE
  5
A
330
0
100
AcDbSymbolTable
 70
     3
100
AcDbDimStyleTable
 71
     0
  0
DIMSTYLE
105
27
330
A
100
AcDbSymbolTableRecord
100
AcDbDimStyleTableRecord
  2
Standard
 70
     0
340
11
  0
DIMSTYLE
105
243
330
A
100
AcDbSymbolTableRecord
100
AcDbDimStyleTableRecord
  2
Copy of Standard
 70
     0
277
     4
340
11
342
23F
  0
DIMSTYLE
105
799
330
A
100
AcDbSymbolTableRecord
100
AcDbDimStyleTableRecord
  2
COPY_OF_STANDARD
 70
     0
279
     2
340
11
  0
ENDTAB
  0
TABLE
  2
BLOCK_RECORD
  5
1
330
0
100
AcDbSymbolTable
 70
    13
  0
BLOCK_RECORD
  5
1F
330
1
100
AcDbSymbolTableRecord
100
AcDbBlockTableRecord
  2
*Model_Space
340
22
  0
BLOCK_RECORD
  5
1B
330
1
100
AcDbSymbolTableRecord
100
AcDbBlockTableRecord
  2
*Paper_Space
340
1E
  0
BLOCK_RECORD
  5
23
330
1
100
AcDbSymbolTableRecord
100
AcDbBlockTableRecord
  2
*Paper_Space0
340
26
  0
BLOCK_RECORD
  5
89
330
1
100
AcDbSymbolTableRecord
100
AcDbBlockTableRecord
  2
A$C402506B2
340
0
  0
BLOCK_RECORD
  5
23F
330
1
100
AcDbSymbolTableRecord
100
AcDbBlockTableRecord
  2
_ArchTick
340
0
  0
BLOCK_RECORD
  5
332
330
1
100
AcDbSymbolTableRecord
100
AcDbBlockTableRecord
  2
A$C62876B25
340
0
  0
BLOCK_RECORD
  5
376
330
1
100
AcDbSymbolTableRecord
100
AcDbBlockTableRecord
  2
A$C0CF7183B
340
0
  0
BLOCK_RECORD
  5
4B2
330
1
100
AcDbSymbolTableRecord
100
AcDbBlockTableRecord
  2
A$C371D6E50
340
0
  0
BLOCK_RECORD
  5
562
330
1
100
AcDbSymbolTableRecord
100
AcDbBlockTableRecord
  2
A$C69274768
340
0
  0
BLOCK_RECORD
  5
59A
330
1
100
AcDbSymbolTableRecord
100
AcDbBlockTableRecord
  2
A$C3BD243A1
340
0
  0
BLOCK_RECORD
  5
7FA
102
{ACAD_XDICTIONARY
360
80B
102
}
330
1
100
AcDbSymbolTableRecord
100
AcDbBlockTableRecord
  2
A$C6CF0041D
340
0
1001
ACAD
1000
DesignCenter Data
1002
{
1070
     1
1070
     1
1002
}
  0
BLOCK_RECORD
  5
943
330
1
100
AcDbSymbolTableRecord
100
AcDbBlockTableRecord
  2
AVE_GLOBAL
340
0
102
{BLKREFS
331
946
102
}
  0
BLOCK_RECORD
  5
94C
330
1
100
AcDbSymbolTableRecord
100
AcDbBlockTableRecord
  2
AVE_RENDER
340
0
102
{BLKREFS
331
94F
331
950
331
951
331
952
331
953
331
954
331
955
331
956
102
}
  0
BLOCK_RECORD
  5
D0E
330
1
100
AcDbSymbolTableRecord
100
AcDbBlockTableRecord
  2
RM_SDB
340
0
102
{BLKREFS
331
111B
331
14E9
102
}
  0
ENDTAB
  0
ENDSEC
  0
SECTION
  2
BLOCKS
  0
BLOCK
  5
20
330
1F
100
AcDbEntity
  8
0
100
AcDbBlockBegin
  2
*Model_Space
 70
     0
 10
0.0
 20
0.0
 30
0.0
  3
*Model_Space
  1

  0
ENDBLK
  5
21
330
1F
100
AcDbEntity
  8
0
100
AcDbBlockEnd
  0
BLOCK
  5
1C
330
1B
100
AcDbEntity
 67
     1
  8
0
100
AcDbBlockBegin
  2
*Paper_Space
 70
     0
 10
0.0
 20
0.0
 30
0.0
  3
*Paper_Space
  1

  0
ENDBLK
  5
1D
330
1B
100
AcDbEntity
 67
     1
  8
0
100
AcDbBlockEnd
  0
BLOCK
  5
24
330
23
100
AcDbEntity
 67
     1
  8
0
100
AcDbBlockBegin
  2
*Paper_Space0
 70
     0
 10
0.0
 20
0.0
 30
0.0
  3
*Paper_Space0
  1

  0
ENDBLK
  5
25
330
23
100
AcDbEntity
 67
     1
  8
0
100
AcDbBlockEnd
  0
BLOCK
  5
8B
330
89
100
AcDbEntity
  8
0
100
AcDbBlockBegin
  2
A$C402506B2
 70
     0
 10
0.0
 20
0.0
 30
0.0
  3
A$C402506B2
  1

  0
LINE
  5
8A
330
89
100
AcDbEntity
  8
0
100
AcDbLine
 10
1.99999997599076
 20
-0.0000000065864836
 30
0.0
 11
-0.000000024009239
 21
-0.0000000065864836
 31
0.0
  0
ENDBLK
  5
8C
330
89
100
AcDbEntity
  8
0
100
AcDbBlockEnd
  0
BLOCK
  5
241
330
23F
100
AcDbEntity
  8
0
100
AcDbBlockBegin
  2
_ArchTick
 70
     0
 10
0.0
 20
0.0
 30
0.0
  3
_ArchTick
  1

  0
LWPOLYLINE
  5
240
330
23F
100
AcDbEntity
  8
0
 62
     0
100
AcDbPolyline
 90
        2
 70
     0
 43
0.15
 10
-0.5
 20
-0.5
 10
0.5
 20
0.5
  0
ENDBLK
  5
242
330
23F
100
AcDbEntity
  8
0
100
AcDbBlockEnd
  0
BLOCK
  5
335
330
332
100
AcDbEntity
  8
0
100
AcDbBlockBegin
  2
A$C62876B25
 70
     0
 10
0.0
 20
0.0
 30
0.0
  3
A$C62876B25
  1

  0
ARC
  5
333
330
332
100
AcDbEntity
  8
0
100
AcDbCircle
 10
4.747076104803912
 20
-0.0146308894255172
 30
0.0
 40
5.365388799403604
100
AcDbArc
 50
18.5020939616608
 51
32.26026640746432
  0
LINE
  5
334
330
332
100
AcDbEntity
  8
0
100
AcDbLine
 10
0.0000000123864794
 20
0.0000000105636286
 30
0.0
 11
0.0000000123864794
 21
2.849231481021627
 31
0.0
  0
ENDBLK
  5
336
330
332
100
AcDbEntity
  8
0
100
AcDbBlockEnd
  0
BLOCK
  5
378
330
376
100
AcDbEntity
  8
0
100
AcDbBlockBegin
  2
A$C0CF7183B
 70
     0
 10
0.0
 20
0.0
 30
0.0
  3
A$C0CF7183B
  1

  0
ARC
  5
377
330
376
100
AcDbEntity
  8
0
100
AcDbCircle
 10
-4.537145498590048
 20
-1.10838087746436
 30
0.0
 40
5.365388799403604
100
AcDbArc
 50
11.92199408310056
 51
32.26026640746435
  0
ENDBLK
  5
379
330
376
100
AcDbEntity
  8
0
100
AcDbBlockEnd
  0
BLOCK
  5
4B4
330
4B2
100
AcDbEntity
  8
0
100
AcDbBlockBegin
  2
A$C371D6E50
 70
     0
 10
0.0
 20
0.0
 30
0.0
  3
A$C371D6E50
  1

  0
LINE
  5
4B3
330
4B2
100
AcDbEntity
  8
0
100
AcDbLine
 10
0.0
 20
0.0
 30
0.0
 11
0.0
 21
0.2187794715102882
 31
0.0
  0
ENDBLK
  5
4B5
330
4B2
100
AcDbEntity
  8
0
100
AcDbBlockEnd
  0
BLOCK
  5
564
330
562
100
AcDbEntity
  8
0
100
AcDbBlockBegin
  2
A$C69274768
 70
     0
 10
0.0
 20
0.0
 30
0.0
  3
A$C69274768
  1

  0
ARC
  5
563
330
562
100
AcDbEntity
  8
0
100
AcDbCircle
 10
-0.5175933990904609
 20
-0.2777095236602315
 30
0.0
 40
0.731212470009667
100
AcDbArc
 50
22.32087359577163
 51
44.93923083705086
  0
ENDBLK
  5
565
330
562
100
AcDbEntity
  8
0
100
AcDbBlockEnd
  0
BLOCK
  5
59C
330
59A
100
AcDbEntity
  8
0
100
AcDbBlockBegin
  2
A$C3BD243A1
 70
     0
 10
0.0
 20
0.0
 30
0.0
  3
A$C3BD243A1
  1

  0
3DSOLID
  5
59B
330
59A
100
AcDbEntity
  8
0
100
AcDbModelerGeometry
 70
     1
  1
koo lik n o         
  1
ni ^ *+0;:,4 ^ *+0\^ [ nh ^ LR nmqoqnqgmo QK o  
  1
mjqlffffffffffffff fqfffffffffffffffj:rooh n:rono 
  1
=0;& {rn {n {rn {rn |
  1
3*2/ {rn {rn {m {o |
  1
,7:33 {rn {rn {rn {l {rn {n |
  1
9><: {rn {k {j {m {rn {i 90-(>-; ,6183: |
  1
9><: {rn {h {g {m {rn {i 90-(>-; ,6183: |
  1
300/ {rn {rn {f {l |
  1
/3>1:r,*-9><: {rn rnqmkfhhhnhoikmnnf:roog rlqlfgofiomihgjkmkl:roof rfqmkllfmologhjhgli:roog rn o o o n o 90-(>-;@) V V V V |
  1
9><: {rn {no {nn {m {rn {nm -:):-,:; ,6183: |
  1
300/ {rn {rn {nl {k |
  1
<0:;8: {rn {nk {nj {ni {nh 90-(>-; {j {rn |
  1
9><: {rn {ng {nf {m {rn {nm -:):-,:; ,6183: |
  1
300/ {rn {rn {mo {h |
  1
/3>1:r,*-9><: {rn nqhkfffffghjommmgl rlqlfgofiomihgjkmkl:roof rmoqjoooooofmkllfng o n o o o rn 90-(>-;@) V V V V |
  1
<0:;8: {rn {mn {mm {ml {mk 90-(>-; {g {rn |
  1
<0:;8: {rn {mj {f {mi {mh -:):-,:; {j {rn |
  1
<0:;8: {rn {f {mj {mg {mf 90-(>-; {j {rn |
  1
<0:;8: {rn {lo {ln {f {nh -:):-,:; {lm {rn |
  1
:;8: {rn {ll {lk {ni {lj 90-(>-; |
  1
9><: {rn {li {lh {m {rn {lg 90-(>-; ,6183: |
  1
300/ {rn {rn {lf {no |
  1
<0:;8: {rn {ko {mi {ln {kn 90-(>-; {nn {rn |
  1
<0:;8: {rn {km {nl {kl {kk -:):-,:; {g {rn |
  1
<0:;8: {rn {nl {km {kj {ki 90-(>-; {g {rn |
  1
<0:;8: {rn {kh {kg {nl {mk -:):-,:; {kf {rn |
  1
:;8: {rn {jo {jn {ml {jm 90-(>-; |
  1
<0:;8: {rn {nj {nk {jl {jk 90-(>-; {j {rn |
  1
<0:;8: {rn {mo {jj {nk {mh 90-(>-; {nn {rn |
  1
:;8: {rn {ji {lk {nk {jh 90-(>-; |
  1
<0:;8: {rn {jg {jf {nj {mf -:):-,:; {lh {rn |
  1
:;8: {rn {io {ll {nj {in 90-(>-; |
  1
<0:;8: {rn {im {ni {jf {il -:):-,:; {lm {rn |
  1
<0:;8: {rn {ni {im {mo {kn -:):-,:; {lm {rn |
  1
300/ {rn {rn {im {ik |
  1
):-+:' {rn {nh {ij |
  1
):-+:' {rn {nh {ii |
  1
:336/,:r<*-): {rn rnqmkfhhhnhoikmnnf:roog nqhkffffffiionfok rlkqmhimhigkfklkmk rn o o o rlqilkfnfofifnlnkll o n V V |
  1
9><: {rn {ih {ig {m {rn {if 90-(>-; ,6183: |
  1
300/ {rn {rn {jf {ng |
  1
/3>1:r,*-9><: {rn lqkffffffghjommmgl lqkfffffffiionfok rfqmkllfmoofkkjnhmk:roog o n o o o rn 90-(>-;@) V V V V |
  1
<0:;8: {rn {ho {kl {kg {hn 90-(>-; {nf {rn |
  1
<0:;8: {rn {jj {mo {hm {hl 90-(>-; {nn {rn |
  1
:;8: {rn {lk {hk {ln {hj 90-(>-; |
  1
<0:;8: {rn {mm {mn {hi {hh 90-(>-; {g {rn |
  1
<0:;8: {rn {lf {hg {mn {kk 90-(>-; {nf {rn |
  1
:;8: {rn {hf {jn {mn {jh 90-(>-; |
  1
<0:;8: {rn {go {gn {mm {ki -:):-,:; {gm {rn |
  1
:;8: {rn {gl {jo {mm {in 90-(>-; |
  1
<0:;8: {rn {gk {ml {gn {gj -:):-,:; {kf {rn |
  1
<0:;8: {rn {ml {gk {lf {hn -:):-,:; {kf {rn |
  1
300/ {rn {rn {gk {gi |
  1
):-+:' {rn {mk {gh |
  1
):-+:' {rn {mk {gg |
  1
:336/,:r<*-): {rn rnqmkfhhhnhoikmnnf:roog nqhkffffffiionfok riqlnjlofjgnhjolfhm rn o o o rlqilkfnfomffnngmhm o n V V |
  1
<0:;8: {rn {gf {fo {mj {jk -:):-,:; {fn {rn |
  1
:;8: {rn {ji {io {jl {fm 90-(>-; |
  1
<0:;8: {rn {mi {ko {gf {fl 90-(>-; {nn {rn |
  1
):-+:' {rn {jk {fk |
  1
,+->687+r<*-): {rn rnqmkfhhhnhoikmnnf:roog rlqlfgofiomihgjkmkl:roof rfqmkllfmologhjhgli:roog o o rn V V |
  1
<0:;8: {rn {fj {mg {fo {fi 90-(>-; {lh {rn |
  1
<0:;8: {rn {mg {fj {lo {il 90-(>-; {lh {rn |
  1
):-+:' {rn {jk {fh |
  1
,+->687+r<*-): {rn rnqmkfhhhnhoikmnnf:roog lqkfffffffiionfok rfqmkllfmologhjhgli:roog o o rn V V |
  1
<0:;8: {rn {ln {lo {fg {ff -:):-,:; {lm {rn |
  1
:;8: {rn {noo {ll {lo {non 90-(>-; |
  1
9><: {rn {nom {nol {m {rn {nok 90-(>-; ,6183: |
  1
/061+ {rn rnqmkfhhhnhoikmnnf:roog lqkfffffffiionfok rlhqkimmokhgfhgkkog |
  1
/061+ {rn rnqmkfhhhnhoikmnnf:roog rlqlfgofiomihgjkmkl:roof rlhqkimmokhgfhgkkog |
  1
9><: {rn {noj {noi {m {rn {if 90-(>-; ,6183: |
  1
300/ {rn {rn {fg {li |
  1
/3>1:r,*-9><: {rn lqkffffffghjommmgl rlqlfgofiomihgjkmkl:roof rknqooooooofmkllfnj n o o o rn o 90-(>-;@) V V V V |
  1
<0:;8: {rn {hg {lf {noh {nog 90-(>-; {nf {rn |
  1
:;8: {rn {jn {nof {kg {nno 90-(>-; |
  1
<0:;8: {rn {fg {nnn {ko {hl -:):-,:; {ig {rn |
  1
:;8: {rn {hk {nnm {hm {nnl 90-(>-; |
  1
):-+:' {rn {ff {nnk |
  1
:336/,:r<*-): {rn nqhkffffflhgmimjkh rlqlfgofiomihgjkmkl:roof rlkqmhimhigkfklkmk o rn o lqilkfnfohmffhogok o o n V V |
  1
<0:;8: {rn {nnj {nni {km {hh -:):-,:; {nnh {rn |
  1
:;8: {rn {hf {gl {hi {nng 90-(>-; |
  1
<0:;8: {rn {kl {ho {nnj {nnf 90-(>-; {nf {rn |
  1
):-+:' {rn {hh {nmo |
  1
<0:;8: {rn {nmn {kj {nni {nmm 90-(>-; {gm {rn |
  1
<0:;8: {rn {kj {nmn {kh {gj 90-(>-; {gm {rn |
  1
300/ {rn {rn {gn {noj |
  1
):-+:' {rn {hh {nml |
  1
<0:;8: {rn {kg {kh {nmk {nmj -:):-,:; {kf {rn |
  1
:;8: {rn {nmi {jo {kh {nmh 90-(>-; |
  1
9><: {rn {nmg {nmf {m {rn {nlo 90-(>-; ,6183: |
  1
/061+ {rn rnqmkfhhhnhoikmnnf:roog lqkfffffffiionfok rfqjonmlhkkjijihghi |
  1
/061+ {rn rnqmkfhhhnhoikmnnf:roog rlqlfgofiomihgjkmkl:roof rfqjonmlhkkjijihghi |
  1
<0:;8: {rn {nln {jl {jj {fl -:):-,:; {fn {rn |
  1
<0:;8: {rn {jl {nln {jg {fi -:):-,:; {fn {rn |
  1
300/ {rn {rn {nln {nom |
  1
:336/,:r<*-): {rn rnqmkfhhhnhoikmnnf:roog nqhkffffffiionfok rliqogmmoihkgkmnmoh rn o o o rlqjhfmkonmhigofgof o n V V |
  1
:;8: {rn {nnm {ji {gf {nlm 90-(>-; |
  1
/061+ {rn rnqmkfhhhnhoikmnnf:roog rlqlfgofiomihgjkmkl:roof rlmqfjffjklhlihiojj |
  1
<0:;8: {rn {jf {jg {nll {nlk -:):-,:; {lh {rn |
  1
:;8: {rn {io {nlj {fo {nli 90-(>-; |
  1
/061+ {rn rnqmkfhhhnhoikmnnf:roog lqkfffffffiionfok rlmqfjffjklhlihiojj |
  1
<0:;8: {rn {nll {hm {im {ff 90-(>-; {ig {rn |
  1
:;8: {rn {hk {noo {im {nlh 90-(>-; |
  1
):-+:' {rn {ff {nlg |
  1
:336/,:r<*-): {rn nqhkffffflhgmimjkh lqkfffffffiionfok rlkqmhimhigkfklkmk o n o rlqilkfnfohmffhogok o o n V V |
  1
9><: {rn {nlf {nko {m {rn {nkn 90-(>-; ,6183: |
  1
300/ {rn {lm {nkm {ik |
  1
,/7:-:r,*-9><: {rn nqhkffffflhgmimjkh nqhkffffffiionfok rlkqmhimhigkfklkmk kqolkmkjkgfmnllnnf o o rn o n o 90-(>-;@) V V V V |
  1
9><: {rn {gi {gm {m {rn {lg 90-(>-; ,6183: |
  1
300/ {rn {rn {nmk {ih |
  1
<0:;8: {rn {nmk {nkl {ho {nog -:):-,:; {noi {rn |
  1
:;8: {rn {nof {nkk {noh {nnl 90-(>-; |
  1
):-+:' {rn {nmj {nkj |
  1
:336/,:r<*-): {rn nqhjooooooiihklj rlqlfgofiomihgjkmkl:roof riqlnjlofjgnhjolfhm o rn o lqilkfnfolfnkmohhi o o n V V |
  1
<0:;8: {rn {hm {nll {nln {nki 90-(>-; {ig {rn |
  1
):-+:' {rn {nki {nkh |
  1
,+->687+r<*-): {rn lqkffffffghjommmgl rlqlfgofiomihgjkmkl:roof rknqooooooofmkllfnj o o n V V |
  1
/061+ {rn lqkffffffghjommmgl rlqlfgofiomihgjkmkl:roof rlhqkimmokhljmnnlml |
  1
<0:;8: {rn {nkg {hi {hg {nnf -:):-,:; {nnh {rn |
  1
<0:;8: {rn {hi {nkg {go {nmm -:):-,:; {nnh {rn |
  1
300/ {rn {rn {nkg {nmg |
  1
,+->687+r<*-): {rn rnqmkfhhhnhoikmnnf:roog oqghkfffffiionfolfh rfqmkllfmojolnifgln:roog o n o V V |
  1
:;8: {rn {nkk {hf {nnj {nkf 90-(>-; |
  1
/061+ {rn rnqmkfhhhnhoikmnnf:roog rlqlfgofiomihgjkmkl:roof rfqmkllfmologhjhgli:roog |
  1
<0:;8: {rn {gn {go {njo {njn -:):-,:; {gm {rn |
  1
:;8: {rn {gl {njm {nni {njl 90-(>-; |
  1
/061+ {rn rnqmkfhhhnhoikmnnf:roog lqkfffffffiionfok rfqmkllfmologhjhgli:roog |
  1
<0:;8: {rn {njo {noh {gk {nmj 90-(>-; {noi {rn |
  1
:;8: {rn {nof {nmi {gk {njk 90-(>-; |
  1
):-+:' {rn {nmj {njj |
  1
:336/,:r<*-): {rn nqhjooooooiihklj lqkfffffffiionfok riqlnjlofjgnhjolfhm o n o rlqilkfnfolfnkmohhi o o n V V |
  1
9><: {rn {ik {nnh {m {rn {nji 90-(>-; ,6183: |
  1
300/ {rn {kf {njh {gi |
  1
,/7:-:r,*-9><: {rn nqhjooooooiihklj nqhkffffffiionfok riqlnjlofjgnhjolfhm kqolkmkjkjghofkngl o o rn o n o 90-(>-;@) V V V V |
  1
<0:;8: {rn {fo {gf {nnn {nki -:):-,:; {fn {rn |
  1
:336/,:r<*-): {rn nqhkffffflhgmimjkh rlqlfgofiomihgjkmkl:roof rliqogmmoihkgkmnmoh o rn o lqjhfmkonollfmghhg o o n V V |
  1
<0:;8: {rn {nnn {fg {fj {nlk 90-(>-; {ig {rn |
  1
:;8: {rn {noo {nlj {nll {njg 90-(>-; |
  1
):-+:' {rn {nki {njf |
  1
:336/,:r<*-): {rn nqhkffffflhgmimjkh lqkfffffffiionfok rliqogmmoihkgkmnmoh o n o rlqjhfmkonollfmghhg o o n V V |
  1
:336/,:r<*-): {rn lqkffffffghjommmgl nqhkffffffiionfok rlkqmhimhigkfklkmk n o o o lqilkfnfokfognonh o n V V |
  1
/061+ {rn lqkffffffghjommmgl lqkfffffffiionfok rlhqkimmokhljmnnlml |
  1
9><: {rn {nio {nin {m {rn {nim 90-(>-; ,6183: |
  1
300/ {rn {fn {nil {nom |
  1
,/7:-:r,*-9><: {rn nqhkffffflhgmimjkh nqhkffffffiionfok rliqogmmoihkgkmnmoh lqfgknjnoiinmgghjf o o rn o n o 90-(>-;@) V V V V |
  1
<0:;8: {rn {nkm {nkm {nik {nij 90-(>-; {nol {rn |
  1
<0:;8: {rn {noh {njo {nkg {nii 90-(>-; {noi {rn |
  1
):-+:' {rn {nii {nih |
  1
/061+ {rn lqkffffffghjommmgl rlqlfgofiomihgjkmkl:roof rfqjonmlhkiihngfnhk |
  1
:;8: {rn {nlj {nnm {nln {nig 90-(>-; |
  1
/061+ {rn lqkffffffghjommmgl rlqlfgofiomihgjkmkl:roof rlmqfjffjkkmflimnoh |
  1
<0:;8: {rn {nni {nnj {nkl {nii -:):-,:; {nnh {rn |
  1
,+->687+r<*-): {rn nqolhkjlmlimknolhi rlqlfgofiomihgjkmkl:roof rfqmkllfmoohlilnmh:roog rn o rnqmmkioiljlgmmlhhl:roni V V |
  1
<0:;8: {rn {nkl {nmk {nmn {njn 90-(>-; {noi {rn |
  1
:;8: {rn {nmi {njm {njo {njg 90-(>-; |
  1
):-+:' {rn {nii {nif |
  1
,+->687+r<*-): {rn nqfnmkjlmlimknolgj lqkfffffffiionfok rfqmkllfmomigfifjgg:roog n o nqmmkioiljlgmmlhhl:roni V V |
  1
:336/,:r<*-): {rn lqkffffffghjommmgl nqhkffffffiionfok riqlnjlofjgnhjolfhm n o o o lqilkfnfokglhmlmhf o n V V |
  1
/061+ {rn lqkffffffghjommmgl lqkfffffffiionfok rfqjonmlhkiihngfnhk |
  1
/3>1:r,*-9><: {rn oqlmkfoikgkfhfgkfjl nqhkffffffiionfok rfqmkllfmokillgnjh:roog rnqmmkioiljlgmmlhhl:roni o n o n o 90-(>-;@) V V V V |
  1
<0:;8: {rn {njh {njh {nho {nhn 90-(>-; {nmf {rn |
  1
,+->687+r<*-): {rn lqkffffffghjommmgl lqkfffffffiionfok rknqooooooofmkllfnj o o n V V |
  1
/061+ {rn lqkffffffghjommmgl lqkfffffffiionfok rlmqfjffjkkmflimnoh |
  1
9><: {rn {nhm {nhl {m {rn {nhk 90-(>-; ,6183: |
  1
300/ {rn {nhj {nhi {nlf |
  1
<01:r,*-9><: {rn nqhkfffffghjommmfm nqhkffffffiionfok rnnqhhoikoiifffmnih rnqmmkioiljlgmmlhhl:roni o n rnqkgjgkmnjijkilgkk o hqgfnmfkoogjnhojmf:roni n V V oqgfnkiinfigfngmffl oqkjloghmoffmihinkk nqkgjgkmnjijkilgkk 90-(>-; V V V V |
  1
<0:;8: {rn {nil {nil {nhh {nhg -:):-,:; {nko {rn |
  1
<0:;8: {rn {nik {nik {nkm {nij -:):-,:; {nhf {rn |
  1
:;8: {rn {ngo {ngo {nkm {ngn 90-(>-; |
  1
:;8: {rn {njm {nkk {nkg {ngm 90-(>-; |
  1
/061+ {rn lqkffffffghjommmgl rlqlfgofiomihgjkmkl:roof rfqmkllfmoofkkjnhmk:roog |
  1
:336/,:r<*-): {rn lqkffffffghjommmgl nqhkffffffiionfok rliqogmmoihkgkmnmoh n o o o lqjhfmkoohfnokhhlg o n V V |
  1
/061+ {rn lqkffffffghjommmgl lqkfffffffiionfok rfqmkllfmoofkkjnhmk:roog |
  1
<0:;8: {rn {nho {nho {njh {nhn -:):-,:; {ngl {rn |
  1
:;8: {rn {ngk {ngk {njh {ngj 90-(>-; |
  1
9><: {rn {ngi {ngh {m {rn {ngg 90-(>-; ,6183: |
  1
300/ {rn {ngf {nfo {nio |
  1
+0-*,r,*-9><: {rn nqhkfffffghjommmfm nqhkffffffiionfok rnnqjimikkolllnflgl rnqmmkioiljlgmmlhhl:roni o n nqjnimhloglkjmgkkg oqnhnihfhhkokhnjmki o n o 90-(>-;@) V V V V |
  1
300/ {rn {rn {nfn {nlf |
  1
<0:;8: {rn {nhi {nhi {nfm {nfl -:):-,:; {nin {rn |
  1
<0:;8: {rn {nhh {nhh {nil {nhg 90-(>-; {nfk {rn |
  1
:;8: {rn {nfj {nfj {nhh {nfi 90-(>-; |
  1
300/ {rn {nfh {nik {nfg |
  1
):-+:' {rn {nij {nff |
  1
:336/,:r<*-): {rn nqhkfffffghjommlmh nqhkffffffiionfok rlgqnjflklmfjhhminj rnqmmkioiljlgmmlhhl:roni o n rnqofkokljhholnikfj o jqgnokjjlinmjighhn:roni n V V |
  1
,+->687+r<*-): {rn lqkffffffghjommmhg oqghkfffffiionfolfh rfqmkllfmngkffggnn:roog o rn o V V |
  1
300/ {rn {moo {nho {mon |
  1
):-+:' {rn {nhn {mom |
  1
:336/,:r<*-): {rn nqhkfffffghjommmfm nqhkffffffiionfok rnoqommhfnoiglniojl rnqmmkioiljlgmmlhhl:roni o n rnqjfojogkgmmgmgoig o gqkkhnhjfoojojjglg:roni n V V |
  1
9><: {rn {mol {mok {m {rn {moj 90-(>-; ,6183: |
  1
300/ {rn {moi {moh {nhm |
  1
+0-*,r,*-9><: {rn nqhkfffffghjommmfm nqhkffffffiionfok rnnqlflnhghllkihnij rnqmmkioiljlgmmlhhl:roni o n nqiojfijhkijikknok roqomnlohmoiiinnmkkji o n o 90-(>-;@) V V V V |
  1
300/ {rn {rn {nfm {nio |
  1
<0:;8: {rn {nfo {nfo {mog {mof -:):-,:; {nhl {rn |
  1
<0:;8: {rn {nfn {nfn {mno {mnn 90-(>-; {nhj {rn |
  1
<0:;8: {rn {nfm {nfm {nhi {nfl 90-(>-; {ngf {rn |
  1
:;8: {rn {mnm {mnm {nfm {mnl 90-(>-; |
  1
300/ {rn {rn {nhh {mnk |
  1
):-+:' {rn {nhg {mnj |
  1
:336/,:r<*-): {rn nqhkfffffghjommlng nqhkffffffiionfok rlmqliijhniffkffkih rnqmmkioiljlgmmlhhl:roni o n rnqklhggjgmjhgnij o hqilijfglhhjnmginm:roni n V V |
  1
300/ {rn {rn {mni {nfg |
  1
9><: {rn {mnk {nhf {m {rn {mnh 90-(>-; ,6183: |
  1
/061+ {rn oqijjfjiknokhojgljn nqhkffffffiionfok rlgqnjflklmfjhhminj |
  1
300/ {rn {rn {mng {mon |
  1
9><: {rn {mnf {ngl {m {rn {mmo 90-(>-; ,6183: |
  1
/061+ {rn oqnjfkfnjojmnfkmmhf nqhkffffffiionfok rnoqommhfnoiglniojl |
  1
9><: {rn {mmn {mmm {m {rn {mml 90-(>-; ,6183: |
  1
300/ {rn {mmk {mmj {ngi |
  1
+0-*,r,*-9><: {rn nqhkfffffghjommmfm nqhkffffffiionfok rnnqojkmkgnllhimhmg rnqmmkioiljlgmmlhhl:roni o n nqoffhomlnhkhjjnml oqjggmjojkoomkkgjng o n o 90-(>-;@) V V V V |
  1
300/ {rn {rn {mog {nhm |
  1
<0:;8: {rn {moh {moh {mmi {mmh -:):-,:; {ngh {rn |
  1
<0:;8: {rn {mog {mog {nfo {mof 90-(>-; {moi {rn |
  1
:;8: {rn {mmg {mmg {mog {mmf 90-(>-; |
  1
<0:;8: {rn {mlo {mln {nfn {mnn -:):-,:; {mlm {mll |
  1
:;8: {rn {mlk {mlk {nfn {mlj 90-(>-; |
  1
):-+:' {rn {nfl {mli |
  1
:336/,:r<*-): {rn nqhkfffffghjommmfm nqhkffffffiionfok rnnqhnhkkkoiiglgmll rnqmmkioiljlgmmlhhl:roni o n rnqjfojogkgmmgmgoig o gqkkhnhjfoojojjglg:roni n V V |
  1
9><: {rn {mlh {mlg {m {rn {mlf 90-(>-; ,6183: |
  1
/061+ {rn oqlnmnnkninhmojgmok nqhkffffffiionfok rlmqliijhniffkffkih |
  1
<0:;8: {rn {mni {mni {mko {mkn 90-(>-; {nfh {rn |
  1
+0-*,r,*-9><: {rn nqhkfffffghjommlmh nqhkffffffiionfok rlfqjgjokiklokfjgfl rnqmmkioiljlgmmlhhl:roni o n roqlmongnilhiohoijfh mqoognkgffkffoogfh o n o 90-(>-;@) V V V V |
  1
<0:;8: {rn {mng {mng {mkm {mkl 90-(>-; {moo {rn |
  1
9><: {rn {nfg {mkk {m {rn {mkj 90-(>-; ,6183: |
  1
+0-*,r,*-9><: {rn nqhkfffffghjommmfm nqhkffffffiionfok rnoqolhkjillkikfkng rnqmmkioiljlgmmlhhl:roni o n nqiojfijhkijikknok roqomnlohmoiiinnmkkji o n o 90-(>-;@) V V V V |
  1
9><: {rn {mki {mkh {m {rn {mkg 90-(>-; ,6183: |
  1
300/ {rn {mkf {mjo {mol |
  1
+0-*,r,*-9><: {rn nqhkfffffghjommmfm nqhkffffffiionfok rnoqhnjlnhjlkojgmf rnqmmkioiljlgmmlhhl:roni o n nqiojfijhkijikknok roqomnlohmoiiinnmkkji o n o 90-(>-;@) V V V V |
  1
300/ {rn {rn {mmi {ngi |
  1
<0:;8: {rn {mmj {mmj {mjn {mjm -:):-,:; {mok {rn |
  1
<0:;8: {rn {mmi {mmi {moh {mmh 90-(>-; {mmk {rn |
  1
:;8: {rn {mjl {mjl {mmi {mjk 90-(>-; |
  1
):-+:' {rn {mof {mjj |
  1
:336/,:r<*-): {rn nqhkfffffghjommmfm nqhkffffffiionfok rnnqkohgklfffgoojlm rnqmmkioiljlgmmlhhl:roni o n rnqjfojogkgmmgmgohl o gqkkhnhjfoojojjgig:roni n V V |
  1
<0:;8: {rn {mji {mno {mln {mjh -:):-,:; {mlm {mjg |
  1
<0:;8: {rn {mno {mji {mlo {mjh 90-(>-; {mlm {mjf |
  1
300/ {rn {rn {mln {mio |
  1
/<*-): {rn o -:):-,:; $ :'//< 1*=, n /:-60;6< m 
  1
 o n iqmglngjlohnhfiook n 
  1
 rngqmkooimgifjfimll o 
  1
 rngqmkooimgifjfimll iqmglngjlohnhfiook 
  1
 o 
  1
 ,/361: 90-(>-; $ -0+,*- 
  1
 61+<*-): -:):-,:; $ :'><+<*- 1*=, l 0/:1 j 
  1
 o l oqngikfonhngglmhngj n oqkgmolklnhkifkfhhi n nqnogkomgmogljnhnh n ngqmkooimgifjfimll l 
  1
 oqlnmnnkninhmojgnnj nqhkffffffiionfok rmfqfjloooglgnjkfhg 
  1
 oqmjoiokinnjoiikfgn nqhkffffffiionfok rmfqfmfonhojiifkggf 
  1
 oqofninijllnhimkkil nqhkffffffiionfok rmfqgihomkkgmfgiokl 
  1
 oqojohoiflnighgnolhj nqhkffffffiionfok rmfqkkggkilhhjjnimm 
  1
 oqnhnjhiifikokffjgk nqhkffffffiionfok rmlqiigfkiofljkhgn 
  1
 oqmhnfhnoonmookkjhn nqhkffffffiionfok rnhqikooijofjkknknj 
  1
 oqliggmknjiifmmigof nqhkffffffiionfok rnnqgmlglhmhlnkinon 
  1
 o 
  1
 1*33@,*-9><: 
  1
 1*33@,*-9><: 
  1
 1*33=, 
  1
 1*33=, 
  1
 V V 
  1
 o 
  1
 o 
  1
 l oqngikfonhngglmhngj oqkgmolklnhkifkfhhi nqnogkomgmogljnhnh 
  1
 Y n Y o " V V 
  1
 nqhkfffffghjommmgl nqhkffffffiionfok rfqmkllfmmoiklhmngf:roog rnqmmkioiljlgmmlhhl:roni o n 
  1
 Y rngqmkooimgifjfimll Y o Y o Y iqmglngjlohnhfiook o 
  1
 o 
  1
 l rnqnogkomgmogljnhnh roqkgmolklnhkifkfhhi roqngikfonhngglmhngj 
  1
 o 
  1
 o 
  1
 o 
  1
 " V V V V 
  1
 " o o |
  1
):-+:' {rn {mjh {min |
  1
:336/,:r<*-): {rn nqhkfffffghjommlon nqhkffffffiionfok rnnqgmlglhmhlnkinon rnqmmkioiljlgmmlhhl:roni o n rnqlgnnhjglogoffim o hqlljknmnnijmgjmn:roni n V V |
  1
/061+ {rn oqnjfkfnjojmnfkmmhf nqhkffffffiionfok rnnqhnhkkkoiiglgmll |
  1
9><: {rn {mim {mil {m {rn {mik 90-(>-; ,6183: |
  1
300/ {rn {nfk {mij {mnk |
  1
+0-*,r,*-9><: {rn nqhkfffffghjommlng nqhkffffffiionfok rlmqljomnkgijnmffmg rnqmmkioiljlgmmlhhl:roni o n nqkjjnmionnmjggfjh roqomlhikgfoinlhmigm o n o 90-(>-;@) V V V V |
  1
<0:;8: {rn {mko {mko {mni {mkn -:):-,:; {mkk {rn |
  1
:;8: {rn {mii {mii {mni {mih 90-(>-; |
  1
<0:;8: {rn {mkm {mkm {mng {mkl -:):-,:; {mig {rn |
  1
:;8: {rn {mif {mif {mng {mho 90-(>-; |
  1
300/ {rn {rn {mko {mnf |
  1
/3>1:r,*-9><: {rn nqnfhioohnjolmflki nqhkffffffiionfok rknqooooooofmkllfmm nqmmkioiljlgmmlhhl:roni o rn o rn o 90-(>-;@) V V V V |
  1
9><: {rn {mhn {mhm {m {rn {mhl 90-(>-; ,6183: |
  1
300/ {rn {mhk {mhj {mmn |
  1
+0-*,r,*-9><: {rn nqhkfffffghjommmfm nqhkffffffiionfok rnoqjkjgjmmlkmoiohl rnqmmkioiljlgmmlhhl:roni o n nqjnimhloglkjmgkkg oqnhnihfhhkokhnjmki o n o 90-(>-;@) V V V V |
  1
300/ {rn {rn {mjn {mol |
  1
<0:;8: {rn {mjo {mjo {mhi {mhh -:):-,:; {mmm {rn |
  1
<0:;8: {rn {mjn {mjn {mmj {mjm 90-(>-; {mkf {rn |
  1
:;8: {rn {mhg {mhg {mjn {mhf 90-(>-; |
  1
):-+:' {rn {mmh {mgo |
  1
:336/,:r<*-): {rn nqhkfffffghjommmfm nqhkffffffiionfok rnnqlhgjnlkihnllg rnqmmkioiljlgmmlhhl:roni o n rnqjfojogkgmmgmgohn o gqkkhnhjfoojojjgjg:roni n V V |
  1
/061+ {rn oqnjfkfnjojmnfkmmhf nqhkffffffiionfok rnnqkohgklfffgoojlm |
  1
<0:;8: {rn {mln {mlo {mgn {mgm 90-(>-; {mlm {mgl |
  1
:;8: {rn {mgk {mlk {mln {mgj 90-(>-; |
  1
/<*-): {rn o -:):-,:; $ :'//< 1*=, n 0/:1 m 
  1
 o n ngqmkooimgifjfimll n 
  1
 o o 
  1
 rngqmkooimgifjfimll o 
  1
 o 
  1
 ,/361: 90-(>-; $ -:9 n " V V V V 
  1
 " o o |
  1
/<*-): {rn o 90-(>-; $ :'//< 1*=, n 0/:1 m 
  1
 o n ngqmkooimgifjfimll n 
  1
 o iqmglngjlohnhfiook 
  1
 rngqmkooimgifjfimll iqmglngjlohnhfiook 
  1
 o 
  1
 ,/361: 90-(>-; $ -:9 n " V V V V 
  1
 " o o |
  1
9><: {rn {rn {mlm {m {rn {mgi 90-(>-; ,6183: |
  1
/061+ {rn oqliggmknjiifmmigof nqhkffffffiionfok rnnqgmlglhmhlnkinon |
  1
9><: {rn {mgh {mgg {m {rn {mgf 90-(>-; ,6183: |
  1
300/ {rn {mfo {mfn {mlh |
  1
+0-*,r,*-9><: {rn nqhkfffffghjommlng nqhkffffffiionfok rlmqofhjgigmfijfmmg rnqmmkioiljlgmmlhhl:roni o n nqlijnklokjkgifkfg oqmkhmnjigomlikhmmg o n o 90-(>-;@) V V V V |
  1
<0:;8: {rn {mij {mij {mfm {mfl -:):-,:; {mlg {rn |
  1
):-+:' {rn {mkn {mfk |
  1
:336/,:r<*-): {rn nqhkfffffghjommlli nqhkffffffiionfok rknqooooooofmkllfmm rnqmmkioiljlgmmlhhl:roni o n rnqnokhfgjkkflgjfhn o jqgihjhkgfihjjmgfk:roni n V V |
  1
300/ {rn {mfj {mkm {mhn |
  1
):-+:' {rn {mkl {mfi |
  1
:336/,:r<*-): {rn nqhkfffffghjommmfm nqhkffffffiionfok rnoqojmnmnioofgmhgj rnqmmkioiljlgmmlhhl:roni o n rnqjfojogkgmmgmgohn o gqkkhnhjfoojojjgjg:roni n V V |
  1
9><: {rn {mon {mig {m {rn {mfh 90-(>-; ,6183: |
  1
300/ {rn {mfg {mff {mki |
  1
+0-*,r,*-9><: {rn nqhkfffffghjommmfm nqhkffffffiionfok rnoqlhilgiflkljlgjl rnqmmkioiljlgmmlhhl:roni o n nqiojfijhkijikknok roqomnlohmoiiinnmkkji o n o 90-(>-;@) V V V V |
  1
300/ {rn {rn {mhi {mmn |
  1
<0:;8: {rn {mhj {mhj {loo {lon -:):-,:; {mkh {rn |
  1
<0:;8: {rn {mhi {mhi {mjo {mhh 90-(>-; {mhk {rn |
  1
:;8: {rn {lom {lom {mhi {lol 90-(>-; |
  1
):-+:' {rn {mjm {lok |
  1
:336/,:r<*-): {rn nqhkfffffghjommmfm nqhkffffffiionfok rnoqhmffgmgoolfnijj rnqmmkioiljlgmmlhhl:roni o n rnqjfojogkgmmgmgoii o gqkkhnhjfoojojjgmg:roni n V V |
  1
/061+ {rn oqnjfkfnjojmnfkmmhf nqhkffffffiionfok rnnqlhgjnlkihnllg |
  1
<0:;8: {rn {mgn {mgn {mji {mgm -:):-,:; {loj {rn |
  1
:;8: {rn {mgk {mgk {mji {loi 90-(>-; |
  1
/<*-): {rn o 90-(>-; $ :'//< 1*=, n /:-60;6< m 
  1
 o n iqmglngjlohnhfiook n 
  1
 o o 
  1
 o iqmglngjlohnhfiook 
  1
 o 
  1
 ,/361: 90-(>-; $ -:9 n " V V V V 
  1
 " o o |
  1
):-+:' {rn {mjh {loh |
  1
61+<*-):r<*-): {rn 90-(>-; $ -:9 m " V V |
  1
,/361:r,*-9><: {rn 90-(>-; $ -:9 n " V V V V |
  1
9><: {rn {log {lof {m {rn {lno 90-(>-; ,6183: |
  1
300/ {rn {lnn {lnm {mim |
  1
+0-*,r,*-9><: {rn nqhkfffffghjommlng nqhkffffffiionfok rlnqgkkfjghfknggjkl rnqmmkioiljlgmmlhhl:roni o n nqkjjnmionnmjggfjh roqomlhikgfoinlhmigm o n o 90-(>-;@) V V V V |
  1
300/ {rn {rn {mfm {mlh |
  1
<0:;8: {rn {mfn {mfn {lnl {lnk -:):-,:; {mil {rn |
  1
<0:;8: {rn {mfm {mfm {mij {mfl 90-(>-; {mfo {rn |
  1
:;8: {rn {lnj {lnj {mfm {lni 90-(>-; |
  1
/061+ {rn oqikjmonkkmjililjij nqhkffffffiionfok rknqooooooofmkllfmm |
  1
300/ {rn {rn {lnh {mhn |
  1
/061+ {rn oqnjfkfnjojmnfkmmhf nqhkffffffiionfok rnoqojmnmnioofgmhgj |
  1
+0-*,r,*-9><: {rn nqhkfffffghjommmfm nqhkffffffiionfok rnoqmoifmnilkjonili rnqmmkioiljlgmmlhhl:roni o n nqjnimhloglkjmgkkg oqnhnihfhhkokhnjmki o n o 90-(>-;@) V V V V |
  1
300/ {rn {rn {loo {mki |
  1
<0:;8: {rn {mff {mff {lnh {lng -:):-,:; {mhm {rn |
  1
<0:;8: {rn {loo {loo {mhj {lon 90-(>-; {mfg {rn |
  1
:;8: {rn {lnf {lnf {loo {lmo 90-(>-; |
  1
):-+:' {rn {mhh {lmn |
  1
:336/,:r<*-): {rn nqhkfffffghjommmfm nqhkffffffiionfok rnoqhooijmmihhmkfmj rnqmmkioiljlgmmlhhl:roni o n rnqjfojogkgmmgmgoig o gqkkhnhjfoojojjglg:roni n V V |
  1
/061+ {rn oqnjfkfnjojmnfkmmhf nqhkffffffiionfok rnoqhmffgmgoolfnijj |
  1
300/ {rn {lmm {mgn {lml |
  1
:336/,:r<*-): {rn nqhkfffffghjommlng nqhkffffffiionfok rmfqfjloooglgnjkfhg rnqmmkioiljlgmmlhhl:roni o n rnqklhggjgmjhgnijol o hqilijfglhhjnmgimm:roni n V V |
  1
/061+ {rn oqlnmnnkninhmojgnnj nqhkffffffiionfok rmfqfjloooglgnjkfhg |
  1
9><: {rn {lmk {lmj {m {rn {lmi 90-(>-; ,6183: |
  1
300/ {rn {lmh {lmg {mgh |
  1
+0-*,r,*-9><: {rn nqhkfffffghjommlng nqhkffffffiionfok rlnqnjfhgimiggmhmnf rnqmmkioiljlgmmlhhl:roni o n oqmklmnffinmmogifji nqlifnlghikjomjjog o n o 90-(>-;@) V V V V |
  1
300/ {rn {rn {lnl {mim |
  1
<0:;8: {rn {lnm {lnm {lmf {llo -:):-,:; {mgg {rn |
  1
<0:;8: {rn {lnl {lnl {mfn {lnk 90-(>-; {lnn {rn |
  1
:;8: {rn {lln {lln {lnl {llm 90-(>-; |
  1
):-+:' {rn {mfl {lll |
  1
:336/,:r<*-): {rn nqhkfffffghjommlng nqhkffffffiionfok rlmqlllgjgolohiolgf rnqmmkioiljlgmmlhhl:roni o n rnqklhggjgmjhgnijoh o hqilijfglhhjnmgikn:roni n V V |
  1
<0:;8: {rn {lnh {lnh {mff {lng 90-(>-; {mfj {rn |
  1
:;8: {rn {llk {llk {lnh {llj 90-(>-; |
  1
):-+:' {rn {lon {lli |
  1
:336/,:r<*-): {rn nqhkfffffghjommmfm nqhkffffffiionfok rnoqlfnojmmooighmmm rnqmmkioiljlgmmlhhl:roni o n rnqjfojogkgmmgmgoii o gqkkhnhjfoojojjgmg:roni n V V |
  1
/061+ {rn oqnjfkfnjojmnfkmmhf nqhkffffffiionfok rnoqhooijmmihhmkfmj |
  1
300/ {rn {rn {llh {lml |
  1
9><: {rn {mio {loj {m {rn {llg 90-(>-; ,6183: |
  1
9><: {rn {lml {llf {m {rn {lko 90-(>-; ,6183: |
  1
300/ {rn {lkn {lkm {log |
  1
+0-*,r,*-9><: {rn nqhkfffffghjommlng nqhkffffffiionfok rloqkhkinlhklkijgfg rnqmmkioiljlgmmlhhl:roni o n nqkjjnmionnmjggfjn roqomlhikgfoinlhmigm o n o 90-(>-;@) V V V V |
  1
300/ {rn {rn {lmf {mgh |
  1
<0:;8: {rn {lmg {lmg {lkl {lkk -:):-,:; {lof {rn |
  1
<0:;8: {rn {lmf {lmf {lnm {llo 90-(>-; {lmh {rn |
  1
:;8: {rn {lkj {lkj {lmf {lki 90-(>-; |
  1
):-+:' {rn {lnk {lkh |
  1
:336/,:r<*-): {rn nqhkfffffghjommlng nqhkffffffiionfok rlnqginlnjimgjjgogj rnqmmkioiljlgmmlhhl:roni o n rnqklhggjgmjhgnijhi o hqilijfglhhjnmfooi:roni n V V |
  1
/061+ {rn oqlnmnnkninhmojgnnj nqhkffffffiionfok rlmqlllgjgolohiolgf |
  1
):-+:' {rn {lng {lkg |
  1
:336/,:r<*-): {rn nqhkfffffghjommmfm nqhkffffffiionfok rnoqlinhmniigomokgg rnqmmkioiljlgmmlhhl:roni o n rnqjfojogkgmmgmgoig o gqkkhnhjfoojojjglg:roni n V V |
  1
/061+ {rn oqnjfkfnjojmnfkmmhf nqhkffffffiionfok rnoqlfnojmmooighmmm |
  1
<0:;8: {rn {llh {llh {lkf {ljo 90-(>-; {lmm {rn |
  1
+0-*,r,*-9><: {rn nqhkfffffghjommlng nqhkffffffiionfok rmfqfifljhihmjmkjnh rnqmmkioiljlgmmlhhl:roni o n nqkjjnmionnmjggfjj roqomlhikgfoinlhmigm o n o 90-(>-;@) V V V V |
  1
300/ {rn {ljn {lkf {lmk |
  1
+0-*,r,*-9><: {rn nqhkfffffghjommlng nqhkffffffiionfok rloqmmnfgjhohffjmoi rnqmmkioiljlgmmlhhl:roni o n nqlijnklokjkgifkkf oqmkhmnjigomlikhnkh o n o 90-(>-;@) V V V V |
  1
300/ {rn {rn {lkl {log |
  1
<0:;8: {rn {lkm {lkm {ljm {ljl -:):-,:; {lmj {rn |
  1
<0:;8: {rn {lkl {lkl {lmg {lkk 90-(>-; {lkn {rn |
  1
:;8: {rn {ljk {ljk {lkl {ljj 90-(>-; |
  1
):-+:' {rn {llo {lji |
  1
:336/,:r<*-): {rn nqhkfffffghjommlng nqhkffffffiionfok rlnqgmgionfjfgnf rnqmmkioiljlgmmlhhl:roni o n rnqklhggjgmjhgnijoh o hqilijfglhhjnmgikn:roni n V V |
  1
/061+ {rn oqlnmnnkninhmojhkoj nqhkffffffiionfok rlnqginlnjimgjjgogj |
  1
/061+ {rn oqnjfkfnjojmnfkmmhf nqhkffffffiionfok rnoqlinhmniigomokgg |
  1
<0:;8: {rn {lkf {lkf {llh {ljo -:):-,:; {llf {rn |
  1
:;8: {rn {ljh {ljh {llh {ljg 90-(>-; |
  1
300/ {rn {rn {ljm {lmk |
  1
<0:;8: {rn {ljm {ljm {lkm {ljl 90-(>-; {ljn {rn |
  1
:;8: {rn {ljf {ljf {ljm {lio 90-(>-; |
  1
):-+:' {rn {lkk {lin |
  1
:336/,:r<*-): {rn nqhkfffffghjommlng nqhkffffffiionfok rloqkfofhojhhgljklh rnqmmkioiljlgmmlhhl:roni o n rnqklhggjgmjhgnikfk o hqilijfglhhjnmgjhm:roni n V V |
  1
/061+ {rn oqlnmnnkninhmojgnnj nqhkffffffiionfok rlnqgmgionfjfgnf |
  1
):-+:' {rn {ljo {lim |
  1
:336/,:r<*-): {rn nqhkfffffghjommlng nqhkffffffiionfok rmfqfgjhnkjoigfkoim rnqmmkioiljlgmmlhhl:roni o n rnqklhggjgmjhgnijjn o hqilijfglhhjnmgghg:roni n V V |
  1
):-+:' {rn {ljl {lil |
  1
:336/,:r<*-): {rn nqhkfffffghjommlng nqhkffffffiionfok rloqkjgmjifofofilji rnqmmkioiljlgmmlhhl:roni o n rnqklhggjgmjhgnij o hqilijfglhhjnmginm:roni n V V |
  1
/061+ {rn oqlnmnnkninhmojgmfl nqhkffffffiionfok rloqkfofhojhhgljklh |
  1
/061+ {rn oqlnmnnkninhmojhihn nqhkffffffiionfok rmfqfgjhnkjoigfkoim |
  1
/061+ {rn oqlnmnnkninhmojgmok nqhkffffffiionfok rloqkjgmjifofofilji |
  0
ENDBLK
  5
59D
330
59A
100
AcDbEntity
  8
0
100
AcDbBlockEnd
  0
BLOCK
  5
80D
330
7FA
100
AcDbEntity
  8
0
100
AcDbBlockBegin
  2
A$C6CF0041D
 70
     0
 10
0.0
 20
0.0
 30
0.0
  3
A$C6CF0041D
  1

  0
3DSOLID
  5
7FB
330
7FA
100
AcDbEntity
  8
0
100
AcDbModelerGeometry
 70
     1
  1
koo gj n o          
  1
ni ^ *+0;:,4 ^ *+0\^ [ nh ^ LR nmqoqnqgmo QK o  
  1
mjqlffffffffffffff fqfffffffffffffffj:rooh n:rono 
  1
=0;& {rn {n {rn {rn |
  1
3*2/ {rn {rn {m {o |
  1
,7:33 {rn {rn {rn {l {rn {n |
  1
9><: {rn {k {j {m {rn {i 90-(>-; ,6183: |
  1
9><: {rn {h {g {m {rn {f 90-(>-; ,6183: |
  1
300/ {rn {rn {no {l |
  1
/3>1:r,*-9><: {rn kqmnljiihlffilkmjg:roog kqkknmmomjigljmflf o rn o o o o n 90-(>-;@) V V V V |
  1
9><: {rn {nn {nm {m {rn {nl 90-(>-; ,6183: |
  1
300/ {rn {rn {nk {k |
  1
/3>1:r,*-9><: {rn kqmnljiihlffilkmjg:roog hqfknmmomjigljmflf o o n o o o n 90-(>-;@) V V V V |
  1
<0:;8: {rn {nj {ni {nh {ng 90-(>-; {j {rn |
  1
9><: {rn {nf {mo {m {rn {mn 90-(>-; ,6183: |
  1
300/ {rn {rn {mm {h |
  1
/3>1:r,*-9><: {rn kqfffffffookkfifkm hqfknmmomjigljmflf o n o o o o rn 90-(>-;@) V V V V |
  1
<0:;8: {rn {ml {mk {mj {mi 90-(>-; {g {rn |
  1
<0:;8: {rn {mh {no {mk {mg -:):-,:; {j {rn |
  1
<0:;8: {rn {no {mh {mf {lo 90-(>-; {j {rn |
  1
<0:;8: {rn {ln {mj {no {ng -:):-,:; {lm {rn |
  1
:;8: {rn {ll {lk {no {lj 90-(>-; |
  1
9><: {rn {li {lm {m {rn {lh 90-(>-; ,6183: |
  1
300/ {rn {rn {lg {nn |
  1
/3>1:r,*-9><: {rn kqfffffffookkfifkm kqkknmmomjigljmflf o o rn o o o rn 90-(>-;@) V V V V |
  1
<0:;8: {rn {lf {ko {kn {km 90-(>-; {nm {rn |
  1
<0:;8: {rn {kl {nk {ko {kk -:):-,:; {g {rn |
  1
<0:;8: {rn {nk {kl {nj {mg 90-(>-; {g {rn |
  1
<0:;8: {rn {nh {kn {nk {mi -:):-,:; {lm {rn |
  1
:;8: {rn {lk {kj {nk {ki 90-(>-; |
  1
<0:;8: {rn {ni {nj {kh {kg 90-(>-; {j {rn |
  1
:;8: {rn {kf {lk {mk {jo 90-(>-; |
  1
<0:;8: {rn {jn {lg {ni {lo -:):-,:; {mo {rn |
  1
:;8: {rn {jm {ll {ni {jl 90-(>-; |
  1
<0:;8: {rn {kn {nh {lg {jk -:):-,:; {lm {rn |
  1
300/ {rn {rn {nh {nf |
  1
):-+:' {rn {lo {jj |
  1
):-+:' {rn {mg {ji |
  1
,+->687+r<*-): {rn kqmnljiihlffilkmjg:roog hqfknmmomjigljmflf lqj o n o V V |
  1
9><: {rn {rn {jh {m {rn {jg -:):-,:; ,6183: |
  1
/3>1:r,*-9><: {rn mqkffffffhnmfmihhl iqnfnmmomjigljmflf lqj o o n n o o 90-(>-;@) V V V V |
  1
<0:;8: {rn {mf {jf {ln {jk 90-(>-; {mo {rn |
  1
<0:;8: {rn {io {mm {jf {in -:):-,:; {nm {rn |
  1
<0:;8: {rn {mm {io {ml {kk 90-(>-; {nm {rn |
  1
<0:;8: {rn {mj {ln {mm {km -:):-,:; {lm {rn |
  1
:;8: {rn {kj {im {mm {il 90-(>-; |
  1
<0:;8: {rn {mk {ml {ik {ij 90-(>-; {g {rn |
  1
:;8: {rn {ii {kj {ko {ih 90-(>-; |
  1
):-+:' {rn {kk {ig |
  1
,+->687+r<*-): {rn kqfffffffookkfifkm hqfknmmomjigljmflf lqj n o o V V |
  1
<0:;8: {rn {ik {if {mh {kg -:):-,:; {jh {rn |
  1
:;8: {rn {kf {jm {kh {ho 90-(>-; |
  1
):-+:' {rn {ij {hn |
  1
,+->687+r<*-): {rn kqmnljiihlffilkmjg:roog hqfknmmomjigljmflf o o o n V V |
  1
<0:;8: {rn {jf {mf {if {hm 90-(>-; {mo {rn |
  1
):-+:' {rn {hm {hl |
  1
,+->687+r<*-): {rn kqmnljiihlffilkmjg:roog kqkknmmomjigljmflf o o o n V V |
  1
:;8: {rn {im {ll {lg {hk 90-(>-; |
  1
/061+ {rn kqmnljiihlffilkmjg:roog kqkknmmomjigljmflf lqj |
  1
/061+ {rn kqmnljiihlffilkmjg:roog hqfknmmomjigljmflf lqj |
  1
300/ {rn {rn {if {li |
  1
/3>1:r,*-9><: {rn mqkffffffhnmfmihhl iqnfnmmomjigljmflf o o o n n o o 90-(>-;@) V V V V |
  1
<0:;8: {rn {lg {jn {lf {in 90-(>-; {mo {rn |
  1
<0:;8: {rn {ko {lf {hj {hi 90-(>-; {nm {rn |
  1
:;8: {rn {hh {im {jf {hg 90-(>-; |
  1
):-+:' {rn {in {hf |
  1
,+->687+r<*-): {rn kqfffffffookkfifkm kqkknmmomjigljmflf lqj o rn o V V |
  1
<0:;8: {rn {hj {kh {kl {ij -:):-,:; {jh {rn |
  1
:;8: {rn {ii {kf {ik {go 90-(>-; |
  1
):-+:' {rn {hi {gn |
  1
,+->687+r<*-): {rn kqfffffffookkfifkm hqfknmmomjigljmflf o o o n V V |
  1
/061+ {rn kqfffffffookkfifkm hqfknmmomjigljmflf lqj |
  1
<0:;8: {rn {kh {hj {jn {hm -:):-,:; {jh {rn |
  1
,+->687+r<*-): {rn kqmnljiihlffilkmjg:roog hqfknmmomjigljmflf o o rn o V V |
  1
/061+ {rn kqmnljiihlffilkmjg:roog hqfknmmomjigljmflf o |
  1
:;8: {rn {jm {hh {if {gm 90-(>-; |
  1
/061+ {rn kqmnljiihlffilkmjg:roog kqkknmmomjigljmflf o |
  1
,+->687+r<*-): {rn kqmnljiihlffilkmjg:roog kqkknmmomjigljmflf lqj rn o o V V |
  1
<0:;8: {rn {if {ik {io {hi -:):-,:; {jh {rn |
  1
:;8: {rn {hh {ii {hj {gl 90-(>-; |
  1
):-+:' {rn {hm {gk |
  1
,+->687+r<*-): {rn kqfffffffookkfifkm kqkknmmomjigljmflf o o o n V V |
  1
/061+ {rn kqfffffffookkfifkm kqkknmmomjigljmflf lqj |
  1
,+->687+r<*-): {rn kqfffffffookkfifkm hqfknmmomjigljmflf o rn o o V V |
  1
/061+ {rn kqfffffffookkfifkm hqfknmmomjigljmflf o |
  1
,+->687+r<*-): {rn kqmnljiihlffilkmjg:roog kqkknmmomjigljmflf o n o o V V |
  1
,+->687+r<*-): {rn kqfffffffookkfifkm kqkknmmomjigljmflf o o n o V V |
  1
/061+ {rn kqfffffffookkfifkm kqkknmmomjigljmflf o |
  0
LINE
  5
7FC
330
7FA
100
AcDbEntity
  8
0
100
AcDbLine
 10
5.000000042135662
 20
-0.0000000245247094
 30
0.0
 11
0.0000000717943287
 21
-0.0000000289086231
 31
0.0
  0
LINE
  5
7FD
330
7FA
100
AcDbEntity
  8
0
100
AcDbLine
 10
5.000000042135662
 20
-0.0000000245247094
 30
0.0
 11
5.000000027104229
 21
0.4615097737232273
 31
0.0
  0
LINE
  5
7FE
330
7FA
100
AcDbEntity
  8
0
100
AcDbLine
 10
0.0000000717943287
 20
-0.0000000289086231
 30
0.0
 11
0.0000000244049403
 21
1.439457434445835
 31
0.0
  0
ARC
  5
7FF
330
7FA
100
AcDbEntity
  8
0
100
AcDbCircle
 10
4.859758361384049
 20
0.4611361573948276
 30
0.0
 40
0.1402421633929372
100
AcDbArc
 50
0.1526407150195142
 51
54.76532463984246
  0
ARC
  5
800
330
7FA
100
AcDbEntity
  8
0
100
AcDbCircle
 10
0.1954958324734299
 20
1.338346649164406
 30
0.0
 40
0.2200954381003404
100
AcDbArc
 50
7.188695910403327
 51
152.6519129916981
  0
ARC
  5
801
330
7FA
100
AcDbEntity
  8
0
100
AcDbCircle
 10
5.047961861583151
 20
1.062476078182646
 30
0.0
 40
0.498474869578017
100
AcDbArc
 50
207.1896183366433
 51
257.5701196522426
  0
LINE
  5
802
330
7FA
100
AcDbEntity
  8
0
100
AcDbLine
 10
0.4138611904525116
 20
1.365888840566843
 30
0.0
 11
0.5330987490738403
 21
1.365888840566839
 31
0.0
  0
ARC
  5
803
330
7FA
100
AcDbEntity
  8
0
100
AcDbCircle
 10
4.345546097559836
 20
0.6606501082303941
 30
0.0
 40
0.3120701187076943
100
AcDbArc
 50
33.89975546574923
 51
143.6678372948011
  0
LINE
  5
804
330
7FA
100
AcDbEntity
  8
0
100
AcDbLine
 10
0.5330987490738403
 20
1.365888840566839
 30
0.0
 11
0.8244305667594565
 21
0.9506355313039982
 31
0.0
  0
ARC
  5
805
330
7FA
100
AcDbEntity
  8
0
100
AcDbCircle
 10
4.028693841419026
 20
0.8008760519626816
 30
0.0
 40
0.0792378230625547
100
AcDbArc
 50
34.31072709911048
 51
173.562128406711
  0
ARC
  5
806
330
7FA
100
AcDbEntity
  8
0
100
AcDbCircle
 10
0.8880025964390691
 20
0.9443520334029892
 30
0.0
 40
0.0638818072964241
100
AcDbArc
 50
5.644814906206472
 51
174.355185093792
  0
ARC
  5
807
330
7FA
100
AcDbEntity
  8
0
100
AcDbCircle
 10
3.754518071426656
 20
1.450430348831025
 30
0.0
 40
0.6698160349076946
100
AcDbArc
 50
238.8122406829243
 51
286.9644355129512
  0
ARC
  5
808
330
7FA
100
AcDbEntity
  8
0
100
AcDbCircle
 10
2.001578723363024
 20
0.638950897696736
 30
0.0
 40
1.095288051179609
100
AcDbArc
 50
46.83884625467832
 51
163.4669340072467
  0
ARC
  5
809
330
7FA
100
AcDbEntity
  8
0
100
AcDbCircle
 10
4.309224195350748
 20
2.1599819122191
 30
0.0
 40
1.567733531129955
100
AcDbArc
 50
207.4255907970475
 51
234.8950192635844
  0
LINE
  5
80A
330
7FA
100
AcDbEntity
  8
0
100
AcDbLine
 10
2.750813484660173
 20
1.437889686040894
 30
0.0
 11
2.917688625729113
 21
1.437889686040897
 31
0.0
  0
ENDBLK
  5
80E
330
7FA
100
AcDbEntity
  8
0
100
AcDbBlockEnd
  0
BLOCK
  5
944
330
943
100
AcDbEntity
  8
ASHADE
100
AcDbBlockBegin
  2
AVE_GLOBAL
 70
     0
 10
0.0
 20
0.0
 30
0.0
  3
AVE_GLOBAL
  1
AVE_GLOBAL
  0
ENDBLK
  5
945
330
943
100
AcDbEntity
  8
0
100
AcDbBlockEnd
  0
BLOCK
  5
94D
330
94C
100
AcDbEntity
  8
ASHADE
100
AcDbBlockBegin
  2
AVE_RENDER
 70
     0
 10
0.0
 20
0.0
 30
0.0
  3
AVE_RENDER
  1
AVE_RENDER
  0
ENDBLK
  5
94E
330
94C
100
AcDbEntity
  8
0
100
AcDbBlockEnd
  0
BLOCK
  5
D0F
330
D0E
100
AcDbEntity
  8
ASHADE
100
AcDbBlockBegin
  2
RM_SDB
 70
     2
 10
0.0
 20
0.0
 30
0.0
  3
RM_SDB
  1
RM_SDB
  0
ATTDEF
  5
D10
330
D0E
100
AcDbEntity
  8
0
100
AcDbText
 10
0.0
 20
0.0
 30
0.0
 40
0.2
  1

100
AcDbAttributeDefinition
  3

  2
NAME
 70
     1
  0
ATTDEF
  5
D11
330
D0E
100
AcDbEntity
  8
0
100
AcDbText
 10
0.0
 20
0.0
 30
0.0
 40
0.2
  1

100
AcDbAttributeDefinition
  3

  2
ACADCOLOR
 70
     1
  0
ATTDEF
  5
D12
330
D0E
100
AcDbEntity
  8
0
100
AcDbText
 10
0.0
 20
0.0
 30
0.0
 40
0.2
  1

100
AcDbAttributeDefinition
  3

  2
COLOR
 70
     1
  0
ATTDEF
  5
D13
330
D0E
100
AcDbEntity
  8
0
100
AcDbText
 10
0.0
 20
0.0
 30
0.0
 40
0.2
  1

100
AcDbAttributeDefinition
  3

  2
OPACITY
 70
     1
  0
ATTDEF
  5
D14
330
D0E
100
AcDbEntity
  8
0
100
AcDbText
 10
0.0
 20
0.0
 30
0.0
 40
0.2
  1

100
AcDbAttributeDefinition
  3

  2
SURFACE
 70
     1
  0
ATTDEF
  5
D15
330
D0E
100
AcDbEntity
  8
0
100
AcDbText
 10
0.0
 20
0.0
 30
0.0
 40
0.2
  1

100
AcDbAttributeDefinition
  3

  2
SURF1
 70
     1
  0
ATTDEF
  5
D16
330
D0E
100
AcDbEntity
  8
0
100
AcDbText
 10
0.0
 20
0.0
 30
0.0
 40
0.2
  1

100
AcDbAttributeDefinition
  3

  2
SURF2
 70
     1
  0
ATTDEF
  5
D17
330
D0E
100
AcDbEntity
  8
0
100
AcDbText
 10
0.0
 20
0.0
 30
0.0
 40
0.2
  1

100
AcDbAttributeDefinition
  3

  2
SURF3
 70
     1
  0
ATTDEF
  5
D18
330
D0E
100
AcDbEntity
  8
0
100
AcDbText
 10
0.0
 20
0.0
 30
0.0
 40
0.2
  1

100
AcDbAttributeDefinition
  3

  2
SURF4
 70
     1
  0
ATTDEF
  5
D19
330
D0E
100
AcDbEntity
  8
0
100
AcDbText
 10
0.0
 20
0.0
 30
0.0
 40
0.2
  1

100
AcDbAttributeDefinition
  3

  2
SHADINGRATE
 70
     1
  0
ATTDEF
  5
D1A
330
D0E
100
AcDbEntity
  8
0
100
AcDbText
 10
0.0
 20
0.0
 30
0.0
 40
0.2
  1

100
AcDbAttributeDefinition
  3

  2
DISPLACEMENT
 70
     1
  0
ATTDEF
  5
D1B
330
D0E
100
AcDbEntity
  8
0
100
AcDbText
 10
0.0
 20
0.0
 30
0.0
 40
0.2
  1

100
AcDbAttributeDefinition
  3

  2
DISP1
 70
     1
  0
ATTDEF
  5
D1C
330
D0E
100
AcDbEntity
  8
0
100
AcDbText
 10
0.0
 20
0.0
 30
0.0
 40
0.2
  1

100
AcDbAttributeDefinition
  3

  2
DISP2
 70
     1
  0
ATTDEF
  5
D1D
330
D0E
100
AcDbEntity
  8
0
100
AcDbText
 10
0.0
 20
0.0
 30
0.0
 40
0.2
  1

100
AcDbAttributeDefinition
  3

  2
DISP3
 70
     1
  0
ATTDEF
  5
D1E
330
D0E
100
AcDbEntity
  8
0
100
AcDbText
 10
0.0
 20
0.0
 30
0.0
 40
0.2
  1

100
AcDbAttributeDefinition
  3

  2
DISP4
 70
     1
  0
ATTDEF
  5
D1F
330
D0E
100
AcDbEntity
  8
0
100
AcDbText
 10
0.0
 20
0.0
 30
0.0
 40
0.2
  1

100
AcDbAttributeDefinition
  3

  2
DBOUND
 70
     1
  0
ATTDEF
  5
D20
330
D0E
100
AcDbEntity
  8
0
100
AcDbText
 10
0.0
 20
0.0
 30
0.0
 40
0.2
  1

100
AcDbAttributeDefinition
  3

  2
SMOOTH
 70
     1
  0
ATTDEF
  5
D21
330
D0E
100
AcDbEntity
  8
0
100
AcDbText
 10
0.0
 20
0.0
 30
0.0
 40
0.2
  1

100
AcDbAttributeDefinition
  3

  2
ATMOSHPERE
 70
     1
  0
ATTDEF
  5
D22
330
D0E
100
AcDbEntity
  8
0
100
AcDbText
 10
0.0
 20
0.0
 30
0.0
 40
0.2
  1

100
AcDbAttributeDefinition
  3

  2
ATMO1
 70
     1
  0
ATTDEF
  5
D23
330
D0E
100
AcDbEntity
  8
0
100
AcDbText
 10
0.0
 20
0.0
 30
0.0
 40
0.2
  1

100
AcDbAttributeDefinition
  3

  2
ATMO2
 70
     1
  0
ATTDEF
  5
D24
330
D0E
100
AcDbEntity
  8
0
100
AcDbText
 10
0.0
 20
0.0
 30
0.0
 40
0.2
  1

100
AcDbAttributeDefinition
  3

  2
ATMO3
 70
     1
  0
ATTDEF
  5
D25
330
D0E
100
AcDbEntity
  8
0
100
AcDbText
 10
0.0
 20
0.0
 30
0.0
 40
0.2
  1

100
AcDbAttributeDefinition
  3

  2
ATMO4
 70
     1
  0
ATTDEF
  5
D26
330
D0E
100
AcDbEntity
  8
0
100
AcDbText
 10
0.0
 20
0.0
 30
0.0
 40
0.2
  1

100
AcDbAttributeDefinition
  3

  2
TCCORD
 70
     1
  0
ENDBLK
  5
D27
330
D0E
100
AcDbEntity
  8
0
100
AcDbBlockEnd
  0
ENDSEC
  0
SECTION
  2
ENTITIES
  0
INSERT
  5
946
330
1F
100
AcDbEntity
  8
ASHADE
 62
     1
100
AcDbBlockReference
  2
AVE_GLOBAL
 10
0.0
 20
0.0
 30
0.0
1001
AVE_MATERIAL
1002
{
1000
*GLOBAL*
1000
2
1000
Global finish.
1002
{
1002
}
1002
{
1070
    63
1002
{
1002
{
1010
-1.0
1020
-1.0
1030
-1.0
1002
}
1040
0.6999999880790711
1000

1040
0.0
1002
{
1002
}
1040
0.0
1002
{
1002
}
1040
0.0
1002
}
1002
{
1002
{
1010
-1.0
1020
-1.0
1030
-1.0
1002
}
1040
1.0
1000

1040
0.0
1002
{
1002
}
1040
0.0
1002
{
1002
}
1040
0.0
1002
}
1002
{
1002
{
1010
-1.0
1020
-1.0
1030
-1.0
1002
}
1040
0.2000000029802322
1000

1040
0.0
1002
{
1002
}
1040
0.0
1002
{
1002
}
1040
0.0
1002
}
1002
{
1070
     0
1002
{
1070
     1
1002
{
1040
1.0
1040
1.0
1000

1040
0.0
1002
{
1002
}
1040
0.0
1002
{
1002
}
1040
0.0
1002
}
1002
}
1040
1.0
1040
0.0
1040
0.0
1002
}
1002
{
1040
1.0
1040
1.0
1000

1040
0.0
1002
{
1002
}
1040
0.0
1002
{
1002
}
1040
0.0
1002
}
1002
{
1040
0.5
1040
1.0
1000

1040
0.0
1002
{
1002
}
1040
0.0
1002
{
1002
}
1040
0.0
1002
}
1002
{
1070
     0
1040
0.0
1002
{
1002
}
1040
1.0
1002
{
1002
}
1040
0.0
1002
}
1002
{
1040
0.0
1002
{
1002
{
1010
0.0
1020
0.0
1030
0.0
1002
}
1040
1.0
1000

1040
0.0
1002
{
1002
}
1040
0.0
1002
{
1002
}
1040
0.0
1002
}
1002
}
1002
{
1002
{
1070
     1
1002
{
1040
0.0
1040
1.0
1000

1040
0.0
1002
{
1002
}
1040
0.0
1002
{
1002
}
1040
0.0
1002
}
1002
}
1040
0.0
1002
{
1002
}
1010
1.0
1020
0.0
1030
0.0
1010
0.0
1020
1.0
1030
0.0
1010
0.0
1020
0.0
1030
1.0
1070
     0
1002
}
1002
{
1002
{
1040
1.0
1040
1.0
1002
{
1070
     1
1002
{
1040
1.0
1040
1.0
1000

1040
0.0
1002
{
1002
}
1040
0.0
1002
{
1002
}
1040
0.0
1002
}
1002
}
1002
}
1070
     0
1040
0.0
1002
{
1002
}
1002
}
1002
{
1002
}
1002
}
1002
{
1071
        3
1070
     3
1070
     0
1002
{
1070
     2
1070
     0
1070
     0
1040
0.0
1002
}
1070
     0
1070
     2
1002
{
1002
}
1002
}
1002
{
1040
8030.0
1040
190.3000030517578
1040
0.3050000071525574
1040
228.0
1040
545.0
1040
14.0
1040
17.39999961853027
1040
0.4560000002384186
1002
}
1000

1002
}
  0
INSERT
  5
94F
330
1F
100
AcDbEntity
  8
ASHADE
 62
     1
100
AcDbBlockReference
  2
AVE_RENDER
 10
0.0
 20
0.0
 30
0.0
1001
AVE_RENDER
1002
{
1070
     7
1000
Pref
1070
    50
1070
    20
1070
     1
1070
     0
1000

1070
    10
1070
     1
1070
    10
1040
1.0
1070
     1
1040
0.6999999880790711
1040
1.0
1040
0.2000000029802322
1040
2.0
1010
-1.0
1020
-1.0
1030
-1.0
1040
0.3000000119209289
1070
    49
1070
     0
1070
     0
1010
1.0
1020
1.0
1030
1.0
1040
45.0
1070
     1
1070
     0
1000
WCS
1040
0.0
1070
     0
1040
10.0
1002
}
  0
INSERT
  5
950
330
1F
100
AcDbEntity
  8
ASHADE
 62
     3
100
AcDbBlockReference
  2
AVE_RENDER
 10
0.0
 20
0.0
 30
0.0
1001
AVE_RENDER
1002
{
1070
     0
1000
Full Opt
1070
     0
1070
     1
1070
     1
1070
     1
1070
     0
1070
     0
1070
     0
1070
     1
1070
     1
1040
0.0001
1040
0.0001
1002
}
  0
INSERT
  5
951
330
1F
100
AcDbEntity
  8
ASHADE
 62
     4
100
AcDbBlockReference
  2
AVE_RENDER
 10
0.0
 20
0.0
 30
0.0
1001
AVE_RENDER
1002
{
1070
     0
1000
Quick Opt
1070
     0
1070
     1
1070
     1
1070
     1
1070
     0
1070
     0
1070
     1
1002
}
  0
INSERT
  5
952
330
1F
100
AcDbEntity
  8
ASHADE
 62
     5
100
AcDbBlockReference
  2
AVE_RENDER
 10
0.0
 20
0.0
 30
0.0
1001
AVE_RENDER
1002
{
1070
     1
1000
Scanl Opt
1070
     2
1070
     0
1070
     2
1040
2.0
1040
4.0
1070
     0
1070
     1
1070
     0
1040
0.03
1002
}
  0
INSERT
  5
953
330
1F
100
AcDbEntity
  8
ASHADE
 62
     6
100
AcDbBlockReference
  2
AVE_RENDER
 10
0.0
 20
0.0
 30
0.0
1001
AVE_RENDER
1002
{
1070
     2
1000
Raytr Opt
1070
     2
1070
     0
1070
     2
1040
2.0
1040
4.0
1070
     0
1070
     1
1070
     1
1040
0.03
1070
     3
1040
0.03
1002
}
  0
INSERT
  5
954
330
1F
100
AcDbEntity
  8
ASHADE
 62
     7
100
AcDbBlockReference
  2
AVE_RENDER
 10
0.0
 20
0.0
 30
0.0
1001
AVE_RENDER
1002
{
1070
     0
1000
RFile Opt
1070
     1
1070
   640
1070
   480
1070
 10000
1070
     1
1070
     8
1070
     8
1070
     0
1070
     0
1070
     0
1070
     0
1070
     0
1070
     0
1070
     0
1002
}
  0
INSERT
  5
955
330
1F
100
AcDbEntity
  8
ASHADE
 62
     8
100
AcDbBlockReference
  2
AVE_RENDER
 10
0.0
 20
0.0
 30
0.0
1001
AVE_RENDER
1002
{
1070
     0
1000
Fog Opt
1070
     0
1070
     0
1040
0.0
1040
1.0
1040
0.0
1040
1.0
1010
0.5
1020
0.5
1030
0.5
1002
}
  0
INSERT
  5
956
330
1F
100
AcDbEntity
  8
ASHADE
 62
     9
100
AcDbBlockReference
  2
AVE_RENDER
 10
0.0
 20
0.0
 30
0.0
1001
AVE_RENDER
1002
{
1070
     0
1000
BG Opt
1070
     0
1070
     0
1010
0.0
1020
0.0
1030
0.0
1010
1.0
1020
0.0
1030
0.0
1010
0.0
1020
1.0
1030
0.0
1010
0.0
1020
0.0
1030
1.0
1040
0.5
1040
0.5
1040
0.0
1000

1070
     1
1000

1070
     1
1070
     1
1040
1.0
1040
1.0
1040
0.0
1040
0.0
1070
     0
1002
}
  0
POLYLINE
  5
1137
330
1F
100
AcDbEntity
  8
0
 62
     7
100
AcDbPolyFaceMesh
 66
     1
 10
0.0
 20
0.0
 30
0.0
 70
    64
 71
   316
 72
   628
1001
AVE_ENTITY_MATERIAL
1002
{
1000

1002
{
1071
        0
1070
     0
1070
     0
1002
{
1070
     0
1070
     0
1070
     0
1040
0.0
1002
}
1070
     0
1070
     0
1002
{
1002
}
1002
}
1002
{
1002
}
1002
{
1002
}
1011
-9.008491522102428
1021
0.0
1031
-0.0000000005943397
1011
-8.008491522102428
1021
0.0
1031
-0.0000000005943397
1011
-9.008491522102428
1021
1.0
1031
-0.0000000005943397
1011
-9.008491522102428
1021
0.0
1031
0.9999999994056603
1002
}
  0
VERTEX
  5
1138
330
1137
100
AcDbEntity
  8
0
 62
     7
100
AcDbVertex
100
AcDbPolyFaceMeshVertex
 10
0.7003059327315562
 20
6.875763893127441
 30
2.764906644226825
 70
   192
  0
VERTEX
  5
1139
330
1137
100
AcDbEntity
  8
0
 62
     7
100
AcDbVertex
100
AcDbPolyFaceMeshVertex
 10
3.191208833427351
 20
6.875763893127441
 30
1.694411277176656
 70
   192
  0
VERTEX
  5
113A
330
1137
100
AcDbEntity
  8
0
 62
     7
100
AcDbVertex
100
AcDbPolyFaceMeshVertex
 10
3.148618692130972
 20
6.875763893127441
 30
1.557915806175984
 70
   192
  0
VERTEX
  5
113B
330
1137
100
AcDbEntity
  8
0
 62
     7
100
AcDbVertex
100
AcDbPolyFaceMeshVertex
 10
0.328582757682728
 20
6.875763893127441
 30
2.57678198754958
 70
   192
  0
VERTEX
  5
113C
330
1137
100
AcDbEntity
  8
0
 62
     7
100
AcDbVertex
100
AcDbPolyFaceMeshVertex
 10
0.5683956086348765
 20
6.875763893127441
 30
2.720193623902118
 70
   192
  0
VERTEX
  5
113D
330
1137
100
AcDbEntity
  8
0
 62
     7
100
AcDbVertex
100
AcDbPolyFaceMeshVertex
 10
0.2254581391524546
 20
6.875763893127441
 30
2.478162049652852
 70
   192
  0
VERTEX
  5
113E
330
1137
100
AcDbEntity
  8
0
 62
     7
100
AcDbVertex
100
AcDbPolyFaceMeshVertex
 10
0.5961828171920037
 20
6.875763893127441
 30
0.8399186724441427
 70
   192
  0
VERTEX
  5
113F
330
1137
100
AcDbEntity
  8
0
 62
     7
100
AcDbVertex
100
AcDbPolyFaceMeshVertex
 10
0.5381355225753062
 20
6.875763893127441
 30
1.066823481919087
 70
   192
  0
VERTEX
  5
1140
330
1137
100
AcDbEntity
  8
0
 62
     7
100
AcDbVertex
100
AcDbPolyFaceMeshVertex
 10
0.6311378419112437
 20
6.875763893127441
 30
0.7680996054428002
 70
   192
  0
VERTEX
  5
1141
330
1137
100
AcDbEntity
  8
0
 62
     7
100
AcDbVertex
100
AcDbPolyFaceMeshVertex
 10
0.6354846894454234
 20
6.875763893127441
 30
0.6883648628013514
 70
   192
  0
VERTEX
  5
1142
330
1137
100
AcDbEntity
  8
0
 62
     7
100
AcDbVertex
100
AcDbPolyFaceMeshVertex
 10
2.60263919231407
 20
6.875763893127441
 30
0.6132016176002404
 70
   192
  0
VERTEX
  5
1143
330
1137
100
AcDbEntity
  8
0
 62
     7
100
AcDbVertex
100
AcDbPolyFaceMeshVertex
 10
0.6083135544966912
 20
6.875763893127441
 30
0.6132016176002404
 70
   192
  0
VERTEX
  5
1144
330
1137
100
AcDbEntity
  8
0
 62
     7
100
AcDbVertex
100
AcDbPolyFaceMeshVertex
 10
2.907172197074812
 20
6.875763893127441
 30
0.36713582217864
 70
   192
  0
VERTEX
  5
1145
330
1137
100
AcDbEntity
  8
0
 62
     7
100
AcDbVertex
100
AcDbPolyFaceMeshVertex
 10
3.006706231803821
 20
6.875763893127441
 30
-0.0000000005943396
 70
   192
  0
VERTEX
  5
1146
330
1137
100
AcDbEntity
  8
0
 62
     7
100
AcDbVertex
100
AcDbPolyFaceMeshVertex
 10
2.817640298576282
 20
6.875763893127441
 30
0.4066979283111475
 70
   192
  0
VERTEX
  5
1147
330
1137
100
AcDbEntity
  8
0
 62
     7
100
AcDbVertex
100
AcDbPolyFaceMeshVertex
 10
2.579815858573841
 20
6.875763893127441
 30
0.7680996054428002
 70
   192
  0
VERTEX
  5
1148
330
1137
100
AcDbEntity
  8
0
 62
     7
100
AcDbVertex
100
AcDbPolyFaceMeshVertex
 10
2.672817224235462
 20
6.875763893127441
 30
1.066823481919087
 70
   192
  0
VERTEX
  5
1149
330
1137
100
AcDbEntity
  8
0
 62
     7
100
AcDbVertex
100
AcDbPolyFaceMeshVertex
 10
2.732785218925402
 20
6.875763893127441
 30
0.4632005983608149
 70
   192
  0
VERTEX
  5
114A
330
1137
100
AcDbEntity
  8
0
 62
     7
100
AcDbVertex
100
AcDbPolyFaceMeshVertex
 10
0.4781675278853648
 20
6.875763893127441
 30
0.4632005983608149
 70
   192
  0
VERTEX
  5
114B
330
1137
100
AcDbEntity
  8
0
 62
     7
100
AcDbVertex
100
AcDbPolyFaceMeshVertex
 10
2.66229438182823
 20
6.875763893127441
 30
0.5305638903396508
 70
   192
  0
VERTEX
  5
114C
330
1137
100
AcDbEntity
  8
0
 62
     7
100
AcDbVertex
100
AcDbPolyFaceMeshVertex
 10
2.575469011039661
 20
6.875763893127441
 30
0.6883648628013514
 70
   192
  0
VERTEX
  5
114D
330
1137
100
AcDbEntity
  8
0
 62
     7
100
AcDbVertex
100
AcDbPolyFaceMeshVertex
 10
2.614770883293081
 20
6.875763893127441
 30
0.8399186724441427
 70
   192
  0
VERTEX
  5
114E
330
1137
100
AcDbEntity
  8
0
 62
     7
100
AcDbVertex
100
AcDbPolyFaceMeshVertex
 10
2.672817224235462
 20
6.875763893127441
 30
0.8948488229530234
 70
   192
  0
VERTEX
  5
114F
330
1137
100
AcDbEntity
  8
0
 62
     7
100
AcDbVertex
100
AcDbPolyFaceMeshVertex
 10
2.906827920646589
 20
6.875763893127441
 30
1.217825650574483
 70
   192
  0
VERTEX
  5
1150
330
1137
100
AcDbEntity
  8
0
 62
     7
100
AcDbVertex
100
AcDbPolyFaceMeshVertex
 10
2.797422403068472
 20
6.875763893127441
 30
1.135006784798421
 70
   192
  0
VERTEX
  5
1151
330
1137
100
AcDbEntity
  8
0
 62
     7
100
AcDbVertex
100
AcDbPolyFaceMeshVertex
 10
3.006858819694441
 20
6.875763893127441
 30
1.320528149010457
 70
   192
  0
VERTEX
  5
1152
330
1137
100
AcDbEntity
  8
0
 62
     7
100
AcDbVertex
100
AcDbPolyFaceMeshVertex
 10
3.088196748466421
 20
6.875763893127441
 30
1.435737370850362
 70
   192
  0
VERTEX
  5
1153
330
1137
100
AcDbEntity
  8
0
 62
     7
100
AcDbVertex
100
AcDbPolyFaceMeshVertex
 10
3.210953706474231
 20
6.875763893127441
 30
1.834642171265401
 70
   192
  0
VERTEX
  5
1154
330
1137
100
AcDbEntity
  8
0
 62
     7
100
AcDbVertex
100
AcDbPolyFaceMeshVertex
 10
2.510647767753521
 20
6.875763893127441
 30
2.764906644226825
 70
   192
  0
VERTEX
  5
1155
330
1137
100
AcDbEntity
  8
0
 62
     7
100
AcDbVertex
100
AcDbPolyFaceMeshVertex
 10
3.208466523857042
 20
6.875763893127441
 30
1.970751523377217
 70
   192
  0
VERTEX
  5
1156
330
1137
100
AcDbEntity
  8
0
 62
     7
100
AcDbVertex
100
AcDbPolyFaceMeshVertex
 10
3.183442109794542
 20
6.875763893127441
 30
2.111289500595845
 70
   192
  0
VERTEX
  5
1157
330
1137
100
AcDbEntity
  8
0
 62
     7
100
AcDbVertex
100
AcDbPolyFaceMeshVertex
 10
3.136240953178331
 20
6.875763893127441
 30
2.245211123825826
 70
   192
  0
VERTEX
  5
1158
330
1137
100
AcDbEntity
  8
0
 62
     7
100
AcDbVertex
100
AcDbPolyFaceMeshVertex
 10
3.071617120475691
 20
6.875763893127441
 30
2.364840745331563
 70
   192
  0
VERTEX
  5
1159
330
1137
100
AcDbEntity
  8
0
 62
     7
100
AcDbVertex
100
AcDbPolyFaceMeshVertex
 10
2.985494607658312
 20
6.875763893127441
 30
2.478162049652852
 70
   192
  0
VERTEX
  5
115A
330
1137
100
AcDbEntity
  8
0
 62
     7
100
AcDbVertex
100
AcDbPolyFaceMeshVertex
 10
2.882369989128042
 20
6.875763893127441
 30
2.57678198754958
 70
   192
  0
VERTEX
  5
115B
330
1137
100
AcDbEntity
  8
0
 62
     7
100
AcDbVertex
100
AcDbPolyFaceMeshVertex
 10
2.77077769634239
 20
6.875763893127441
 30
2.655430316330708
 70
   192
  0
VERTEX
  5
115C
330
1137
100
AcDbEntity
  8
0
 62
     7
100
AcDbVertex
100
AcDbPolyFaceMeshVertex
 10
2.642557138175892
 20
6.875763893127441
 30
2.720193623902118
 70
   192
  0
VERTEX
  5
115D
330
1137
100
AcDbEntity
  8
0
 62
     7
100
AcDbVertex
100
AcDbPolyFaceMeshVertex
 10
2.365747445793081
 20
6.875763893127441
 30
2.857449530960834
 70
   192
  0
VERTEX
  5
115E
330
1137
100
AcDbEntity
  8
0
 62
     7
100
AcDbVertex
100
AcDbPolyFaceMeshVertex
 10
0.9016876160811637
 20
6.875763893127441
 30
2.924329280258931
 70
   192
  0
VERTEX
  5
115F
330
1137
100
AcDbEntity
  8
0
 62
     7
100
AcDbVertex
100
AcDbPolyFaceMeshVertex
 10
2.309265130729601
 20
6.875763893127441
 30
2.924329280258931
 70
   192
  0
VERTEX
  5
1160
330
1137
100
AcDbEntity
  8
0
 62
     7
100
AcDbVertex
100
AcDbPolyFaceMeshVertex
 10
0.8452053010176889
 20
6.875763893127441
 30
2.857449530960834
 70
   192
  0
VERTEX
  5
1161
330
1137
100
AcDbEntity
  8
0
 62
     7
100
AcDbVertex
100
AcDbPolyFaceMeshVertex
 10
2.270726197929311
 20
6.875763893127441
 30
2.99999999940566
 70
   192
  0
VERTEX
  5
1162
330
1137
100
AcDbEntity
  8
0
 62
     7
100
AcDbVertex
100
AcDbPolyFaceMeshVertex
 10
0.9402265488814585
 20
6.875763893127441
 30
2.99999999940566
 70
   192
  0
VERTEX
  5
1163
330
1137
100
AcDbEntity
  8
0
 62
     7
100
AcDbVertex
100
AcDbPolyFaceMeshVertex
 10
0.4401750504683726
 20
6.875763893127441
 30
2.655430316330708
 70
   192
  0
VERTEX
  5
1164
330
1137
100
AcDbEntity
  8
0
 62
     7
100
AcDbVertex
100
AcDbPolyFaceMeshVertex
 10
0.1393365800093882
 20
6.875763893127441
 30
2.364840745331563
 70
   192
  0
VERTEX
  5
1165
330
1137
100
AcDbEntity
  8
0
 62
     7
100
AcDbVertex
100
AcDbPolyFaceMeshVertex
 10
0.0747117936324351
 20
6.875763893127441
 30
2.245211123825826
 70
   192
  0
VERTEX
  5
1166
330
1137
100
AcDbEntity
  8
0
 62
     7
100
AcDbVertex
100
AcDbPolyFaceMeshVertex
 10
0.0275106370162241
 20
6.875763893127441
 30
2.111289500595845
 70
   192
  0
VERTEX
  5
1167
330
1137
100
AcDbEntity
  8
0
 62
     7
100
AcDbVertex
100
AcDbPolyFaceMeshVertex
 10
0.0024871766280388
 20
6.875763893127441
 30
1.970751523377217
 70
   192
  0
VERTEX
  5
1168
330
1137
100
AcDbEntity
  8
0
 62
     7
100
AcDbVertex
100
AcDbPolyFaceMeshVertex
 10
-0.0000000059891487
 20
6.875763893127441
 30
1.834642171265401
 70
   192
  0
VERTEX
  5
1169
330
1137
100
AcDbEntity
  8
0
 62
     7
100
AcDbVertex
100
AcDbPolyFaceMeshVertex
 10
0.0197439133834117
 20
6.875763893127441
 30
1.694411277176656
 70
   192
  0
VERTEX
  5
116A
330
1137
100
AcDbEntity
  8
0
 62
     7
100
AcDbVertex
100
AcDbPolyFaceMeshVertex
 10
0.0623350083541148
 20
6.875763893127441
 30
1.557915806175984
 70
   192
  0
VERTEX
  5
116B
330
1137
100
AcDbEntity
  8
0
 62
     7
100
AcDbVertex
100
AcDbPolyFaceMeshVertex
 10
0.1227569520186638
 20
6.875763893127441
 30
1.435737370850362
 70
   192
  0
VERTEX
  5
116C
330
1137
100
AcDbEntity
  8
0
 62
     7
100
AcDbVertex
100
AcDbPolyFaceMeshVertex
 10
0.2040939271163218
 20
6.875763893127441
 30
1.320528149010457
 70
   192
  0
VERTEX
  5
116D
330
1137
100
AcDbEntity
  8
0
 62
     7
100
AcDbVertex
100
AcDbPolyFaceMeshVertex
 10
0.3041248261641716
 20
6.875763893127441
 30
1.217825650574483
 70
   192
  0
VERTEX
  5
116E
330
1137
100
AcDbEntity
  8
0
 62
     7
100
AcDbVertex
100
AcDbPolyFaceMeshVertex
 10
0.4135303437422984
 20
6.875763893127441
 30
1.135006784798421
 70
   192
  0
VERTEX
  5
116F
330
1137
100
AcDbEntity
  8
0
 62
     7
100
AcDbVertex
100
AcDbPolyFaceMeshVertex
 10
0.5381355225753062
 20
6.875763893127441
 30
0.8948488229530234
 70
   192
  0
VERTEX
  5
1170
330
1137
100
AcDbEntity
  8
0
 62
     7
100
AcDbVertex
100
AcDbPolyFaceMeshVertex
 10
0.5486583649825328
 20
6.875763893127441
 30
0.5305638903396508
 70
   192
  0
VERTEX
  5
1171
330
1137
100
AcDbEntity
  8
0
 62
     7
100
AcDbVertex
100
AcDbPolyFaceMeshVertex
 10
0.3933124482344858
 20
6.875763893127441
 30
0.4066979283111475
 70
   192
  0
VERTEX
  5
1172
330
1137
100
AcDbEntity
  8
0
 62
     7
100
AcDbVertex
100
AcDbPolyFaceMeshVertex
 10
0.2042465150069486
 20
6.875763893127441
 30
-0.0000000005943398
 70
   192
  0
VERTEX
  5
1173
330
1137
100
AcDbEntity
  8
0
 62
     7
100
AcDbVertex
100
AcDbPolyFaceMeshVertex
 10
0.3037815034102671
 20
6.875763893127441
 30
0.36713582217864
 70
   192
  0
VERTEX
  5
1174
330
1137
100
AcDbEntity
  8
0
 62
     7
100
AcDbVertex
100
AcDbPolyFaceMeshVertex
 10
0.2042465150069486
 20
6.875763893127441
 30
0.3368260854499719
 70
   192
  0
VERTEX
  5
1175
330
1137
100
AcDbEntity
  8
0
 62
     7
100
AcDbVertex
100
AcDbPolyFaceMeshVertex
 10
3.006706231803821
 20
6.875763893127441
 30
0.3368260854499719
 70
   192
  0
VERTEX
  5
1176
330
1137
100
AcDbEntity
  8
0
 62
     7
100
AcDbVertex
100
AcDbPolyFaceMeshVertex
 10
1.282153123588491
 20
6.602452754974365
 30
2.99999999940566
 70
   192
  0
VERTEX
  5
1177
330
1137
100
AcDbEntity
  8
0
 62
     7
100
AcDbVertex
100
AcDbPolyFaceMeshVertex
 10
1.928800576896589
 20
6.602452754974365
 30
2.99999999940566
 70
   192
  0
VERTEX
  5
1178
330
1137
100
AcDbEntity
  8
0
 62
     7
100
AcDbVertex
100
AcDbPolyFaceMeshVertex
 10
1.092646592826771
 20
6.7159104347229
 30
2.99999999940566
 70
   192
  0
VERTEX
  5
1179
330
1137
100
AcDbEntity
  8
0
 62
     7
100
AcDbVertex
100
AcDbPolyFaceMeshVertex
 10
1.71591376659386
 20
6.543595790863037
 30
2.99999999940566
 70
   192
  0
VERTEX
  5
117A
330
1137
100
AcDbEntity
  8
0
 62
     7
100
AcDbVertex
100
AcDbPolyFaceMeshVertex
 10
1.495039933891222
 20
6.543595790863037
 30
2.99999999940566
 70
   192
  0
VERTEX
  5
117B
330
1137
100
AcDbEntity
  8
0
 62
     7
100
AcDbVertex
100
AcDbPolyFaceMeshVertex
 10
2.118306153983992
 20
6.7159104347229
 30
2.99999999940566
 70
   192
  0
VERTEX
  5
117C
330
1137
100
AcDbEntity
  8
0
 62
     7
100
AcDbVertex
100
AcDbPolyFaceMeshVertex
 10
0.4275121628951287
 20
6.789792537689206
 30
0.4047743970172785
 70
   192
  0
VERTEX
  5
117D
330
1137
100
AcDbEntity
  8
0
 62
     7
100
AcDbVertex
100
AcDbPolyFaceMeshVertex
 10
0.5475873887252086
 20
6.588884830474852
 30
0.4047743970172785
 70
   192
  0
VERTEX
  5
117E
330
1137
100
AcDbEntity
  8
0
 62
     7
100
AcDbVertex
100
AcDbPolyFaceMeshVertex
 10
0.6593761384200328
 20
6.670104026794432
 30
0.5207193487899682
 70
   192
  0
VERTEX
  5
117F
330
1137
100
AcDbEntity
  8
0
 62
     7
100
AcDbVertex
100
AcDbPolyFaceMeshVertex
 10
0.4274272858809703
 20
6.62354564666748
 30
0.36713582217864
 70
   192
  0
VERTEX
  5
1180
330
1137
100
AcDbEntity
  8
0
 62
     7
100
AcDbVertex
100
AcDbPolyFaceMeshVertex
 10
0.5993232667159312
 20
6.40138816833496
 30
0.36713582217864
 70
   192
  0
VERTEX
  5
1181
330
1137
100
AcDbEntity
  8
0
 62
     7
100
AcDbVertex
100
AcDbPolyFaceMeshVertex
 10
0.8124284684371225
 20
6.21838903427124
 30
0.36713582217864
 70
   192
  0
VERTEX
  5
1182
330
1137
100
AcDbEntity
  8
0
 62
     7
100
AcDbVertex
100
AcDbPolyFaceMeshVertex
 10
0.7018279969405388
 20
6.412343502044677
 30
0.4047743970172785
 70
   192
  0
VERTEX
  5
1183
330
1137
100
AcDbEntity
  8
0
 62
     7
100
AcDbVertex
100
AcDbPolyFaceMeshVertex
 10
0.9156484543990348
 20
6.491156101226806
 30
0.6132016176002404
 70
   192
  0
VERTEX
  5
1184
330
1137
100
AcDbEntity
  8
0
 62
     7
100
AcDbVertex
100
AcDbPolyFaceMeshVertex
 10
0.9612331330489389
 20
6.38149881362915
 30
0.5207193487899682
 70
   192
  0
VERTEX
  5
1185
330
1137
100
AcDbEntity
  8
0
 62
     7
100
AcDbVertex
100
AcDbPolyFaceMeshVertex
 10
1.125474923820421
 20
6.359494209289549
 30
0.6132016176002404
 70
   192
  0
VERTEX
  5
1186
330
1137
100
AcDbEntity
  8
0
 62
     7
100
AcDbVertex
100
AcDbPolyFaceMeshVertex
 10
0.8851108491133921
 20
6.26617956161499
 30
0.4047743970172785
 70
   192
  0
VERTEX
  5
1187
330
1137
100
AcDbEntity
  8
0
 62
     7
100
AcDbVertex
100
AcDbPolyFaceMeshVertex
 10
1.090135568351671
 20
6.155695915222167
 30
0.4047743970172785
 70
   192
  0
VERTEX
  5
1188
330
1137
100
AcDbEntity
  8
0
 62
     7
100
AcDbVertex
100
AcDbPolyFaceMeshVertex
 10
1.553009980888292
 20
6.189218997955322
 30
0.5207193487899682
 70
   192
  0
VERTEX
  5
1189
330
1137
100
AcDbEntity
  8
0
 62
     7
100
AcDbVertex
100
AcDbPolyFaceMeshVertex
 10
1.359317773551859
 20
6.277765750885008
 30
0.6132016176002404
 70
   192
  0
VERTEX
  5
118A
330
1137
100
AcDbEntity
  8
0
 62
     7
100
AcDbVertex
100
AcDbPolyFaceMeshVertex
 10
1.34544944164269
 20
6.217316627502441
 30
0.5207193487899682
 70
   192
  0
VERTEX
  5
118B
330
1137
100
AcDbEntity
  8
0
 62
     7
100
AcDbVertex
100
AcDbPolyFaceMeshVertex
 10
1.605476373405382
 20
5.969513893127441
 30
0.36713582217864
 70
   192
  0
VERTEX
  5
118C
330
1137
100
AcDbEntity
  8
0
 62
     7
100
AcDbVertex
100
AcDbPolyFaceMeshVertex
 10
1.546810144157332
 20
6.051180362701416
 30
0.4047743970172785
 70
   192
  0
VERTEX
  5
118D
330
1137
100
AcDbEntity
  8
0
 62
     7
100
AcDbVertex
100
AcDbPolyFaceMeshVertex
 10
1.326023095817491
 20
5.997937202453612
 30
0.36713582217864
 70
   192
  0
VERTEX
  5
118E
330
1137
100
AcDbEntity
  8
0
 62
     7
100
AcDbVertex
100
AcDbPolyFaceMeshVertex
 10
1.781002992362902
 20
6.061697959899902
 30
0.4047743970172785
 70
   192
  0
VERTEX
  5
118F
330
1137
100
AcDbEntity
  8
0
 62
     7
100
AcDbVertex
100
AcDbPolyFaceMeshVertex
 10
1.85163592693321
 20
6.277765750885008
 30
0.6132016176002404
 70
   192
  0
VERTEX
  5
1190
330
1137
100
AcDbEntity
  8
0
 62
     7
100
AcDbVertex
100
AcDbPolyFaceMeshVertex
 10
1.966855043144152
 20
6.245278358459472
 30
0.5207193487899682
 70
   192
  0
VERTEX
  5
1191
330
1137
100
AcDbEntity
  8
0
 62
     7
100
AcDbVertex
100
AcDbPolyFaceMeshVertex
 10
2.085478776664661
 20
6.359494209289549
 30
0.6132016176002404
 70
   192
  0
VERTEX
  5
1192
330
1137
100
AcDbEntity
  8
0
 62
     7
100
AcDbVertex
100
AcDbPolyFaceMeshVertex
 10
2.611629480094832
 20
6.40138816833496
 30
0.36713582217864
 70
   192
  0
VERTEX
  5
1193
330
1137
100
AcDbEntity
  8
0
 62
     7
100
AcDbVertex
100
AcDbPolyFaceMeshVertex
 10
2.420590394706652
 20
6.335005760192871
 30
0.4047743970172785
 70
   192
  0
VERTEX
  5
1194
330
1137
100
AcDbEntity
  8
0
 62
     7
100
AcDbVertex
100
AcDbPolyFaceMeshVertex
 10
2.39852427837364
 20
6.21838903427124
 30
0.36713582217864
 70
   192
  0
VERTEX
  5
1195
330
1137
100
AcDbEntity
  8
0
 62
     7
100
AcDbVertex
100
AcDbPolyFaceMeshVertex
 10
2.590209954948351
 20
6.497150897979736
 30
0.4047743970172785
 70
   192
  0
VERTEX
  5
1196
330
1137
100
AcDbEntity
  8
0
 62
     7
100
AcDbVertex
100
AcDbPolyFaceMeshVertex
 10
2.486151689262312
 20
6.588063240051268
 30
0.5207193487899682
 70
   192
  0
VERTEX
  5
1197
330
1137
100
AcDbEntity
  8
0
 62
     7
100
AcDbVertex
100
AcDbPolyFaceMeshVertex
 10
2.152938836784292
 20
6.082044124603271
 30
0.36713582217864
 70
   192
  0
VERTEX
  5
1198
330
1137
100
AcDbEntity
  8
0
 62
     7
100
AcDbVertex
100
AcDbPolyFaceMeshVertex
 10
2.00955390331261
 20
6.113863468170166
 30
0.4047743970172785
 70
   192
  0
VERTEX
  5
1199
330
1137
100
AcDbEntity
  8
0
 62
     7
100
AcDbVertex
100
AcDbPolyFaceMeshVertex
 10
1.884930604667591
 20
5.997937202453612
 30
0.36713582217864
 70
   192
  0
VERTEX
  5
119A
330
1137
100
AcDbEntity
  8
0
 62
     7
100
AcDbVertex
100
AcDbPolyFaceMeshVertex
 10
2.225117677421492
 20
6.205999851226806
 30
0.4047743970172785
 70
   192
  0
VERTEX
  5
119B
330
1137
100
AcDbEntity
  8
0
 62
     7
100
AcDbVertex
100
AcDbPolyFaceMeshVertex
 10
2.334135049552839
 20
6.442796230316162
 30
0.5207193487899682
 70
   192
  0
VERTEX
  5
119C
330
1137
100
AcDbEntity
  8
0
 62
     7
100
AcDbVertex
100
AcDbPolyFaceMeshVertex
 10
2.728003495902941
 20
6.686807632446289
 30
0.4047743970172785
 70
   192
  0
VERTEX
  5
119D
330
1137
100
AcDbEntity
  8
0
 62
     7
100
AcDbVertex
100
AcDbPolyFaceMeshVertex
 10
2.295305246086043
 20
6.491156101226806
 30
0.6132016176002404
 70
   192
  0
VERTEX
  5
119E
330
1137
100
AcDbEntity
  8
0
 62
     7
100
AcDbVertex
100
AcDbPolyFaceMeshVertex
 10
2.470615380973741
 20
6.666164875030517
 30
0.6132016176002404
 70
   192
  0
VERTEX
  5
119F
330
1137
100
AcDbEntity
  8
0
 62
     7
100
AcDbVertex
100
AcDbPolyFaceMeshVertex
 10
1.058014863700792
 20
6.082044124603271
 30
0.36713582217864
 70
   192
  0
VERTEX
  5
11A0
330
1137
100
AcDbEntity
  8
0
 62
     7
100
AcDbVertex
100
AcDbPolyFaceMeshVertex
 10
1.314576142997671
 20
6.082632064819335
 30
0.4047743970172785
 70
   192
  0
VERTEX
  5
11A1
330
1137
100
AcDbEntity
  8
0
 62
     7
100
AcDbVertex
100
AcDbPolyFaceMeshVertex
 10
1.605476373405382
 20
6.25006103515625
 30
0.6132016176002404
 70
   192
  0
VERTEX
  5
11A2
330
1137
100
AcDbEntity
  8
0
 62
     7
100
AcDbVertex
100
AcDbPolyFaceMeshVertex
 10
0.740337365837025
 20
6.666164875030517
 30
0.6132016176002404
 70
   192
  0
VERTEX
  5
11A3
330
1137
100
AcDbEntity
  8
0
 62
     7
100
AcDbVertex
100
AcDbPolyFaceMeshVertex
 10
0.5522861420821421
 20
6.849164962768553
 30
0.5207193487899682
 70
   192
  0
VERTEX
  5
11A4
330
1137
100
AcDbEntity
  8
0
 62
     7
100
AcDbVertex
100
AcDbPolyFaceMeshVertex
 10
0.7973174988936638
 20
6.51221752166748
 30
0.5207193487899682
 70
   192
  0
VERTEX
  5
11A5
330
1137
100
AcDbEntity
  8
0
 62
     7
100
AcDbVertex
100
AcDbPolyFaceMeshVertex
 10
1.145374292106552
 20
6.282355308532713
 30
0.5207193487899682
 70
   192
  0
VERTEX
  5
11A6
330
1137
100
AcDbEntity
  8
0
 62
     7
100
AcDbVertex
100
AcDbPolyFaceMeshVertex
 10
1.762454980583111
 20
6.198625087738037
 30
0.5207193487899682
 70
   192
  0
VERTEX
  5
11A7
330
1137
100
AcDbEntity
  8
0
 62
     7
100
AcDbVertex
100
AcDbPolyFaceMeshVertex
 10
2.15963935253136
 20
6.32767868041992
 30
0.5207193487899682
 70
   192
  0
VERTEX
  5
11A8
330
1137
100
AcDbEntity
  8
0
 62
     7
100
AcDbVertex
100
AcDbPolyFaceMeshVertex
 10
2.609384530754011
 20
6.757678985595702
 30
0.5207193487899682
 70
   192
  0
VERTEX
  5
11A9
330
1137
100
AcDbEntity
  8
0
 62
     7
100
AcDbVertex
100
AcDbPolyFaceMeshVertex
 10
2.783525460929793
 20
6.62354564666748
 30
0.36713582217864
 70
   192
  0
VERTEX
  5
11AA
330
1137
100
AcDbEntity
  8
0
 62
     7
100
AcDbVertex
100
AcDbPolyFaceMeshVertex
 10
1.086935037345812
 20
6.307539463043212
 30
0.8948488229530234
 70
   192
  0
VERTEX
  5
11AB
330
1137
100
AcDbEntity
  8
0
 62
     7
100
AcDbVertex
100
AcDbPolyFaceMeshVertex
 10
1.262416833610462
 20
6.301657199859619
 30
0.8272433871047873
 70
   192
  0
VERTEX
  5
11AC
330
1137
100
AcDbEntity
  8
0
 62
     7
100
AcDbVertex
100
AcDbPolyFaceMeshVertex
 10
1.339233392448351
 20
6.217140674591063
 30
0.8948488229530234
 70
   192
  0
VERTEX
  5
11AD
330
1137
100
AcDbEntity
  8
0
 62
     7
100
AcDbVertex
100
AcDbPolyFaceMeshVertex
 10
1.605476373405382
 20
6.186472415924072
 30
0.8948488229530234
 70
   192
  0
VERTEX
  5
11AE
330
1137
100
AcDbEntity
  8
0
 62
     7
100
AcDbVertex
100
AcDbPolyFaceMeshVertex
 10
1.721520417900011
 20
6.253403663635253
 30
0.8272433871047873
 70
   192
  0
VERTEX
  5
11AF
330
1137
100
AcDbEntity
  8
0
 62
     7
100
AcDbVertex
100
AcDbPolyFaceMeshVertex
 10
1.871720308036731
 20
6.217140674591063
 30
0.8948488229530234
 70
   192
  0
VERTEX
  5
11B0
330
1137
100
AcDbEntity
  8
0
 62
     7
100
AcDbVertex
100
AcDbPolyFaceMeshVertex
 10
2.124017709464952
 20
6.307539463043212
 30
0.8948488229530234
 70
   192
  0
VERTEX
  5
11B1
330
1137
100
AcDbEntity
  8
0
 62
     7
100
AcDbVertex
100
AcDbPolyFaceMeshVertex
 10
2.160558694572371
 20
6.396055698394775
 30
0.8272433871047873
 70
   192
  0
VERTEX
  5
11B2
330
1137
100
AcDbEntity
  8
0
 62
     7
100
AcDbVertex
100
AcDbPolyFaceMeshVertex
 10
2.349155420036241
 20
6.452933788299559
 30
0.8948488229530234
 70
   192
  0
VERTEX
  5
11B3
330
1137
100
AcDbEntity
  8
0
 62
     7
100
AcDbVertex
100
AcDbPolyFaceMeshVertex
 10
2.479888910026472
 20
6.722188472747802
 30
0.7177788013236901
 70
   192
  0
VERTEX
  5
11B4
330
1137
100
AcDbEntity
  8
0
 62
     7
100
AcDbVertex
100
AcDbPolyFaceMeshVertex
 10
2.503618234367293
 20
6.704947948455809
 30
0.8272433871047873
 70
   192
  0
VERTEX
  5
11B5
330
1137
100
AcDbEntity
  8
0
 62
     7
100
AcDbVertex
100
AcDbPolyFaceMeshVertex
 10
2.535339349479601
 20
6.645707607269287
 30
0.8948488229530234
 70
   192
  0
VERTEX
  5
11B6
330
1137
100
AcDbEntity
  8
0
 62
     7
100
AcDbVertex
100
AcDbPolyFaceMeshVertex
 10
1.065059655876082
 20
6.421457290649414
 30
0.7177788013236901
 70
   192
  0
VERTEX
  5
11B7
330
1137
100
AcDbEntity
  8
0
 62
     7
100
AcDbVertex
100
AcDbPolyFaceMeshVertex
 10
0.8822584092330192
 20
6.55427074432373
 30
0.7177788013236901
 70
   192
  0
VERTEX
  5
11B8
330
1137
100
AcDbEntity
  8
0
 62
     7
100
AcDbVertex
100
AcDbPolyFaceMeshVertex
 10
1.492498391838001
 20
6.28257417678833
 30
0.7177788013236901
 70
   192
  0
VERTEX
  5
11B9
330
1137
100
AcDbEntity
  8
0
 62
     7
100
AcDbVertex
100
AcDbPolyFaceMeshVertex
 10
1.271480554313582
 20
6.32955265045166
 30
0.7177788013236901
 70
   192
  0
VERTEX
  5
11BA
330
1137
100
AcDbEntity
  8
0
 62
     7
100
AcDbVertex
100
AcDbPolyFaceMeshVertex
 10
1.939472192497181
 20
6.32955265045166
 30
0.7177788013236901
 70
   192
  0
VERTEX
  5
11BB
330
1137
100
AcDbEntity
  8
0
 62
     7
100
AcDbVertex
100
AcDbPolyFaceMeshVertex
 10
1.718454354972761
 20
6.28257417678833
 30
0.7177788013236901
 70
   192
  0
VERTEX
  5
11BC
330
1137
100
AcDbEntity
  8
0
 62
     7
100
AcDbVertex
100
AcDbPolyFaceMeshVertex
 10
2.328695291252062
 20
6.55427074432373
 30
0.7177788013236901
 70
   192
  0
VERTEX
  5
11BD
330
1137
100
AcDbEntity
  8
0
 62
     7
100
AcDbVertex
100
AcDbPolyFaceMeshVertex
 10
2.145893090934681
 20
6.421457290649414
 30
0.7177788013236901
 70
   192
  0
VERTEX
  5
11BE
330
1137
100
AcDbEntity
  8
0
 62
     7
100
AcDbVertex
100
AcDbPolyFaceMeshVertex
 10
0.7073345124434703
 20
6.704947948455809
 30
0.8272433871047873
 70
   192
  0
VERTEX
  5
11BF
330
1137
100
AcDbEntity
  8
0
 62
     7
100
AcDbVertex
100
AcDbPolyFaceMeshVertex
 10
0.7310638367842888
 20
6.722188472747802
 30
0.7177788013236901
 70
   192
  0
VERTEX
  5
11C0
330
1137
100
AcDbEntity
  8
0
 62
     7
100
AcDbVertex
100
AcDbPolyFaceMeshVertex
 10
0.8626317918013786
 20
6.532473564147949
 30
0.8272433871047873
 70
   192
  0
VERTEX
  5
11C1
330
1137
100
AcDbEntity
  8
0
 62
     7
100
AcDbVertex
100
AcDbPolyFaceMeshVertex
 10
0.675614351005482
 20
6.645707607269287
 30
0.8948488229530234
 70
   192
  0
VERTEX
  5
11C2
330
1137
100
AcDbEntity
  8
0
 62
     7
100
AcDbVertex
100
AcDbPolyFaceMeshVertex
 10
0.8617982804488395
 20
6.452933788299559
 30
0.8948488229530234
 70
   192
  0
VERTEX
  5
11C3
330
1137
100
AcDbEntity
  8
0
 62
     7
100
AcDbVertex
100
AcDbPolyFaceMeshVertex
 10
1.050395005912703
 20
6.396055698394775
 30
0.8272433871047873
 70
   192
  0
VERTEX
  5
11C4
330
1137
100
AcDbEntity
  8
0
 62
     7
100
AcDbVertex
100
AcDbPolyFaceMeshVertex
 10
1.489433282585071
 20
6.253403663635253
 30
0.8272433871047873
 70
   192
  0
VERTEX
  5
11C5
330
1137
100
AcDbEntity
  8
0
 62
     7
100
AcDbVertex
100
AcDbPolyFaceMeshVertex
 10
1.9485359132003
 20
6.301657199859619
 30
0.8272433871047873
 70
   192
  0
VERTEX
  5
11C6
330
1137
100
AcDbEntity
  8
0
 62
     7
100
AcDbVertex
100
AcDbPolyFaceMeshVertex
 10
2.348320955009382
 20
6.532473564147949
 30
0.8272433871047873
 70
   192
  0
VERTEX
  5
11C7
330
1137
100
AcDbEntity
  8
0
 62
     7
100
AcDbVertex
100
AcDbPolyFaceMeshVertex
 10
2.349155420036241
 20
6.452933788299559
 30
1.066823481919087
 70
   192
  0
VERTEX
  5
11C8
330
1137
100
AcDbEntity
  8
0
 62
     7
100
AcDbVertex
100
AcDbPolyFaceMeshVertex
 10
2.535339349479601
 20
6.645707607269287
 30
1.066823481919087
 70
   192
  0
VERTEX
  5
11C9
330
1137
100
AcDbEntity
  8
0
 62
     7
100
AcDbVertex
100
AcDbPolyFaceMeshVertex
 10
1.871720308036731
 20
6.217140674591063
 30
1.066823481919087
 70
   192
  0
VERTEX
  5
11CA
330
1137
100
AcDbEntity
  8
0
 62
     7
100
AcDbVertex
100
AcDbPolyFaceMeshVertex
 10
2.124017709464952
 20
6.307539463043212
 30
1.066823481919087
 70
   192
  0
VERTEX
  5
11CB
330
1137
100
AcDbEntity
  8
0
 62
     7
100
AcDbVertex
100
AcDbPolyFaceMeshVertex
 10
1.339233392448351
 20
6.217140674591063
 30
1.066823481919087
 70
   192
  0
VERTEX
  5
11CC
330
1137
100
AcDbEntity
  8
0
 62
     7
100
AcDbVertex
100
AcDbPolyFaceMeshVertex
 10
1.605476373405382
 20
6.186472415924072
 30
1.066823481919087
 70
   192
  0
VERTEX
  5
11CD
330
1137
100
AcDbEntity
  8
0
 62
     7
100
AcDbVertex
100
AcDbPolyFaceMeshVertex
 10
0.8617982804488395
 20
6.452933788299559
 30
1.066823481919087
 70
   192
  0
VERTEX
  5
11CE
330
1137
100
AcDbEntity
  8
0
 62
     7
100
AcDbVertex
100
AcDbPolyFaceMeshVertex
 10
1.086935037345812
 20
6.307539463043212
 30
1.066823481919087
 70
   192
  0
VERTEX
  5
11CF
330
1137
100
AcDbEntity
  8
0
 62
     7
100
AcDbVertex
100
AcDbPolyFaceMeshVertex
 10
0.675614351005482
 20
6.645707607269287
 30
1.066823481919087
 70
   192
  0
VERTEX
  5
11D0
330
1137
100
AcDbEntity
  8
0
 62
     7
100
AcDbVertex
100
AcDbPolyFaceMeshVertex
 10
0.2389717042159312
 20
6.791644096374511
 30
1.31687843740157
 70
   192
  0
VERTEX
  5
11D1
330
1137
100
AcDbEntity
  8
0
 62
     7
100
AcDbVertex
100
AcDbPolyFaceMeshVertex
 10
0.0628709733199351
 20
6.719068050384521
 30
1.764259814621724
 70
   192
  0
VERTEX
  5
11D2
330
1137
100
AcDbEntity
  8
0
 62
     7
100
AcDbVertex
100
AcDbPolyFaceMeshVertex
 10
0.1228523194503062
 20
6.744222164154052
 30
2.246129512192525
 70
   192
  0
VERTEX
  5
11D3
330
1137
100
AcDbEntity
  8
0
 62
     7
100
AcDbVertex
100
AcDbPolyFaceMeshVertex
 10
0.5227479874800914
 20
6.634029865264892
 30
1.146841287018575
 70
   192
  0
VERTEX
  5
11D4
330
1137
100
AcDbEntity
  8
0
 62
     7
100
AcDbVertex
100
AcDbPolyFaceMeshVertex
 10
0.4709577500533318
 20
6.222967147827147
 30
1.527714609505452
 70
   192
  0
VERTEX
  5
11D5
330
1137
100
AcDbEntity
  8
0
 62
     7
100
AcDbVertex
100
AcDbPolyFaceMeshVertex
 10
0.2714233338546048
 20
6.466100215911865
 30
1.527714609505452
 70
   192
  0
VERTEX
  5
11D6
330
1137
100
AcDbEntity
  8
0
 62
     7
100
AcDbVertex
100
AcDbPolyFaceMeshVertex
 10
0.3757133423995249
 20
6.535784244537352
 30
1.31687843740157
 70
   192
  0
VERTEX
  5
11D7
330
1137
100
AcDbEntity
  8
0
 62
     7
100
AcDbVertex
100
AcDbPolyFaceMeshVertex
 10
0.424965852470324
 20
6.176975727081297
 30
2.009584187866963
 70
   192
  0
VERTEX
  5
11D8
330
1137
100
AcDbEntity
  8
0
 62
     7
100
AcDbVertex
100
AcDbPolyFaceMeshVertex
 10
0.2173433243941538
 20
6.429965019226074
 30
2.009584187866963
 70
   192
  0
VERTEX
  5
11D9
330
1137
100
AcDbEntity
  8
0
 62
     7
100
AcDbVertex
100
AcDbPolyFaceMeshVertex
 10
0.2173433243941538
 20
6.429965019226074
 30
1.764259814621724
 70
   192
  0
VERTEX
  5
11DA
330
1137
100
AcDbEntity
  8
0
 62
     7
100
AcDbVertex
100
AcDbPolyFaceMeshVertex
 10
0.5596485078047984
 20
6.311658382415771
 30
2.456965684296407
 70
   192
  0
VERTEX
  5
11DB
330
1137
100
AcDbEntity
  8
0
 62
     7
100
AcDbVertex
100
AcDbPolyFaceMeshVertex
 10
0.3757133423995249
 20
6.535784244537352
 30
2.456965684296407
 70
   192
  0
VERTEX
  5
11DC
330
1137
100
AcDbEntity
  8
0
 62
     7
100
AcDbVertex
100
AcDbPolyFaceMeshVertex
 10
0.2714233338546048
 20
6.466100215911865
 30
2.246129512192525
 70
   192
  0
VERTEX
  5
11DD
330
1137
100
AcDbEntity
  8
0
 62
     7
100
AcDbVertex
100
AcDbPolyFaceMeshVertex
 10
0.7020044266890757
 20
6.75380516052246
 30
2.744071006180562
 70
   192
  0
VERTEX
  5
11DE
330
1137
100
AcDbEntity
  8
0
 62
     7
100
AcDbVertex
100
AcDbPolyFaceMeshVertex
 10
0.5227479874800914
 20
6.634029865264892
 30
2.627002715470113
 70
   192
  0
VERTEX
  5
11DF
330
1137
100
AcDbEntity
  8
0
 62
     7
100
AcDbVertex
100
AcDbPolyFaceMeshVertex
 10
0.8820199906539194
 20
6.274757385253906
 30
1.146841287018575
 70
   192
  0
VERTEX
  5
11E0
330
1137
100
AcDbEntity
  8
0
 62
     7
100
AcDbVertex
100
AcDbPolyFaceMeshVertex
 10
1.189654344291611
 20
6.353601455688476
 30
2.744071006180562
 70
   192
  0
VERTEX
  5
11E1
330
1137
100
AcDbEntity
  8
0
 62
     7
100
AcDbVertex
100
AcDbPolyFaceMeshVertex
 10
1.001795762748642
 20
6.454013824462889
 30
2.744071006180562
 70
   192
  0
VERTEX
  5
11E2
330
1137
100
AcDbEntity
  8
0
 62
     7
100
AcDbVertex
100
AcDbPolyFaceMeshVertex
 10
0.8820199906539194
 20
6.274757385253906
 30
2.627002715470113
 70
   192
  0
VERTEX
  5
11E3
330
1137
100
AcDbEntity
  8
0
 62
     7
100
AcDbVertex
100
AcDbPolyFaceMeshVertex
 10
0.5596485078047984
 20
6.311658382415771
 30
1.31687843740157
 70
   192
  0
VERTEX
  5
11E4
330
1137
100
AcDbEntity
  8
0
 62
     7
100
AcDbVertex
100
AcDbPolyFaceMeshVertex
 10
0.424965852470324
 20
6.176975727081297
 30
1.764259814621724
 70
   192
  0
VERTEX
  5
11E5
330
1137
100
AcDbEntity
  8
0
 62
     7
100
AcDbVertex
100
AcDbPolyFaceMeshVertex
 10
0.6779556214522593
 20
5.969352722167967
 30
1.764259814621724
 70
   192
  0
VERTEX
  5
11E6
330
1137
100
AcDbEntity
  8
0
 62
     7
100
AcDbVertex
100
AcDbPolyFaceMeshVertex
 10
0.7140903413008921
 20
6.023433208465576
 30
1.527714609505452
 70
   192
  0
VERTEX
  5
11E7
330
1137
100
AcDbEntity
  8
0
 62
     7
100
AcDbVertex
100
AcDbPolyFaceMeshVertex
 10
0.4709577500533318
 20
6.222967147827147
 30
2.246129512192525
 70
   192
  0
VERTEX
  5
11E8
330
1137
100
AcDbEntity
  8
0
 62
     7
100
AcDbVertex
100
AcDbPolyFaceMeshVertex
 10
0.7140903413008921
 20
6.023433208465576
 30
2.246129512192525
 70
   192
  0
VERTEX
  5
11E9
330
1137
100
AcDbEntity
  8
0
 62
     7
100
AcDbVertex
100
AcDbPolyFaceMeshVertex
 10
0.6779556214522593
 20
5.969352722167967
 30
2.009584187866963
 70
   192
  0
VERTEX
  5
11EA
330
1137
100
AcDbEntity
  8
0
 62
     7
100
AcDbVertex
100
AcDbPolyFaceMeshVertex
 10
0.9665889680098764
 20
5.815075397491455
 30
2.009584187866963
 70
   192
  0
VERTEX
  5
11EB
330
1137
100
AcDbEntity
  8
0
 62
     7
100
AcDbVertex
100
AcDbPolyFaceMeshVertex
 10
0.6846914231490349
 20
6.436700820922851
 30
2.627002715470113
 70
   192
  0
VERTEX
  5
11EC
330
1137
100
AcDbEntity
  8
0
 62
     7
100
AcDbVertex
100
AcDbPolyFaceMeshVertex
 10
0.7837743699263787
 20
6.127722740173338
 30
2.456965684296407
 70
   192
  0
VERTEX
  5
11ED
330
1137
100
AcDbEntity
  8
0
 62
     7
100
AcDbVertex
100
AcDbPolyFaceMeshVertex
 10
1.039478296012802
 20
5.991045951843261
 30
2.456965684296407
 70
   192
  0
VERTEX
  5
11EE
330
1137
100
AcDbEntity
  8
0
 62
     7
100
AcDbVertex
100
AcDbPolyFaceMeshVertex
 10
1.393491739005972
 20
6.291768074035643
 30
2.744071006180562
 70
   192
  0
VERTEX
  5
11EF
330
1137
100
AcDbEntity
  8
0
 62
     7
100
AcDbVertex
100
AcDbPolyFaceMeshVertex
 10
1.107151025504991
 20
6.154422283172607
 30
2.627002715470113
 70
   192
  0
VERTEX
  5
11F0
330
1137
100
AcDbEntity
  8
0
 62
     7
100
AcDbVertex
100
AcDbPolyFaceMeshVertex
 10
0.7837743699263787
 20
6.127722740173338
 30
1.31687843740157
 70
   192
  0
VERTEX
  5
11F1
330
1137
100
AcDbEntity
  8
0
 62
     7
100
AcDbVertex
100
AcDbPolyFaceMeshVertex
 10
0.9914789139937649
 20
5.875165939331053
 30
1.527714609505452
 70
   192
  0
VERTEX
  5
11F2
330
1137
100
AcDbEntity
  8
0
 62
     7
100
AcDbVertex
100
AcDbPolyFaceMeshVertex
 10
0.9665889680098764
 20
5.815075397491455
 30
1.764259814621724
 70
   192
  0
VERTEX
  5
11F3
330
1137
100
AcDbEntity
  8
0
 62
     7
100
AcDbVertex
100
AcDbPolyFaceMeshVertex
 10
1.279774659843372
 20
5.720071315765379
 30
2.009584187866963
 70
   192
  0
VERTEX
  5
11F4
330
1137
100
AcDbEntity
  8
0
 62
     7
100
AcDbVertex
100
AcDbPolyFaceMeshVertex
 10
0.9914789139937649
 20
5.875165939331053
 30
2.246129512192525
 70
   192
  0
VERTEX
  5
11F5
330
1137
100
AcDbEntity
  8
0
 62
     7
100
AcDbVertex
100
AcDbPolyFaceMeshVertex
 10
1.316933625907822
 20
5.906880855560302
 30
2.456965684296407
 70
   192
  0
VERTEX
  5
11F6
330
1137
100
AcDbEntity
  8
0
 62
     7
100
AcDbVertex
100
AcDbPolyFaceMeshVertex
 10
1.243710511894152
 20
6.398050785064697
 30
2.764906644226825
 70
   192
  0
VERTEX
  5
11F7
330
1137
100
AcDbEntity
  8
0
 62
     7
100
AcDbVertex
100
AcDbPolyFaceMeshVertex
 10
1.482531541557241
 20
6.339509963989257
 30
2.764906644226825
 70
   192
  0
VERTEX
  5
11F8
330
1137
100
AcDbEntity
  8
0
 62
     7
100
AcDbVertex
100
AcDbPolyFaceMeshVertex
 10
1.039478296012802
 20
5.991045951843261
 30
1.31687843740157
 70
   192
  0
VERTEX
  5
11F9
330
1137
100
AcDbEntity
  8
0
 62
     7
100
AcDbVertex
100
AcDbPolyFaceMeshVertex
 10
1.292463296623152
 20
5.783863067626952
 30
1.527714609505452
 70
   192
  0
VERTEX
  5
11FA
330
1137
100
AcDbEntity
  8
0
 62
     7
100
AcDbVertex
100
AcDbPolyFaceMeshVertex
 10
1.316933625907822
 20
5.906880855560302
 30
1.31687843740157
 70
   192
  0
VERTEX
  5
11FB
330
1137
100
AcDbEntity
  8
0
 62
     7
100
AcDbVertex
100
AcDbPolyFaceMeshVertex
 10
1.279774659843372
 20
5.720071315765379
 30
1.764259814621724
 70
   192
  0
VERTEX
  5
11FC
330
1137
100
AcDbEntity
  8
0
 62
     7
100
AcDbVertex
100
AcDbPolyFaceMeshVertex
 10
1.605476373405382
 20
5.687992572784422
 30
1.764259814621724
 70
   192
  0
VERTEX
  5
11FD
330
1137
100
AcDbEntity
  8
0
 62
     7
100
AcDbVertex
100
AcDbPolyFaceMeshVertex
 10
1.292463296623152
 20
5.783863067626952
 30
2.246129512192525
 70
   192
  0
VERTEX
  5
11FE
330
1137
100
AcDbEntity
  8
0
 62
     7
100
AcDbVertex
100
AcDbPolyFaceMeshVertex
 10
1.605476373405382
 20
5.753034114837646
 30
2.246129512192525
 70
   192
  0
VERTEX
  5
11FF
330
1137
100
AcDbEntity
  8
0
 62
     7
100
AcDbVertex
100
AcDbPolyFaceMeshVertex
 10
1.351432794303821
 20
6.080320358276367
 30
2.627002715470113
 70
   192
  0
VERTEX
  5
1200
330
1137
100
AcDbEntity
  8
0
 62
     7
100
AcDbVertex
100
AcDbPolyFaceMeshVertex
 10
1.605476373405382
 20
6.055299282073973
 30
2.627002715470113
 70
   192
  0
VERTEX
  5
1201
330
1137
100
AcDbEntity
  8
0
 62
     7
100
AcDbVertex
100
AcDbPolyFaceMeshVertex
 10
1.351432794303821
 20
6.080320358276367
 30
1.146841287018575
 70
   192
  0
VERTEX
  5
1202
330
1137
100
AcDbEntity
  8
0
 62
     7
100
AcDbVertex
100
AcDbPolyFaceMeshVertex
 10
1.605476373405382
 20
5.878461837768553
 30
1.31687843740157
 70
   192
  0
VERTEX
  5
1203
330
1137
100
AcDbEntity
  8
0
 62
     7
100
AcDbVertex
100
AcDbPolyFaceMeshVertex
 10
1.605476373405382
 20
5.753034114837646
 30
1.527714609505452
 70
   192
  0
VERTEX
  5
1204
330
1137
100
AcDbEntity
  8
0
 62
     7
100
AcDbVertex
100
AcDbPolyFaceMeshVertex
 10
1.931179040641712
 20
5.720071315765379
 30
1.764259814621724
 70
   192
  0
VERTEX
  5
1205
330
1137
100
AcDbEntity
  8
0
 62
     7
100
AcDbVertex
100
AcDbPolyFaceMeshVertex
 10
1.605476373405382
 20
5.687992572784422
 30
2.009584187866963
 70
   192
  0
VERTEX
  5
1206
330
1137
100
AcDbEntity
  8
0
 62
     7
100
AcDbVertex
100
AcDbPolyFaceMeshVertex
 10
1.91848945018761
 20
5.783863067626952
 30
2.246129512192525
 70
   192
  0
VERTEX
  5
1207
330
1137
100
AcDbEntity
  8
0
 62
     7
100
AcDbVertex
100
AcDbPolyFaceMeshVertex
 10
1.605476373405382
 20
5.878461837768553
 30
2.456965684296407
 70
   192
  0
VERTEX
  5
1208
330
1137
100
AcDbEntity
  8
0
 62
     7
100
AcDbVertex
100
AcDbPolyFaceMeshVertex
 10
1.859520906181261
 20
6.080320358276367
 30
2.627002715470113
 70
   192
  0
VERTEX
  5
1209
330
1137
100
AcDbEntity
  8
0
 62
     7
100
AcDbVertex
100
AcDbPolyFaceMeshVertex
 10
2.103801721305769
 20
6.154422283172607
 30
1.146841287018575
 70
   192
  0
VERTEX
  5
120A
330
1137
100
AcDbEntity
  8
0
 62
     7
100
AcDbVertex
100
AcDbPolyFaceMeshVertex
 10
1.728422158927841
 20
6.339509963989257
 30
2.764906644226825
 70
   192
  0
VERTEX
  5
120B
330
1137
100
AcDbEntity
  8
0
 62
     7
100
AcDbVertex
100
AcDbPolyFaceMeshVertex
 10
1.817461007804803
 20
6.291768074035643
 30
2.744071006180562
 70
   192
  0
VERTEX
  5
120C
330
1137
100
AcDbEntity
  8
0
 62
     7
100
AcDbVertex
100
AcDbPolyFaceMeshVertex
 10
1.967242234916609
 20
6.398050785064697
 30
2.764906644226825
 70
   192
  0
VERTEX
  5
120D
330
1137
100
AcDbEntity
  8
0
 62
     7
100
AcDbVertex
100
AcDbPolyFaceMeshVertex
 10
2.32893275615685
 20
6.274757385253906
 30
2.627002715470113
 70
   192
  0
VERTEX
  5
120E
330
1137
100
AcDbEntity
  8
0
 62
     7
100
AcDbVertex
100
AcDbPolyFaceMeshVertex
 10
2.103801721305769
 20
6.154422283172607
 30
2.627002715470113
 70
   192
  0
VERTEX
  5
120F
330
1137
100
AcDbEntity
  8
0
 62
     7
100
AcDbVertex
100
AcDbPolyFaceMeshVertex
 10
2.171474450797962
 20
5.991045951843261
 30
2.456965684296407
 70
   192
  0
VERTEX
  5
1210
330
1137
100
AcDbEntity
  8
0
 62
     7
100
AcDbVertex
100
AcDbPolyFaceMeshVertex
 10
1.605476373405382
 20
6.055299282073973
 30
1.146841287018575
 70
   192
  0
VERTEX
  5
1211
330
1137
100
AcDbEntity
  8
0
 62
     7
100
AcDbVertex
100
AcDbPolyFaceMeshVertex
 10
1.894020074577252
 20
5.906880855560302
 30
1.31687843740157
 70
   192
  0
VERTEX
  5
1212
330
1137
100
AcDbEntity
  8
0
 62
     7
100
AcDbVertex
100
AcDbPolyFaceMeshVertex
 10
1.91848945018761
 20
5.783863067626952
 30
1.527714609505452
 70
   192
  0
VERTEX
  5
1213
330
1137
100
AcDbEntity
  8
0
 62
     7
100
AcDbVertex
100
AcDbPolyFaceMeshVertex
 10
2.219473832817
 20
5.875165939331053
 30
1.527714609505452
 70
   192
  0
VERTEX
  5
1214
330
1137
100
AcDbEntity
  8
0
 62
     7
100
AcDbVertex
100
AcDbPolyFaceMeshVertex
 10
2.171474450797962
 20
5.991045951843261
 30
1.31687843740157
 70
   192
  0
VERTEX
  5
1215
330
1137
100
AcDbEntity
  8
0
 62
     7
100
AcDbVertex
100
AcDbPolyFaceMeshVertex
 10
1.931179040641712
 20
5.720071315765379
 30
2.009584187866963
 70
   192
  0
VERTEX
  5
1216
330
1137
100
AcDbEntity
  8
0
 62
     7
100
AcDbVertex
100
AcDbPolyFaceMeshVertex
 10
2.244363778800892
 20
5.815075397491455
 30
2.009584187866963
 70
   192
  0
VERTEX
  5
1217
330
1137
100
AcDbEntity
  8
0
 62
     7
100
AcDbVertex
100
AcDbPolyFaceMeshVertex
 10
2.244363778800892
 20
5.815075397491455
 30
1.764259814621724
 70
   192
  0
VERTEX
  5
1218
330
1137
100
AcDbEntity
  8
0
 62
     7
100
AcDbVertex
100
AcDbPolyFaceMeshVertex
 10
2.53299807903282
 20
5.969352722167967
 30
1.764259814621724
 70
   192
  0
VERTEX
  5
1219
330
1137
100
AcDbEntity
  8
0
 62
     7
100
AcDbVertex
100
AcDbPolyFaceMeshVertex
 10
1.894020074577252
 20
5.906880855560302
 30
2.456965684296407
 70
   192
  0
VERTEX
  5
121A
330
1137
100
AcDbEntity
  8
0
 62
     7
100
AcDbVertex
100
AcDbPolyFaceMeshVertex
 10
2.219473832817
 20
5.875165939331053
 30
2.246129512192525
 70
   192
  0
VERTEX
  5
121B
330
1137
100
AcDbEntity
  8
0
 62
     7
100
AcDbVertex
100
AcDbPolyFaceMeshVertex
 10
2.496862405509871
 20
6.023433208465576
 30
2.246129512192525
 70
   192
  0
VERTEX
  5
121C
330
1137
100
AcDbEntity
  8
0
 62
     7
100
AcDbVertex
100
AcDbPolyFaceMeshVertex
 10
2.496862405509871
 20
6.023433208465576
 30
1.527714609505452
 70
   192
  0
VERTEX
  5
121D
330
1137
100
AcDbEntity
  8
0
 62
     7
100
AcDbVertex
100
AcDbPolyFaceMeshVertex
 10
2.53299807903282
 20
5.969352722167967
 30
2.009584187866963
 70
   192
  0
VERTEX
  5
121E
330
1137
100
AcDbEntity
  8
0
 62
     7
100
AcDbVertex
100
AcDbPolyFaceMeshVertex
 10
2.785986894340441
 20
6.176975727081297
 30
2.009584187866963
 70
   192
  0
VERTEX
  5
121F
330
1137
100
AcDbEntity
  8
0
 62
     7
100
AcDbVertex
100
AcDbPolyFaceMeshVertex
 10
2.427178376884382
 20
6.127722740173338
 30
2.456965684296407
 70
   192
  0
VERTEX
  5
1220
330
1137
100
AcDbEntity
  8
0
 62
     7
100
AcDbVertex
100
AcDbPolyFaceMeshVertex
 10
2.651304239005972
 20
6.311658382415771
 30
2.456965684296407
 70
   192
  0
VERTEX
  5
1221
330
1137
100
AcDbEntity
  8
0
 62
     7
100
AcDbVertex
100
AcDbPolyFaceMeshVertex
 10
2.209157937736431
 20
6.454013824462889
 30
2.744071006180562
 70
   192
  0
VERTEX
  5
1222
330
1137
100
AcDbEntity
  8
0
 62
     7
100
AcDbVertex
100
AcDbPolyFaceMeshVertex
 10
2.373816484184191
 20
6.589146137237547
 30
2.744071006180562
 70
   192
  0
VERTEX
  5
1223
330
1137
100
AcDbEntity
  8
0
 62
     7
100
AcDbVertex
100
AcDbPolyFaceMeshVertex
 10
2.185258859367293
 20
6.511765480041503
 30
2.764906644226825
 70
   192
  0
VERTEX
  5
1224
330
1137
100
AcDbEntity
  8
0
 62
     7
100
AcDbVertex
100
AcDbPolyFaceMeshVertex
 10
2.369934076042101
 20
6.674115657806396
 30
2.764906644226825
 70
   192
  0
VERTEX
  5
1225
330
1137
100
AcDbEntity
  8
0
 62
     7
100
AcDbVertex
100
AcDbPolyFaceMeshVertex
 10
2.526262277336043
 20
6.436700820922851
 30
1.146841287018575
 70
   192
  0
VERTEX
  5
1226
330
1137
100
AcDbEntity
  8
0
 62
     7
100
AcDbVertex
100
AcDbPolyFaceMeshVertex
 10
2.688205713004991
 20
6.634029865264892
 30
1.146841287018575
 70
   192
  0
VERTEX
  5
1227
330
1137
100
AcDbEntity
  8
0
 62
     7
100
AcDbVertex
100
AcDbPolyFaceMeshVertex
 10
2.835240358085561
 20
6.535784244537352
 30
1.31687843740157
 70
   192
  0
VERTEX
  5
1228
330
1137
100
AcDbEntity
  8
0
 62
     7
100
AcDbVertex
100
AcDbPolyFaceMeshVertex
 10
2.427178376884382
 20
6.127722740173338
 30
1.31687843740157
 70
   192
  0
VERTEX
  5
1229
330
1137
100
AcDbEntity
  8
0
 62
     7
100
AcDbVertex
100
AcDbPolyFaceMeshVertex
 10
2.739995950431751
 20
6.222967147827147
 30
1.527714609505452
 70
   192
  0
VERTEX
  5
122A
330
1137
100
AcDbEntity
  8
0
 62
     7
100
AcDbVertex
100
AcDbPolyFaceMeshVertex
 10
2.651304239005972
 20
6.311658382415771
 30
1.31687843740157
 70
   192
  0
VERTEX
  5
122B
330
1137
100
AcDbEntity
  8
0
 62
     7
100
AcDbVertex
100
AcDbPolyFaceMeshVertex
 10
2.785986894340441
 20
6.176975727081297
 30
1.764259814621724
 70
   192
  0
VERTEX
  5
122C
330
1137
100
AcDbEntity
  8
0
 62
     7
100
AcDbVertex
100
AcDbPolyFaceMeshVertex
 10
2.993610376090931
 20
6.429965019226074
 30
1.764259814621724
 70
   192
  0
VERTEX
  5
122D
330
1137
100
AcDbEntity
  8
0
 62
     7
100
AcDbVertex
100
AcDbPolyFaceMeshVertex
 10
2.739995950431751
 20
6.222967147827147
 30
2.246129512192525
 70
   192
  0
VERTEX
  5
122E
330
1137
100
AcDbEntity
  8
0
 62
     7
100
AcDbVertex
100
AcDbPolyFaceMeshVertex
 10
2.93952941295616
 20
6.466100215911865
 30
2.246129512192525
 70
   192
  0
VERTEX
  5
122F
330
1137
100
AcDbEntity
  8
0
 62
     7
100
AcDbVertex
100
AcDbPolyFaceMeshVertex
 10
2.526262277336043
 20
6.436700820922851
 30
2.627002715470113
 70
   192
  0
VERTEX
  5
1230
330
1137
100
AcDbEntity
  8
0
 62
     7
100
AcDbVertex
100
AcDbPolyFaceMeshVertex
 10
2.688205713004991
 20
6.634029865264892
 30
2.627002715470113
 70
   192
  0
VERTEX
  5
1231
330
1137
100
AcDbEntity
  8
0
 62
     7
100
AcDbVertex
100
AcDbPolyFaceMeshVertex
 10
3.088100427360462
 20
6.744222164154052
 30
2.246129512192525
 70
   192
  0
VERTEX
  5
1232
330
1137
100
AcDbEntity
  8
0
 62
     7
100
AcDbVertex
100
AcDbPolyFaceMeshVertex
 10
3.148081773490831
 20
6.719068050384521
 30
1.764259814621724
 70
   192
  0
VERTEX
  5
1233
330
1137
100
AcDbEntity
  8
0
 62
     7
100
AcDbVertex
100
AcDbPolyFaceMeshVertex
 10
2.971981042594832
 20
6.791644096374511
 30
1.31687843740157
 70
   192
  0
VERTEX
  5
1234
330
1137
100
AcDbEntity
  8
0
 62
     7
100
AcDbVertex
100
AcDbPolyFaceMeshVertex
 10
2.93952941295616
 20
6.466100215911865
 30
1.527714609505452
 70
   192
  0
VERTEX
  5
1235
330
1137
100
AcDbEntity
  8
0
 62
     7
100
AcDbVertex
100
AcDbPolyFaceMeshVertex
 10
2.993610376090931
 20
6.429965019226074
 30
2.009584187866963
 70
   192
  0
VERTEX
  5
1236
330
1137
100
AcDbEntity
  8
0
 62
     7
100
AcDbVertex
100
AcDbPolyFaceMeshVertex
 10
2.835240358085561
 20
6.535784244537352
 30
2.456965684296407
 70
   192
  0
VERTEX
  5
1237
330
1137
100
AcDbEntity
  8
0
 62
     7
100
AcDbVertex
100
AcDbPolyFaceMeshVertex
 10
2.972249978752062
 20
6.792294025421142
 30
2.456965684296407
 70
   192
  0
VERTEX
  5
1238
330
1137
100
AcDbEntity
  8
0
 62
     7
100
AcDbVertex
100
AcDbPolyFaceMeshVertex
 10
1.025693887443472
 20
6.511765480041503
 30
2.764906644226825
 70
   192
  0
VERTEX
  5
1239
330
1137
100
AcDbEntity
  8
0
 62
     7
100
AcDbVertex
100
AcDbPolyFaceMeshVertex
 10
0.4020719468306755
 20
6.85998487472534
 30
2.627002715470113
 70
   192
  0
VERTEX
  5
123A
330
1137
100
AcDbEntity
  8
0
 62
     7
100
AcDbVertex
100
AcDbPolyFaceMeshVertex
 10
2.32893275615685
 20
6.274757385253906
 30
1.146841287018575
 70
   192
  0
VERTEX
  5
123B
330
1137
100
AcDbEntity
  8
0
 62
     7
100
AcDbVertex
100
AcDbPolyFaceMeshVertex
 10
1.859520906181261
 20
6.080320358276367
 30
1.146841287018575
 70
   192
  0
VERTEX
  5
123C
330
1137
100
AcDbEntity
  8
0
 62
     7
100
AcDbVertex
100
AcDbPolyFaceMeshVertex
 10
1.107151025504991
 20
6.154422283172607
 30
1.146841287018575
 70
   192
  0
VERTEX
  5
123D
330
1137
100
AcDbEntity
  8
0
 62
     7
100
AcDbVertex
100
AcDbPolyFaceMeshVertex
 10
0.6846914231490349
 20
6.436700820922851
 30
1.146841287018575
 70
   192
  0
VERTEX
  5
123E
330
1137
100
AcDbEntity
  8
0
 62
     7
100
AcDbVertex
100
AcDbPolyFaceMeshVertex
 10
0.4024028718184703
 20
6.859183788299559
 30
1.146841287018575
 70
   192
  0
VERTEX
  5
123F
330
1137
100
AcDbEntity
  8
0
 62
     7
100
AcDbVertex
100
AcDbPolyFaceMeshVertex
 10
0.1230277955245249
 20
6.743799209594726
 30
1.527714609505452
 70
   192
  0
VERTEX
  5
1240
330
1137
100
AcDbEntity
  8
0
 62
     7
100
AcDbVertex
100
AcDbPolyFaceMeshVertex
 10
0.0628099381636851
 20
6.719214916229247
 30
2.009584187866963
 70
   192
  0
VERTEX
  5
1241
330
1137
100
AcDbEntity
  8
0
 62
     7
100
AcDbVertex
100
AcDbPolyFaceMeshVertex
 10
0.2387027680587046
 20
6.792294025421142
 30
2.456965684296407
 70
   192
  0
VERTEX
  5
1242
330
1137
100
AcDbEntity
  8
0
 62
     7
100
AcDbVertex
100
AcDbPolyFaceMeshVertex
 10
0.8410186707686637
 20
6.674115657806396
 30
2.764906644226825
 70
   192
  0
VERTEX
  5
1243
330
1137
100
AcDbEntity
  8
0
 62
     7
100
AcDbVertex
100
AcDbPolyFaceMeshVertex
 10
0.8371362626265757
 20
6.589146137237547
 30
2.744071006180562
 70
   192
  0
VERTEX
  5
1244
330
1137
100
AcDbEntity
  8
0
 62
     7
100
AcDbVertex
100
AcDbPolyFaceMeshVertex
 10
1.605476373405382
 20
6.270889282226562
 30
2.744071006180562
 70
   192
  0
VERTEX
  5
1245
330
1137
100
AcDbEntity
  8
0
 62
     7
100
AcDbVertex
100
AcDbPolyFaceMeshVertex
 10
2.021299356193472
 20
6.353601455688476
 30
2.744071006180562
 70
   192
  0
VERTEX
  5
1246
330
1137
100
AcDbEntity
  8
0
 62
     7
100
AcDbVertex
100
AcDbPolyFaceMeshVertex
 10
2.508949273796002
 20
6.75380516052246
 30
2.744071006180562
 70
   192
  0
VERTEX
  5
1247
330
1137
100
AcDbEntity
  8
0
 62
     7
100
AcDbVertex
100
AcDbPolyFaceMeshVertex
 10
2.808881753654402
 20
6.85998487472534
 30
2.627002715470113
 70
   192
  0
VERTEX
  5
1248
330
1137
100
AcDbEntity
  8
0
 62
     7
100
AcDbVertex
100
AcDbPolyFaceMeshVertex
 10
3.148142808647081
 20
6.719214916229247
 30
2.009584187866963
 70
   192
  0
VERTEX
  5
1249
330
1137
100
AcDbEntity
  8
0
 62
     7
100
AcDbVertex
100
AcDbPolyFaceMeshVertex
 10
3.087925904960561
 20
6.743799209594726
 30
1.527714609505452
 70
   192
  0
VERTEX
  5
124A
330
1137
100
AcDbEntity
  8
0
 62
     7
100
AcDbVertex
100
AcDbPolyFaceMeshVertex
 10
2.808549874992293
 20
6.859183788299559
 30
1.146841287018575
 70
   192
  0
VERTEX
  5
124B
330
1137
100
AcDbEntity
  8
0
 62
     7
100
AcDbVertex
100
AcDbPolyFaceMeshVertex
 10
1.196007722587511
 20
6.522726535797119
 30
2.827440022827901
 70
   192
  0
VERTEX
  5
124C
330
1137
100
AcDbEntity
  8
0
 62
     7
100
AcDbVertex
100
AcDbPolyFaceMeshVertex
 10
1.372425073356552
 20
6.457388401031494
 30
2.827440022827901
 70
   192
  0
VERTEX
  5
124D
330
1137
100
AcDbEntity
  8
0
 62
     7
100
AcDbVertex
100
AcDbPolyFaceMeshVertex
 10
1.395273202629011
 20
6.545633316040039
 30
2.952903508545673
 70
   192
  0
VERTEX
  5
124E
330
1137
100
AcDbEntity
  8
0
 62
     7
100
AcDbVertex
100
AcDbPolyFaceMeshVertex
 10
1.236151689262312
 20
6.604565620422362
 30
2.952903508545673
 70
   192
  0
VERTEX
  5
124F
330
1137
100
AcDbEntity
  8
0
 62
     7
100
AcDbVertex
100
AcDbPolyFaceMeshVertex
 10
1.558383935661241
 20
6.428900718688963
 30
2.827440022827901
 70
   192
  0
VERTEX
  5
1250
330
1137
100
AcDbEntity
  8
0
 62
     7
100
AcDbVertex
100
AcDbPolyFaceMeshVertex
 10
2.097295755119251
 20
6.568434715270996
 30
2.827440022827901
 70
   192
  0
VERTEX
  5
1251
330
1137
100
AcDbEntity
  8
0
 62
     7
100
AcDbVertex
100
AcDbPolyFaceMeshVertex
 10
1.928393357963491
 20
6.485584259033202
 30
2.827440022827901
 70
   192
  0
VERTEX
  5
1252
330
1137
100
AcDbEntity
  8
0
 62
     7
100
AcDbVertex
100
AcDbPolyFaceMeshVertex
 10
2.049078935356062
 20
6.645792484283447
 30
2.952903508545673
 70
   192
  0
VERTEX
  5
1253
330
1137
100
AcDbEntity
  8
0
 62
     7
100
AcDbVertex
100
AcDbPolyFaceMeshVertex
 10
1.896735185356062
 20
6.571064472198486
 30
2.952903508545673
 70
   192
  0
VERTEX
  5
1254
330
1137
100
AcDbEntity
  8
0
 62
     7
100
AcDbVertex
100
AcDbPolyFaceMeshVertex
 10
2.36860560771935
 20
6.826333045959472
 30
2.827440022827901
 70
   192
  0
VERTEX
  5
1255
330
1137
100
AcDbEntity
  8
0
 62
     7
100
AcDbVertex
100
AcDbPolyFaceMeshVertex
 10
2.246063226432722
 20
6.683588981628417
 30
2.827440022827901
 70
   192
  0
VERTEX
  5
1256
330
1137
100
AcDbEntity
  8
0
 62
     7
100
AcDbVertex
100
AcDbPolyFaceMeshVertex
 10
1.746271127433702
 20
6.438429355621337
 30
2.827440022827901
 70
   192
  0
VERTEX
  5
1257
330
1137
100
AcDbEntity
  8
0
 62
     7
100
AcDbVertex
100
AcDbPolyFaceMeshVertex
 10
1.732467645378042
 20
6.5285325050354
 30
2.952903508545673
 70
   192
  0
VERTEX
  5
1258
330
1137
100
AcDbEntity
  8
0
 62
     7
100
AcDbVertex
100
AcDbPolyFaceMeshVertex
 10
1.092149728507921
 20
6.69432258605957
 30
2.952903508545673
 70
   192
  0
VERTEX
  5
1259
330
1137
100
AcDbEntity
  8
0
 62
     7
100
AcDbVertex
100
AcDbPolyFaceMeshVertex
 10
0.8999996125411264
 20
6.751853942871092
 30
2.827440022827901
 70
   192
  0
VERTEX
  5
125A
330
1137
100
AcDbEntity
  8
0
 62
     7
100
AcDbVertex
100
AcDbPolyFaceMeshVertex
 10
1.036353105277941
 20
6.622239589691162
 30
2.827440022827901
 70
   192
  0
VERTEX
  5
125B
330
1137
100
AcDbEntity
  8
0
 62
     7
100
AcDbVertex
100
AcDbPolyFaceMeshVertex
 10
0.9691638886641715
 20
6.811229228973387
 30
2.952903508545673
 70
   192
  0
VERTEX
  5
125C
330
1137
100
AcDbEntity
  8
0
 62
     7
100
AcDbVertex
100
AcDbPolyFaceMeshVertex
 10
1.563000673026962
 20
6.519937992095947
 30
2.952903508545673
 70
   192
  0
VERTEX
  5
125D
330
1137
100
AcDbEntity
  8
0
 62
     7
100
AcDbVertex
100
AcDbPolyFaceMeshVertex
 10
2.183260911674421
 20
6.749657154083251
 30
2.952903508545673
 70
   192
  0
VERTEX
  5
125E
330
1137
100
AcDbEntity
  8
0
 62
     7
100
AcDbVertex
100
AcDbPolyFaceMeshVertex
 10
2.69532489177696
 20
6.353627681732177
 30
-0.0000000005943396
 70
   192
  0
VERTEX
  5
125F
330
1137
100
AcDbEntity
  8
0
 62
     7
100
AcDbVertex
100
AcDbPolyFaceMeshVertex
 10
0.5156278550338023
 20
6.353627681732177
 30
-0.0000000005943398
 70
   192
  0
VERTEX
  5
1260
330
1137
100
AcDbEntity
  8
0
 62
     7
100
AcDbVertex
100
AcDbPolyFaceMeshVertex
 10
2.878082269401472
 20
6.598554611206053
 30
-0.0000000005943396
 70
   192
  0
VERTEX
  5
1261
330
1137
100
AcDbEntity
  8
0
 62
     7
100
AcDbVertex
100
AcDbPolyFaceMeshVertex
 10
0.7447433411788218
 20
6.151401519775389
 30
-0.0000000005943398
 70
   192
  0
VERTEX
  5
1262
330
1137
100
AcDbEntity
  8
0
 62
     7
100
AcDbVertex
100
AcDbPolyFaceMeshVertex
 10
2.200481408805769
 20
6.000478267669677
 30
-0.0000000005943397
 70
   192
  0
VERTEX
  5
1263
330
1137
100
AcDbEntity
  8
0
 62
     7
100
AcDbVertex
100
AcDbPolyFaceMeshVertex
 10
1.010471338004991
 20
6.000478267669677
 30
-0.0000000005943397
 70
   192
  0
VERTEX
  5
1264
330
1137
100
AcDbEntity
  8
0
 62
     7
100
AcDbVertex
100
AcDbPolyFaceMeshVertex
 10
2.466209405631941
 20
6.151401519775389
 30
-0.0000000005943396
 70
   192
  0
VERTEX
  5
1265
330
1137
100
AcDbEntity
  8
0
 62
     7
100
AcDbVertex
100
AcDbPolyFaceMeshVertex
 10
1.301508897514271
 20
5.907277584075927
 30
-0.0000000005943397
 70
   192
  0
VERTEX
  5
1266
330
1137
100
AcDbEntity
  8
0
 62
     7
100
AcDbVertex
100
AcDbPolyFaceMeshVertex
 10
1.909443849296492
 20
5.907277584075927
 30
-0.0000000005943397
 70
   192
  0
VERTEX
  5
1267
330
1137
100
AcDbEntity
  8
0
 62
     7
100
AcDbVertex
100
AcDbPolyFaceMeshVertex
 10
1.605476373405382
 20
5.875763893127441
 30
-0.0000000005943397
 70
   192
  0
VERTEX
  5
1268
330
1137
100
AcDbEntity
  8
0
 62
     7
100
AcDbVertex
100
AcDbPolyFaceMeshVertex
 10
0.3328714310836087
 20
6.598554611206053
 30
-0.0000000005943398
 70
   192
  0
VERTEX
  5
1269
330
1137
100
AcDbEntity
  8
0
 62
     7
100
AcDbVertex
100
AcDbPolyFaceMeshVertex
 10
1.010471338004991
 20
6.000478267669677
 30
0.3368260854499719
 70
   192
  0
VERTEX
  5
126A
330
1137
100
AcDbEntity
  8
0
 62
     7
100
AcDbVertex
100
AcDbPolyFaceMeshVertex
 10
1.301508897514271
 20
5.907277584075927
 30
0.3368260854499719
 70
   192
  0
VERTEX
  5
126B
330
1137
100
AcDbEntity
  8
0
 62
     7
100
AcDbVertex
100
AcDbPolyFaceMeshVertex
 10
2.69532489177696
 20
6.353627681732177
 30
0.3368260854499719
 70
   192
  0
VERTEX
  5
126C
330
1137
100
AcDbEntity
  8
0
 62
     7
100
AcDbVertex
100
AcDbPolyFaceMeshVertex
 10
2.878082269401472
 20
6.598554611206053
 30
0.3368260854499719
 70
   192
  0
VERTEX
  5
126D
330
1137
100
AcDbEntity
  8
0
 62
     7
100
AcDbVertex
100
AcDbPolyFaceMeshVertex
 10
2.200481408805769
 20
6.000478267669677
 30
0.3368260854499719
 70
   192
  0
VERTEX
  5
126E
330
1137
100
AcDbEntity
  8
0
 62
     7
100
AcDbVertex
100
AcDbPolyFaceMeshVertex
 10
2.466209405631941
 20
6.151401519775389
 30
0.3368260854499719
 70
   192
  0
VERTEX
  5
126F
330
1137
100
AcDbEntity
  8
0
 62
     7
100
AcDbVertex
100
AcDbPolyFaceMeshVertex
 10
1.909443849296492
 20
5.907277584075927
 30
0.3368260854499719
 70
   192
  0
VERTEX
  5
1270
330
1137
100
AcDbEntity
  8
0
 62
     7
100
AcDbVertex
100
AcDbPolyFaceMeshVertex
 10
0.5156278550338023
 20
6.353627681732177
 30
0.3368260854499719
 70
   192
  0
VERTEX
  5
1271
330
1137
100
AcDbEntity
  8
0
 62
     7
100
AcDbVertex
100
AcDbPolyFaceMeshVertex
 10
0.7447433411788218
 20
6.151401519775389
 30
0.3368260854499719
 70
   192
  0
VERTEX
  5
1272
330
1137
100
AcDbEntity
  8
0
 62
     7
100
AcDbVertex
100
AcDbPolyFaceMeshVertex
 10
0.3328714310836087
 20
6.598554611206053
 30
0.3368260854499719
 70
   192
  0
VERTEX
  5
1273
330
1137
100
AcDbEntity
  8
0
 62
     7
100
AcDbVertex
100
AcDbPolyFaceMeshVertex
 10
1.605476373405382
 20
5.875763893127441
 30
0.3368260854499719
 70
   192
  0
VERTEX
  5
1274
330
1137
100
AcDbEntity
  8
0
 62
     7
100
AcDbFaceRecord
 10
0.0
 20
0.0
 30
0.0
 70
   128
 71
     1
 72
     2
 73
     3
  0
VERTEX
  5
1275
330
1137
100
AcDbEntity
  8
0
 62
     7
100
AcDbFaceRecord
 10
0.0
 20
0.0
 30
0.0
 70
   128
 71
     4
 72
     5
 73
     6
  0
VERTEX
  5
1276
330
1137
100
AcDbEntity
  8
0
 62
     7
100
AcDbFaceRecord
 10
0.0
 20
0.0
 30
0.0
 70
   128
 71
     7
 72
     8
 73
     9
  0
VERTEX
  5
1277
330
1137
100
AcDbEntity
  8
0
 62
     7
100
AcDbFaceRecord
 10
0.0
 20
0.0
 30
0.0
 70
   128
 71
    10
 72
    11
 73
    12
  0
VERTEX
  5
1278
330
1137
100
AcDbEntity
  8
0
 62
     7
100
AcDbFaceRecord
 10
0.0
 20
0.0
 30
0.0
 70
   128
 71
    13
 72
    14
 73
    15
  0
VERTEX
  5
1279
330
1137
100
AcDbEntity
  8
0
 62
     7
100
AcDbFaceRecord
 10
0.0
 20
0.0
 30
0.0
 70
   128
 71
    16
 72
    10
 73
     1
  0
VERTEX
  5
127A
330
1137
100
AcDbEntity
  8
0
 62
     7
100
AcDbFaceRecord
 10
0.0
 20
0.0
 30
0.0
 70
   128
 71
    17
 72
     1
 73
     3
  0
VERTEX
  5
127B
330
1137
100
AcDbEntity
  8
0
 62
     7
100
AcDbFaceRecord
 10
0.0
 20
0.0
 30
0.0
 70
   128
 71
    17
 72
    16
 73
     1
  0
VERTEX
  5
127C
330
1137
100
AcDbEntity
  8
0
 62
     7
100
AcDbFaceRecord
 10
0.0
 20
0.0
 30
0.0
 70
   128
 71
    18
 72
    15
 73
    14
  0
VERTEX
  5
127D
330
1137
100
AcDbEntity
  8
0
 62
     7
100
AcDbFaceRecord
 10
0.0
 20
0.0
 30
0.0
 70
   128
 71
    19
 72
    18
 73
    14
  0
VERTEX
  5
127E
330
1137
100
AcDbEntity
  8
0
 62
     7
100
AcDbFaceRecord
 10
0.0
 20
0.0
 30
0.0
 70
   128
 71
    20
 72
    18
 73
    19
  0
VERTEX
  5
127F
330
1137
100
AcDbEntity
  8
0
 62
     7
100
AcDbFaceRecord
 10
0.0
 20
0.0
 30
0.0
 70
   128
 71
    21
 72
    11
 73
    10
  0
VERTEX
  5
1280
330
1137
100
AcDbEntity
  8
0
 62
     7
100
AcDbFaceRecord
 10
0.0
 20
0.0
 30
0.0
 70
   128
 71
    21
 72
    10
 73
    16
  0
VERTEX
  5
1281
330
1137
100
AcDbEntity
  8
0
 62
     7
100
AcDbFaceRecord
 10
0.0
 20
0.0
 30
0.0
 70
   128
 71
    22
 72
    16
 73
    17
  0
VERTEX
  5
1282
330
1137
100
AcDbEntity
  8
0
 62
     7
100
AcDbFaceRecord
 10
0.0
 20
0.0
 30
0.0
 70
   128
 71
    23
 72
    22
 73
    17
  0
VERTEX
  5
1283
330
1137
100
AcDbEntity
  8
0
 62
     7
100
AcDbFaceRecord
 10
0.0
 20
0.0
 30
0.0
 70
   128
 71
    24
 72
    25
 73
    17
  0
VERTEX
  5
1284
330
1137
100
AcDbEntity
  8
0
 62
     7
100
AcDbFaceRecord
 10
0.0
 20
0.0
 30
0.0
 70
   128
 71
    26
 72
    24
 73
    17
  0
VERTEX
  5
1285
330
1137
100
AcDbEntity
  8
0
 62
     7
100
AcDbFaceRecord
 10
0.0
 20
0.0
 30
0.0
 70
   128
 71
    27
 72
    26
 73
    17
  0
VERTEX
  5
1286
330
1137
100
AcDbEntity
  8
0
 62
     7
100
AcDbFaceRecord
 10
0.0
 20
0.0
 30
0.0
 70
   128
 71
    27
 72
    17
 73
     3
  0
VERTEX
  5
1287
330
1137
100
AcDbEntity
  8
0
 62
     7
100
AcDbFaceRecord
 10
0.0
 20
0.0
 30
0.0
 70
   128
 71
    28
 72
     2
 73
     1
  0
VERTEX
  5
1288
330
1137
100
AcDbEntity
  8
0
 62
     7
100
AcDbFaceRecord
 10
0.0
 20
0.0
 30
0.0
 70
   128
 71
    29
 72
    28
 73
     1
  0
VERTEX
  5
1289
330
1137
100
AcDbEntity
  8
0
 62
     7
100
AcDbFaceRecord
 10
0.0
 20
0.0
 30
0.0
 70
   128
 71
    30
 72
    28
 73
    29
  0
VERTEX
  5
128A
330
1137
100
AcDbEntity
  8
0
 62
     7
100
AcDbFaceRecord
 10
0.0
 20
0.0
 30
0.0
 70
   128
 71
    31
 72
    30
 73
    29
  0
VERTEX
  5
128B
330
1137
100
AcDbEntity
  8
0
 62
     7
100
AcDbFaceRecord
 10
0.0
 20
0.0
 30
0.0
 70
   128
 71
    32
 72
    31
 73
    29
  0
VERTEX
  5
128C
330
1137
100
AcDbEntity
  8
0
 62
     7
100
AcDbFaceRecord
 10
0.0
 20
0.0
 30
0.0
 70
   128
 71
    33
 72
    32
 73
    29
  0
VERTEX
  5
128D
330
1137
100
AcDbEntity
  8
0
 62
     7
100
AcDbFaceRecord
 10
0.0
 20
0.0
 30
0.0
 70
   128
 71
    34
 72
    33
 73
    29
  0
VERTEX
  5
128E
330
1137
100
AcDbEntity
  8
0
 62
     7
100
AcDbFaceRecord
 10
0.0
 20
0.0
 30
0.0
 70
   128
 71
    35
 72
    34
 73
    29
  0
VERTEX
  5
128F
330
1137
100
AcDbEntity
  8
0
 62
     7
100
AcDbFaceRecord
 10
0.0
 20
0.0
 30
0.0
 70
   128
 71
    36
 72
    35
 73
    29
  0
VERTEX
  5
1290
330
1137
100
AcDbEntity
  8
0
 62
     7
100
AcDbFaceRecord
 10
0.0
 20
0.0
 30
0.0
 70
   128
 71
    37
 72
    36
 73
    29
  0
VERTEX
  5
1291
330
1137
100
AcDbEntity
  8
0
 62
     7
100
AcDbFaceRecord
 10
0.0
 20
0.0
 30
0.0
 70
   128
 71
    38
 72
    29
 73
     1
  0
VERTEX
  5
1292
330
1137
100
AcDbEntity
  8
0
 62
     7
100
AcDbFaceRecord
 10
0.0
 20
0.0
 30
0.0
 70
   128
 71
    39
 72
    40
 73
    41
  0
VERTEX
  5
1293
330
1137
100
AcDbEntity
  8
0
 62
     7
100
AcDbFaceRecord
 10
0.0
 20
0.0
 30
0.0
 70
   128
 71
    42
 72
    40
 73
    39
  0
VERTEX
  5
1294
330
1137
100
AcDbEntity
  8
0
 62
     7
100
AcDbFaceRecord
 10
0.0
 20
0.0
 30
0.0
 70
   128
 71
    43
 72
    42
 73
    39
  0
VERTEX
  5
1295
330
1137
100
AcDbEntity
  8
0
 62
     7
100
AcDbFaceRecord
 10
0.0
 20
0.0
 30
0.0
 70
   128
 71
    38
 72
    41
 73
    40
  0
VERTEX
  5
1296
330
1137
100
AcDbEntity
  8
0
 62
     7
100
AcDbFaceRecord
 10
0.0
 20
0.0
 30
0.0
 70
   128
 71
    41
 72
    38
 73
     1
  0
VERTEX
  5
1297
330
1137
100
AcDbEntity
  8
0
 62
     7
100
AcDbFaceRecord
 10
0.0
 20
0.0
 30
0.0
 70
   128
 71
    44
 72
     5
 73
     4
  0
VERTEX
  5
1298
330
1137
100
AcDbEntity
  8
0
 62
     7
100
AcDbFaceRecord
 10
0.0
 20
0.0
 30
0.0
 70
   128
 71
    45
 72
     6
 73
     5
  0
VERTEX
  5
1299
330
1137
100
AcDbEntity
  8
0
 62
     7
100
AcDbFaceRecord
 10
0.0
 20
0.0
 30
0.0
 70
   128
 71
    46
 72
    45
 73
     5
  0
VERTEX
  5
129A
330
1137
100
AcDbEntity
  8
0
 62
     7
100
AcDbFaceRecord
 10
0.0
 20
0.0
 30
0.0
 70
   128
 71
    47
 72
    46
 73
     5
  0
VERTEX
  5
129B
330
1137
100
AcDbEntity
  8
0
 62
     7
100
AcDbFaceRecord
 10
0.0
 20
0.0
 30
0.0
 70
   128
 71
    48
 72
    47
 73
     5
  0
VERTEX
  5
129C
330
1137
100
AcDbEntity
  8
0
 62
     7
100
AcDbFaceRecord
 10
0.0
 20
0.0
 30
0.0
 70
   128
 71
    49
 72
    48
 73
     5
  0
VERTEX
  5
129D
330
1137
100
AcDbEntity
  8
0
 62
     7
100
AcDbFaceRecord
 10
0.0
 20
0.0
 30
0.0
 70
   128
 71
     8
 72
    49
 73
     5
  0
VERTEX
  5
129E
330
1137
100
AcDbEntity
  8
0
 62
     7
100
AcDbFaceRecord
 10
0.0
 20
0.0
 30
0.0
 70
   128
 71
    50
 72
    49
 73
     8
  0
VERTEX
  5
129F
330
1137
100
AcDbEntity
  8
0
 62
     7
100
AcDbFaceRecord
 10
0.0
 20
0.0
 30
0.0
 70
   128
 71
    51
 72
    50
 73
     8
  0
VERTEX
  5
12A0
330
1137
100
AcDbEntity
  8
0
 62
     7
100
AcDbFaceRecord
 10
0.0
 20
0.0
 30
0.0
 70
   128
 71
    52
 72
    51
 73
     8
  0
VERTEX
  5
12A1
330
1137
100
AcDbEntity
  8
0
 62
     7
100
AcDbFaceRecord
 10
0.0
 20
0.0
 30
0.0
 70
   128
 71
    53
 72
    52
 73
     8
  0
VERTEX
  5
12A2
330
1137
100
AcDbEntity
  8
0
 62
     7
100
AcDbFaceRecord
 10
0.0
 20
0.0
 30
0.0
 70
   128
 71
    54
 72
    53
 73
     8
  0
VERTEX
  5
12A3
330
1137
100
AcDbEntity
  8
0
 62
     7
100
AcDbFaceRecord
 10
0.0
 20
0.0
 30
0.0
 70
   128
 71
    55
 72
    54
 73
     8
  0
VERTEX
  5
12A4
330
1137
100
AcDbEntity
  8
0
 62
     7
100
AcDbFaceRecord
 10
0.0
 20
0.0
 30
0.0
 70
   128
 71
    56
 72
     8
 73
     7
  0
VERTEX
  5
12A5
330
1137
100
AcDbEntity
  8
0
 62
     7
100
AcDbFaceRecord
 10
0.0
 20
0.0
 30
0.0
 70
   128
 71
     1
 72
     8
 73
     5
  0
VERTEX
  5
12A6
330
1137
100
AcDbEntity
  8
0
 62
     7
100
AcDbFaceRecord
 10
0.0
 20
0.0
 30
0.0
 70
   128
 71
     1
 72
     9
 73
     8
  0
VERTEX
  5
12A7
330
1137
100
AcDbEntity
  8
0
 62
     7
100
AcDbFaceRecord
 10
0.0
 20
0.0
 30
0.0
 70
   128
 71
     9
 72
     1
 73
    10
  0
VERTEX
  5
12A8
330
1137
100
AcDbEntity
  8
0
 62
     7
100
AcDbFaceRecord
 10
0.0
 20
0.0
 30
0.0
 70
   128
 71
    57
 72
    12
 73
    11
  0
VERTEX
  5
12A9
330
1137
100
AcDbEntity
  8
0
 62
     7
100
AcDbFaceRecord
 10
0.0
 20
0.0
 30
0.0
 70
   128
 71
    20
 72
    57
 73
    11
  0
VERTEX
  5
12AA
330
1137
100
AcDbEntity
  8
0
 62
     7
100
AcDbFaceRecord
 10
0.0
 20
0.0
 30
0.0
 70
   128
 71
    57
 72
    20
 73
    19
  0
VERTEX
  5
12AB
330
1137
100
AcDbEntity
  8
0
 62
     7
100
AcDbFaceRecord
 10
0.0
 20
0.0
 30
0.0
 70
   128
 71
    58
 72
    19
 73
    59
  0
VERTEX
  5
12AC
330
1137
100
AcDbEntity
  8
0
 62
     7
100
AcDbFaceRecord
 10
0.0
 20
0.0
 30
0.0
 70
   128
 71
    60
 72
    58
 73
    59
  0
VERTEX
  5
12AD
330
1137
100
AcDbEntity
  8
0
 62
     7
100
AcDbFaceRecord
 10
0.0
 20
0.0
 30
0.0
 70
   128
 71
    61
 72
    60
 73
    59
  0
VERTEX
  5
12AE
330
1137
100
AcDbEntity
  8
0
 62
     7
100
AcDbFaceRecord
 10
0.0
 20
0.0
 30
0.0
 70
   128
 71
    59
 72
    19
 73
    14
  0
VERTEX
  5
12AF
330
1137
100
AcDbEntity
  8
0
 62
     7
100
AcDbFaceRecord
 10
0.0
 20
0.0
 30
0.0
 70
   128
 71
    62
 72
    14
 73
    13
  0
VERTEX
  5
12B0
330
1137
100
AcDbEntity
  8
0
 62
     7
100
AcDbFaceRecord
 10
0.0
 20
0.0
 30
0.0
 70
   128
 71
    63
 72
    64
 73
    65
  0
VERTEX
  5
12B1
330
1137
100
AcDbEntity
  8
0
 62
     7
100
AcDbFaceRecord
 10
0.0
 20
0.0
 30
0.0
 70
   128
 71
    66
 72
    64
 73
    63
  0
VERTEX
  5
12B2
330
1137
100
AcDbEntity
  8
0
 62
     7
100
AcDbFaceRecord
 10
0.0
 20
0.0
 30
0.0
 70
   128
 71
    67
 72
    66
 73
    63
  0
VERTEX
  5
12B3
330
1137
100
AcDbEntity
  8
0
 62
     7
100
AcDbFaceRecord
 10
0.0
 20
0.0
 30
0.0
 70
   128
 71
    68
 72
    65
 73
    64
  0
VERTEX
  5
12B4
330
1137
100
AcDbEntity
  8
0
 62
     7
100
AcDbFaceRecord
 10
0.0
 20
0.0
 30
0.0
 70
   128
 71
    43
 72
    65
 73
    68
  0
VERTEX
  5
12B5
330
1137
100
AcDbEntity
  8
0
 62
     7
100
AcDbFaceRecord
 10
0.0
 20
0.0
 30
0.0
 70
   128
 71
    42
 72
    43
 73
    68
  0
VERTEX
  5
12B6
330
1137
100
AcDbEntity
  8
0
 62
     7
100
AcDbFaceRecord
 10
0.0
 20
0.0
 30
0.0
 70
   128
 71
    69
 72
    70
 73
    71
  0
VERTEX
  5
12B7
330
1137
100
AcDbEntity
  8
0
 62
     7
100
AcDbFaceRecord
 10
0.0
 20
0.0
 30
0.0
 70
   128
 71
    72
 72
    70
 73
    69
  0
VERTEX
  5
12B8
330
1137
100
AcDbEntity
  8
0
 62
     7
100
AcDbFaceRecord
 10
0.0
 20
0.0
 30
0.0
 70
   128
 71
    73
 72
    74
 73
    75
  0
VERTEX
  5
12B9
330
1137
100
AcDbEntity
  8
0
 62
     7
100
AcDbFaceRecord
 10
0.0
 20
0.0
 30
0.0
 70
   128
 71
    76
 72
    77
 73
    78
  0
VERTEX
  5
12BA
330
1137
100
AcDbEntity
  8
0
 62
     7
100
AcDbFaceRecord
 10
0.0
 20
0.0
 30
0.0
 70
   128
 71
    79
 72
    75
 73
    74
  0
VERTEX
  5
12BB
330
1137
100
AcDbEntity
  8
0
 62
     7
100
AcDbFaceRecord
 10
0.0
 20
0.0
 30
0.0
 70
   128
 71
    79
 72
    77
 73
    75
  0
VERTEX
  5
12BC
330
1137
100
AcDbEntity
  8
0
 62
     7
100
AcDbFaceRecord
 10
0.0
 20
0.0
 30
0.0
 70
   128
 71
    79
 72
    80
 73
    77
  0
VERTEX
  5
12BD
330
1137
100
AcDbEntity
  8
0
 62
     7
100
AcDbFaceRecord
 10
0.0
 20
0.0
 30
0.0
 70
   128
 71
    81
 72
    82
 73
    83
  0
VERTEX
  5
12BE
330
1137
100
AcDbEntity
  8
0
 62
     7
100
AcDbFaceRecord
 10
0.0
 20
0.0
 30
0.0
 70
   128
 71
    84
 72
    85
 73
    86
  0
VERTEX
  5
12BF
330
1137
100
AcDbEntity
  8
0
 62
     7
100
AcDbFaceRecord
 10
0.0
 20
0.0
 30
0.0
 70
   128
 71
    84
 72
    87
 73
    85
  0
VERTEX
  5
12C0
330
1137
100
AcDbEntity
  8
0
 62
     7
100
AcDbFaceRecord
 10
0.0
 20
0.0
 30
0.0
 70
   128
 71
    88
 72
    89
 73
    90
  0
VERTEX
  5
12C1
330
1137
100
AcDbEntity
  8
0
 62
     7
100
AcDbFaceRecord
 10
0.0
 20
0.0
 30
0.0
 70
   128
 71
    91
 72
    92
 73
    93
  0
VERTEX
  5
12C2
330
1137
100
AcDbEntity
  8
0
 62
     7
100
AcDbFaceRecord
 10
0.0
 20
0.0
 30
0.0
 70
   128
 71
    94
 72
    92
 73
    91
  0
VERTEX
  5
12C3
330
1137
100
AcDbEntity
  8
0
 62
     7
100
AcDbFaceRecord
 10
0.0
 20
0.0
 30
0.0
 70
   128
 71
    94
 72
    95
 73
    92
  0
VERTEX
  5
12C4
330
1137
100
AcDbEntity
  8
0
 62
     7
100
AcDbFaceRecord
 10
0.0
 20
0.0
 30
0.0
 70
   128
 71
    96
 72
    97
 73
    98
  0
VERTEX
  5
12C5
330
1137
100
AcDbEntity
  8
0
 62
     7
100
AcDbFaceRecord
 10
0.0
 20
0.0
 30
0.0
 70
   128
 71
    96
 72
    99
 73
    97
  0
VERTEX
  5
12C6
330
1137
100
AcDbEntity
  8
0
 62
     7
100
AcDbFaceRecord
 10
0.0
 20
0.0
 30
0.0
 70
   128
 71
   100
 72
    92
 73
    95
  0
VERTEX
  5
12C7
330
1137
100
AcDbEntity
  8
0
 62
     7
100
AcDbFaceRecord
 10
0.0
 20
0.0
 30
0.0
 70
   128
 71
    15
 72
    18
 73
   101
  0
VERTEX
  5
12C8
330
1137
100
AcDbEntity
  8
0
 62
     7
100
AcDbFaceRecord
 10
0.0
 20
0.0
 30
0.0
 70
   128
 71
   102
 72
    95
 73
   103
  0
VERTEX
  5
12C9
330
1137
100
AcDbEntity
  8
0
 62
     7
100
AcDbFaceRecord
 10
0.0
 20
0.0
 30
0.0
 70
   128
 71
   102
 72
   100
 73
    95
  0
VERTEX
  5
12CA
330
1137
100
AcDbEntity
  8
0
 62
     7
100
AcDbFaceRecord
 10
0.0
 20
0.0
 30
0.0
 70
   128
 71
    80
 72
   104
 73
   105
  0
VERTEX
  5
12CB
330
1137
100
AcDbEntity
  8
0
 62
     7
100
AcDbFaceRecord
 10
0.0
 20
0.0
 30
0.0
 70
   128
 71
   106
 72
    82
 73
    81
  0
VERTEX
  5
12CC
330
1137
100
AcDbEntity
  8
0
 62
     7
100
AcDbFaceRecord
 10
0.0
 20
0.0
 30
0.0
 70
   128
 71
   104
 72
    80
 73
    79
  0
VERTEX
  5
12CD
330
1137
100
AcDbEntity
  8
0
 62
     7
100
AcDbFaceRecord
 10
0.0
 20
0.0
 30
0.0
 70
   128
 71
    60
 72
    72
 73
    69
  0
VERTEX
  5
12CE
330
1137
100
AcDbEntity
  8
0
 62
     7
100
AcDbFaceRecord
 10
0.0
 20
0.0
 30
0.0
 70
   128
 71
   107
 72
    12
 73
    71
  0
VERTEX
  5
12CF
330
1137
100
AcDbEntity
  8
0
 62
     7
100
AcDbFaceRecord
 10
0.0
 20
0.0
 30
0.0
 70
   128
 71
    99
 72
    92
 73
   100
  0
VERTEX
  5
12D0
330
1137
100
AcDbEntity
  8
0
 62
     7
100
AcDbFaceRecord
 10
0.0
 20
0.0
 30
0.0
 70
   128
 71
    99
 72
    93
 73
    92
  0
VERTEX
  5
12D1
330
1137
100
AcDbEntity
  8
0
 62
     7
100
AcDbFaceRecord
 10
0.0
 20
0.0
 30
0.0
 70
   128
 71
    93
 72
    99
 73
    96
  0
VERTEX
  5
12D2
330
1137
100
AcDbEntity
  8
0
 62
     7
100
AcDbFaceRecord
 10
0.0
 20
0.0
 30
0.0
 70
   128
 71
    87
 72
    97
 73
    89
  0
VERTEX
  5
12D3
330
1137
100
AcDbEntity
  8
0
 62
     7
100
AcDbFaceRecord
 10
0.0
 20
0.0
 30
0.0
 70
   128
 71
    87
 72
    98
 73
    97
  0
VERTEX
  5
12D4
330
1137
100
AcDbEntity
  8
0
 62
     7
100
AcDbFaceRecord
 10
0.0
 20
0.0
 30
0.0
 70
   128
 71
    98
 72
    87
 73
    84
  0
VERTEX
  5
12D5
330
1137
100
AcDbEntity
  8
0
 62
     7
100
AcDbFaceRecord
 10
0.0
 20
0.0
 30
0.0
 70
   128
 71
   105
 72
    81
 73
    83
  0
VERTEX
  5
12D6
330
1137
100
AcDbEntity
  8
0
 62
     7
100
AcDbFaceRecord
 10
0.0
 20
0.0
 30
0.0
 70
   128
 71
   105
 72
    85
 73
    81
  0
VERTEX
  5
12D7
330
1137
100
AcDbEntity
  8
0
 62
     7
100
AcDbFaceRecord
 10
0.0
 20
0.0
 30
0.0
 70
   128
 71
   105
 72
    86
 73
    85
  0
VERTEX
  5
12D8
330
1137
100
AcDbEntity
  8
0
 62
     7
100
AcDbFaceRecord
 10
0.0
 20
0.0
 30
0.0
 70
   128
 71
    86
 72
   105
 73
   104
  0
VERTEX
  5
12D9
330
1137
100
AcDbEntity
  8
0
 62
     7
100
AcDbFaceRecord
 10
0.0
 20
0.0
 30
0.0
 70
   128
 71
   104
 72
    79
 73
    74
  0
VERTEX
  5
12DA
330
1137
100
AcDbEntity
  8
0
 62
     7
100
AcDbFaceRecord
 10
0.0
 20
0.0
 30
0.0
 70
   128
 71
    70
 72
    73
 73
    75
  0
VERTEX
  5
12DB
330
1137
100
AcDbEntity
  8
0
 62
     7
100
AcDbFaceRecord
 10
0.0
 20
0.0
 30
0.0
 70
   128
 71
    73
 72
    70
 73
    72
  0
VERTEX
  5
12DC
330
1137
100
AcDbEntity
  8
0
 62
     7
100
AcDbFaceRecord
 10
0.0
 20
0.0
 30
0.0
 70
   128
 71
    58
 72
    60
 73
    69
  0
VERTEX
  5
12DD
330
1137
100
AcDbEntity
  8
0
 62
     7
100
AcDbFaceRecord
 10
0.0
 20
0.0
 30
0.0
 70
   128
 71
    19
 72
    58
 73
    69
  0
VERTEX
  5
12DE
330
1137
100
AcDbEntity
  8
0
 62
     7
100
AcDbFaceRecord
 10
0.0
 20
0.0
 30
0.0
 70
   128
 71
   108
 72
    71
 73
    12
  0
VERTEX
  5
12DF
330
1137
100
AcDbEntity
  8
0
 62
     7
100
AcDbFaceRecord
 10
0.0
 20
0.0
 30
0.0
 70
   128
 71
   108
 72
    69
 73
    71
  0
VERTEX
  5
12E0
330
1137
100
AcDbEntity
  8
0
 62
     7
100
AcDbFaceRecord
 10
0.0
 20
0.0
 30
0.0
 70
   128
 71
   108
 72
    19
 73
    69
  0
VERTEX
  5
12E1
330
1137
100
AcDbEntity
  8
0
 62
     7
100
AcDbFaceRecord
 10
0.0
 20
0.0
 30
0.0
 70
   128
 71
    57
 72
    19
 73
   108
  0
VERTEX
  5
12E2
330
1137
100
AcDbEntity
  8
0
 62
     7
100
AcDbFaceRecord
 10
0.0
 20
0.0
 30
0.0
 70
   128
 71
    57
 72
   108
 73
    12
  0
VERTEX
  5
12E3
330
1137
100
AcDbEntity
  8
0
 62
     7
100
AcDbFaceRecord
 10
0.0
 20
0.0
 30
0.0
 70
   128
 71
   109
 72
    77
 73
    76
  0
VERTEX
  5
12E4
330
1137
100
AcDbEntity
  8
0
 62
     7
100
AcDbFaceRecord
 10
0.0
 20
0.0
 30
0.0
 70
   128
 71
   109
 72
    75
 73
    77
  0
VERTEX
  5
12E5
330
1137
100
AcDbEntity
  8
0
 62
     7
100
AcDbFaceRecord
 10
0.0
 20
0.0
 30
0.0
 70
   128
 71
   109
 72
    70
 73
    75
  0
VERTEX
  5
12E6
330
1137
100
AcDbEntity
  8
0
 62
     7
100
AcDbFaceRecord
 10
0.0
 20
0.0
 30
0.0
 70
   128
 71
   109
 72
    71
 73
    70
  0
VERTEX
  5
12E7
330
1137
100
AcDbEntity
  8
0
 62
     7
100
AcDbFaceRecord
 10
0.0
 20
0.0
 30
0.0
 70
   128
 71
   109
 72
   107
 73
    71
  0
VERTEX
  5
12E8
330
1137
100
AcDbEntity
  8
0
 62
     7
100
AcDbFaceRecord
 10
0.0
 20
0.0
 30
0.0
 70
   128
 71
   107
 72
   109
 73
    76
  0
VERTEX
  5
12E9
330
1137
100
AcDbEntity
  8
0
 62
     7
100
AcDbFaceRecord
 10
0.0
 20
0.0
 30
0.0
 70
   128
 71
   110
 72
    83
 73
    82
  0
VERTEX
  5
12EA
330
1137
100
AcDbEntity
  8
0
 62
     7
100
AcDbFaceRecord
 10
0.0
 20
0.0
 30
0.0
 70
   128
 71
   110
 72
   105
 73
    83
  0
VERTEX
  5
12EB
330
1137
100
AcDbEntity
  8
0
 62
     7
100
AcDbFaceRecord
 10
0.0
 20
0.0
 30
0.0
 70
   128
 71
   110
 72
    80
 73
   105
  0
VERTEX
  5
12EC
330
1137
100
AcDbEntity
  8
0
 62
     7
100
AcDbFaceRecord
 10
0.0
 20
0.0
 30
0.0
 70
   128
 71
   110
 72
    77
 73
    80
  0
VERTEX
  5
12ED
330
1137
100
AcDbEntity
  8
0
 62
     7
100
AcDbFaceRecord
 10
0.0
 20
0.0
 30
0.0
 70
   128
 71
   110
 72
    78
 73
    77
  0
VERTEX
  5
12EE
330
1137
100
AcDbEntity
  8
0
 62
     7
100
AcDbFaceRecord
 10
0.0
 20
0.0
 30
0.0
 70
   128
 71
    78
 72
   110
 73
    82
  0
VERTEX
  5
12EF
330
1137
100
AcDbEntity
  8
0
 62
     7
100
AcDbFaceRecord
 10
0.0
 20
0.0
 30
0.0
 70
   128
 71
   111
 72
    89
 73
    88
  0
VERTEX
  5
12F0
330
1137
100
AcDbEntity
  8
0
 62
     7
100
AcDbFaceRecord
 10
0.0
 20
0.0
 30
0.0
 70
   128
 71
   111
 72
    87
 73
    89
  0
VERTEX
  5
12F1
330
1137
100
AcDbEntity
  8
0
 62
     7
100
AcDbFaceRecord
 10
0.0
 20
0.0
 30
0.0
 70
   128
 71
   111
 72
    85
 73
    87
  0
VERTEX
  5
12F2
330
1137
100
AcDbEntity
  8
0
 62
     7
100
AcDbFaceRecord
 10
0.0
 20
0.0
 30
0.0
 70
   128
 71
   111
 72
    81
 73
    85
  0
VERTEX
  5
12F3
330
1137
100
AcDbEntity
  8
0
 62
     7
100
AcDbFaceRecord
 10
0.0
 20
0.0
 30
0.0
 70
   128
 71
   111
 72
   106
 73
    81
  0
VERTEX
  5
12F4
330
1137
100
AcDbEntity
  8
0
 62
     7
100
AcDbFaceRecord
 10
0.0
 20
0.0
 30
0.0
 70
   128
 71
   106
 72
   111
 73
    88
  0
VERTEX
  5
12F5
330
1137
100
AcDbEntity
  8
0
 62
     7
100
AcDbFaceRecord
 10
0.0
 20
0.0
 30
0.0
 70
   128
 71
   112
 72
   100
 73
   102
  0
VERTEX
  5
12F6
330
1137
100
AcDbEntity
  8
0
 62
     7
100
AcDbFaceRecord
 10
0.0
 20
0.0
 30
0.0
 70
   128
 71
   112
 72
    99
 73
   100
  0
VERTEX
  5
12F7
330
1137
100
AcDbEntity
  8
0
 62
     7
100
AcDbFaceRecord
 10
0.0
 20
0.0
 30
0.0
 70
   128
 71
   112
 72
    97
 73
    99
  0
VERTEX
  5
12F8
330
1137
100
AcDbEntity
  8
0
 62
     7
100
AcDbFaceRecord
 10
0.0
 20
0.0
 30
0.0
 70
   128
 71
   112
 72
    89
 73
    97
  0
VERTEX
  5
12F9
330
1137
100
AcDbEntity
  8
0
 62
     7
100
AcDbFaceRecord
 10
0.0
 20
0.0
 30
0.0
 70
   128
 71
   112
 72
    90
 73
    89
  0
VERTEX
  5
12FA
330
1137
100
AcDbEntity
  8
0
 62
     7
100
AcDbFaceRecord
 10
0.0
 20
0.0
 30
0.0
 70
   128
 71
    90
 72
   112
 73
   102
  0
VERTEX
  5
12FB
330
1137
100
AcDbEntity
  8
0
 62
     7
100
AcDbFaceRecord
 10
0.0
 20
0.0
 30
0.0
 70
   128
 71
   113
 72
   101
 73
    18
  0
VERTEX
  5
12FC
330
1137
100
AcDbEntity
  8
0
 62
     7
100
AcDbFaceRecord
 10
0.0
 20
0.0
 30
0.0
 70
   128
 71
   113
 72
    94
 73
   101
  0
VERTEX
  5
12FD
330
1137
100
AcDbEntity
  8
0
 62
     7
100
AcDbFaceRecord
 10
0.0
 20
0.0
 30
0.0
 70
   128
 71
   113
 72
    95
 73
    94
  0
VERTEX
  5
12FE
330
1137
100
AcDbEntity
  8
0
 62
     7
100
AcDbFaceRecord
 10
0.0
 20
0.0
 30
0.0
 70
   128
 71
   113
 72
   103
 73
    95
  0
VERTEX
  5
12FF
330
1137
100
AcDbEntity
  8
0
 62
     7
100
AcDbFaceRecord
 10
0.0
 20
0.0
 30
0.0
 70
   128
 71
    11
 72
   103
 73
   113
  0
VERTEX
  5
1300
330
1137
100
AcDbEntity
  8
0
 62
     7
100
AcDbFaceRecord
 10
0.0
 20
0.0
 30
0.0
 70
   128
 71
    20
 72
    11
 73
   113
  0
VERTEX
  5
1301
330
1137
100
AcDbEntity
  8
0
 62
     7
100
AcDbFaceRecord
 10
0.0
 20
0.0
 30
0.0
 70
   128
 71
    20
 72
   113
 73
    18
  0
VERTEX
  5
1302
330
1137
100
AcDbEntity
  8
0
 62
     7
100
AcDbFaceRecord
 10
0.0
 20
0.0
 30
0.0
 70
   128
 71
   114
 72
    94
 73
    91
  0
VERTEX
  5
1303
330
1137
100
AcDbEntity
  8
0
 62
     7
100
AcDbFaceRecord
 10
0.0
 20
0.0
 30
0.0
 70
   128
 71
   114
 72
   101
 73
    94
  0
VERTEX
  5
1304
330
1137
100
AcDbEntity
  8
0
 62
     7
100
AcDbFaceRecord
 10
0.0
 20
0.0
 30
0.0
 70
   128
 71
   114
 72
    15
 73
   101
  0
VERTEX
  5
1305
330
1137
100
AcDbEntity
  8
0
 62
     7
100
AcDbFaceRecord
 10
0.0
 20
0.0
 30
0.0
 70
   128
 71
    13
 72
    15
 73
   114
  0
VERTEX
  5
1306
330
1137
100
AcDbEntity
  8
0
 62
     7
100
AcDbFaceRecord
 10
0.0
 20
0.0
 30
0.0
 70
   128
 71
   115
 72
   116
 73
   117
  0
VERTEX
  5
1307
330
1137
100
AcDbEntity
  8
0
 62
     7
100
AcDbFaceRecord
 10
0.0
 20
0.0
 30
0.0
 70
   128
 71
   118
 72
   119
 73
   120
  0
VERTEX
  5
1308
330
1137
100
AcDbEntity
  8
0
 62
     7
100
AcDbFaceRecord
 10
0.0
 20
0.0
 30
0.0
 70
   128
 71
   121
 72
   122
 73
   123
  0
VERTEX
  5
1309
330
1137
100
AcDbEntity
  8
0
 62
     7
100
AcDbFaceRecord
 10
0.0
 20
0.0
 30
0.0
 70
   128
 71
    21
 72
    16
 73
   124
  0
VERTEX
  5
130A
330
1137
100
AcDbEntity
  8
0
 62
     7
100
AcDbFaceRecord
 10
0.0
 20
0.0
 30
0.0
 70
   128
 71
   125
 72
    22
 73
   126
  0
VERTEX
  5
130B
330
1137
100
AcDbEntity
  8
0
 62
     7
100
AcDbFaceRecord
 10
0.0
 20
0.0
 30
0.0
 70
   128
 71
    76
 72
   127
 73
   128
  0
VERTEX
  5
130C
330
1137
100
AcDbEntity
  8
0
 62
     7
100
AcDbFaceRecord
 10
0.0
 20
0.0
 30
0.0
 70
   128
 71
   107
 72
    76
 73
   128
  0
VERTEX
  5
130D
330
1137
100
AcDbEntity
  8
0
 62
     7
100
AcDbFaceRecord
 10
0.0
 20
0.0
 30
0.0
 70
   128
 71
    82
 72
   129
 73
   130
  0
VERTEX
  5
130E
330
1137
100
AcDbEntity
  8
0
 62
     7
100
AcDbFaceRecord
 10
0.0
 20
0.0
 30
0.0
 70
   128
 71
    78
 72
    82
 73
   130
  0
VERTEX
  5
130F
330
1137
100
AcDbEntity
  8
0
 62
     7
100
AcDbFaceRecord
 10
0.0
 20
0.0
 30
0.0
 70
   128
 71
    88
 72
   131
 73
   132
  0
VERTEX
  5
1310
330
1137
100
AcDbEntity
  8
0
 62
     7
100
AcDbFaceRecord
 10
0.0
 20
0.0
 30
0.0
 70
   128
 71
   106
 72
    88
 73
   132
  0
VERTEX
  5
1311
330
1137
100
AcDbEntity
  8
0
 62
     7
100
AcDbFaceRecord
 10
0.0
 20
0.0
 30
0.0
 70
   128
 71
   102
 72
   133
 73
   134
  0
VERTEX
  5
1312
330
1137
100
AcDbEntity
  8
0
 62
     7
100
AcDbFaceRecord
 10
0.0
 20
0.0
 30
0.0
 70
   128
 71
    90
 72
   102
 73
   134
  0
VERTEX
  5
1313
330
1137
100
AcDbEntity
  8
0
 62
     7
100
AcDbFaceRecord
 10
0.0
 20
0.0
 30
0.0
 70
   128
 71
   125
 72
   124
 73
    16
  0
VERTEX
  5
1314
330
1137
100
AcDbEntity
  8
0
 62
     7
100
AcDbFaceRecord
 10
0.0
 20
0.0
 30
0.0
 70
   128
 71
   125
 72
   133
 73
   124
  0
VERTEX
  5
1315
330
1137
100
AcDbEntity
  8
0
 62
     7
100
AcDbFaceRecord
 10
0.0
 20
0.0
 30
0.0
 70
   128
 71
     9
 72
    10
 73
   135
  0
VERTEX
  5
1316
330
1137
100
AcDbEntity
  8
0
 62
     7
100
AcDbFaceRecord
 10
0.0
 20
0.0
 30
0.0
 70
   128
 71
   131
 72
   134
 73
   122
  0
VERTEX
  5
1317
330
1137
100
AcDbEntity
  8
0
 62
     7
100
AcDbFaceRecord
 10
0.0
 20
0.0
 30
0.0
 70
   128
 71
   131
 72
    90
 73
   134
  0
VERTEX
  5
1318
330
1137
100
AcDbEntity
  8
0
 62
     7
100
AcDbFaceRecord
 10
0.0
 20
0.0
 30
0.0
 70
   128
 71
    90
 72
   131
 73
    88
  0
VERTEX
  5
1319
330
1137
100
AcDbEntity
  8
0
 62
     7
100
AcDbFaceRecord
 10
0.0
 20
0.0
 30
0.0
 70
   128
 71
   129
 72
   132
 73
   119
  0
VERTEX
  5
131A
330
1137
100
AcDbEntity
  8
0
 62
     7
100
AcDbFaceRecord
 10
0.0
 20
0.0
 30
0.0
 70
   128
 71
   129
 72
   106
 73
   132
  0
VERTEX
  5
131B
330
1137
100
AcDbEntity
  8
0
 62
     7
100
AcDbFaceRecord
 10
0.0
 20
0.0
 30
0.0
 70
   128
 71
   106
 72
   129
 73
    82
  0
VERTEX
  5
131C
330
1137
100
AcDbEntity
  8
0
 62
     7
100
AcDbFaceRecord
 10
0.0
 20
0.0
 30
0.0
 70
   128
 71
   127
 72
   130
 73
   116
  0
VERTEX
  5
131D
330
1137
100
AcDbEntity
  8
0
 62
     7
100
AcDbFaceRecord
 10
0.0
 20
0.0
 30
0.0
 70
   128
 71
   127
 72
    78
 73
   130
  0
VERTEX
  5
131E
330
1137
100
AcDbEntity
  8
0
 62
     7
100
AcDbFaceRecord
 10
0.0
 20
0.0
 30
0.0
 70
   128
 71
    78
 72
   127
 73
    76
  0
VERTEX
  5
131F
330
1137
100
AcDbEntity
  8
0
 62
     7
100
AcDbFaceRecord
 10
0.0
 20
0.0
 30
0.0
 70
   128
 71
   136
 72
   135
 73
    10
  0
VERTEX
  5
1320
330
1137
100
AcDbEntity
  8
0
 62
     7
100
AcDbFaceRecord
 10
0.0
 20
0.0
 30
0.0
 70
   128
 71
   136
 72
   137
 73
   135
  0
VERTEX
  5
1321
330
1137
100
AcDbEntity
  8
0
 62
     7
100
AcDbFaceRecord
 10
0.0
 20
0.0
 30
0.0
 70
   128
 71
   136
 72
   128
 73
   137
  0
VERTEX
  5
1322
330
1137
100
AcDbEntity
  8
0
 62
     7
100
AcDbFaceRecord
 10
0.0
 20
0.0
 30
0.0
 70
   128
 71
   136
 72
   107
 73
   128
  0
VERTEX
  5
1323
330
1137
100
AcDbEntity
  8
0
 62
     7
100
AcDbFaceRecord
 10
0.0
 20
0.0
 30
0.0
 70
   128
 71
    12
 72
   107
 73
   136
  0
VERTEX
  5
1324
330
1137
100
AcDbEntity
  8
0
 62
     7
100
AcDbFaceRecord
 10
0.0
 20
0.0
 30
0.0
 70
   128
 71
    12
 72
   136
 73
    10
  0
VERTEX
  5
1325
330
1137
100
AcDbEntity
  8
0
 62
     7
100
AcDbFaceRecord
 10
0.0
 20
0.0
 30
0.0
 70
   128
 71
     7
 72
     9
 73
   135
  0
VERTEX
  5
1326
330
1137
100
AcDbEntity
  8
0
 62
     7
100
AcDbFaceRecord
 10
0.0
 20
0.0
 30
0.0
 70
   128
 71
   138
 72
   137
 73
   139
  0
VERTEX
  5
1327
330
1137
100
AcDbEntity
  8
0
 62
     7
100
AcDbFaceRecord
 10
0.0
 20
0.0
 30
0.0
 70
   128
 71
   138
 72
   135
 73
   137
  0
VERTEX
  5
1328
330
1137
100
AcDbEntity
  8
0
 62
     7
100
AcDbFaceRecord
 10
0.0
 20
0.0
 30
0.0
 70
   128
 71
   138
 72
     7
 73
   135
  0
VERTEX
  5
1329
330
1137
100
AcDbEntity
  8
0
 62
     7
100
AcDbFaceRecord
 10
0.0
 20
0.0
 30
0.0
 70
   128
 71
    56
 72
     7
 73
   138
  0
VERTEX
  5
132A
330
1137
100
AcDbEntity
  8
0
 62
     7
100
AcDbFaceRecord
 10
0.0
 20
0.0
 30
0.0
 70
   128
 71
   140
 72
   116
 73
   115
  0
VERTEX
  5
132B
330
1137
100
AcDbEntity
  8
0
 62
     7
100
AcDbFaceRecord
 10
0.0
 20
0.0
 30
0.0
 70
   128
 71
   140
 72
   127
 73
   116
  0
VERTEX
  5
132C
330
1137
100
AcDbEntity
  8
0
 62
     7
100
AcDbFaceRecord
 10
0.0
 20
0.0
 30
0.0
 70
   128
 71
   140
 72
   128
 73
   127
  0
VERTEX
  5
132D
330
1137
100
AcDbEntity
  8
0
 62
     7
100
AcDbFaceRecord
 10
0.0
 20
0.0
 30
0.0
 70
   128
 71
   140
 72
   137
 73
   128
  0
VERTEX
  5
132E
330
1137
100
AcDbEntity
  8
0
 62
     7
100
AcDbFaceRecord
 10
0.0
 20
0.0
 30
0.0
 70
   128
 71
   140
 72
   139
 73
   137
  0
VERTEX
  5
132F
330
1137
100
AcDbEntity
  8
0
 62
     7
100
AcDbFaceRecord
 10
0.0
 20
0.0
 30
0.0
 70
   128
 71
   139
 72
   140
 73
   115
  0
VERTEX
  5
1330
330
1137
100
AcDbEntity
  8
0
 62
     7
100
AcDbFaceRecord
 10
0.0
 20
0.0
 30
0.0
 70
   128
 71
   141
 72
   119
 73
   118
  0
VERTEX
  5
1331
330
1137
100
AcDbEntity
  8
0
 62
     7
100
AcDbFaceRecord
 10
0.0
 20
0.0
 30
0.0
 70
   128
 71
   141
 72
   129
 73
   119
  0
VERTEX
  5
1332
330
1137
100
AcDbEntity
  8
0
 62
     7
100
AcDbFaceRecord
 10
0.0
 20
0.0
 30
0.0
 70
   128
 71
   141
 72
   130
 73
   129
  0
VERTEX
  5
1333
330
1137
100
AcDbEntity
  8
0
 62
     7
100
AcDbFaceRecord
 10
0.0
 20
0.0
 30
0.0
 70
   128
 71
   141
 72
   116
 73
   130
  0
VERTEX
  5
1334
330
1137
100
AcDbEntity
  8
0
 62
     7
100
AcDbFaceRecord
 10
0.0
 20
0.0
 30
0.0
 70
   128
 71
   141
 72
   117
 73
   116
  0
VERTEX
  5
1335
330
1137
100
AcDbEntity
  8
0
 62
     7
100
AcDbFaceRecord
 10
0.0
 20
0.0
 30
0.0
 70
   128
 71
   117
 72
   141
 73
   118
  0
VERTEX
  5
1336
330
1137
100
AcDbEntity
  8
0
 62
     7
100
AcDbFaceRecord
 10
0.0
 20
0.0
 30
0.0
 70
   128
 71
   142
 72
   122
 73
   121
  0
VERTEX
  5
1337
330
1137
100
AcDbEntity
  8
0
 62
     7
100
AcDbFaceRecord
 10
0.0
 20
0.0
 30
0.0
 70
   128
 71
   142
 72
   131
 73
   122
  0
VERTEX
  5
1338
330
1137
100
AcDbEntity
  8
0
 62
     7
100
AcDbFaceRecord
 10
0.0
 20
0.0
 30
0.0
 70
   128
 71
   142
 72
   132
 73
   131
  0
VERTEX
  5
1339
330
1137
100
AcDbEntity
  8
0
 62
     7
100
AcDbFaceRecord
 10
0.0
 20
0.0
 30
0.0
 70
   128
 71
   142
 72
   119
 73
   132
  0
VERTEX
  5
133A
330
1137
100
AcDbEntity
  8
0
 62
     7
100
AcDbFaceRecord
 10
0.0
 20
0.0
 30
0.0
 70
   128
 71
   142
 72
   120
 73
   119
  0
VERTEX
  5
133B
330
1137
100
AcDbEntity
  8
0
 62
     7
100
AcDbFaceRecord
 10
0.0
 20
0.0
 30
0.0
 70
   128
 71
   120
 72
   142
 73
   121
  0
VERTEX
  5
133C
330
1137
100
AcDbEntity
  8
0
 62
     7
100
AcDbFaceRecord
 10
0.0
 20
0.0
 30
0.0
 70
   128
 71
   143
 72
   125
 73
   126
  0
VERTEX
  5
133D
330
1137
100
AcDbEntity
  8
0
 62
     7
100
AcDbFaceRecord
 10
0.0
 20
0.0
 30
0.0
 70
   128
 71
   143
 72
   133
 73
   125
  0
VERTEX
  5
133E
330
1137
100
AcDbEntity
  8
0
 62
     7
100
AcDbFaceRecord
 10
0.0
 20
0.0
 30
0.0
 70
   128
 71
   143
 72
   134
 73
   133
  0
VERTEX
  5
133F
330
1137
100
AcDbEntity
  8
0
 62
     7
100
AcDbFaceRecord
 10
0.0
 20
0.0
 30
0.0
 70
   128
 71
   143
 72
   122
 73
   134
  0
VERTEX
  5
1340
330
1137
100
AcDbEntity
  8
0
 62
     7
100
AcDbFaceRecord
 10
0.0
 20
0.0
 30
0.0
 70
   128
 71
   143
 72
   123
 73
   122
  0
VERTEX
  5
1341
330
1137
100
AcDbEntity
  8
0
 62
     7
100
AcDbFaceRecord
 10
0.0
 20
0.0
 30
0.0
 70
   128
 71
   123
 72
   143
 73
   126
  0
VERTEX
  5
1342
330
1137
100
AcDbEntity
  8
0
 62
     7
100
AcDbFaceRecord
 10
0.0
 20
0.0
 30
0.0
 70
   128
 71
    23
 72
   126
 73
    22
  0
VERTEX
  5
1343
330
1137
100
AcDbEntity
  8
0
 62
     7
100
AcDbFaceRecord
 10
0.0
 20
0.0
 30
0.0
 70
   128
 71
    22
 72
   125
 73
    16
  0
VERTEX
  5
1344
330
1137
100
AcDbEntity
  8
0
 62
     7
100
AcDbFaceRecord
 10
0.0
 20
0.0
 30
0.0
 70
   128
 71
    11
 72
    21
 73
   124
  0
VERTEX
  5
1345
330
1137
100
AcDbEntity
  8
0
 62
     7
100
AcDbFaceRecord
 10
0.0
 20
0.0
 30
0.0
 70
   128
 71
   103
 72
   133
 73
   102
  0
VERTEX
  5
1346
330
1137
100
AcDbEntity
  8
0
 62
     7
100
AcDbFaceRecord
 10
0.0
 20
0.0
 30
0.0
 70
   128
 71
   103
 72
   124
 73
   133
  0
VERTEX
  5
1347
330
1137
100
AcDbEntity
  8
0
 62
     7
100
AcDbFaceRecord
 10
0.0
 20
0.0
 30
0.0
 70
   128
 71
   103
 72
    11
 73
   124
  0
VERTEX
  5
1348
330
1137
100
AcDbEntity
  8
0
 62
     7
100
AcDbFaceRecord
 10
0.0
 20
0.0
 30
0.0
 70
   128
 71
   144
 72
   126
 73
   145
  0
VERTEX
  5
1349
330
1137
100
AcDbEntity
  8
0
 62
     7
100
AcDbFaceRecord
 10
0.0
 20
0.0
 30
0.0
 70
   128
 71
   123
 72
   126
 73
   144
  0
VERTEX
  5
134A
330
1137
100
AcDbEntity
  8
0
 62
     7
100
AcDbFaceRecord
 10
0.0
 20
0.0
 30
0.0
 70
   128
 71
   146
 72
   121
 73
   147
  0
VERTEX
  5
134B
330
1137
100
AcDbEntity
  8
0
 62
     7
100
AcDbFaceRecord
 10
0.0
 20
0.0
 30
0.0
 70
   128
 71
   120
 72
   121
 73
   146
  0
VERTEX
  5
134C
330
1137
100
AcDbEntity
  8
0
 62
     7
100
AcDbFaceRecord
 10
0.0
 20
0.0
 30
0.0
 70
   128
 71
   148
 72
   118
 73
   149
  0
VERTEX
  5
134D
330
1137
100
AcDbEntity
  8
0
 62
     7
100
AcDbFaceRecord
 10
0.0
 20
0.0
 30
0.0
 70
   128
 71
   117
 72
   118
 73
   148
  0
VERTEX
  5
134E
330
1137
100
AcDbEntity
  8
0
 62
     7
100
AcDbFaceRecord
 10
0.0
 20
0.0
 30
0.0
 70
   128
 71
   150
 72
   115
 73
   151
  0
VERTEX
  5
134F
330
1137
100
AcDbEntity
  8
0
 62
     7
100
AcDbFaceRecord
 10
0.0
 20
0.0
 30
0.0
 70
   128
 71
   139
 72
   115
 73
   150
  0
VERTEX
  5
1350
330
1137
100
AcDbEntity
  8
0
 62
     7
100
AcDbFaceRecord
 10
0.0
 20
0.0
 30
0.0
 70
   128
 71
     8
 72
   138
 73
   152
  0
VERTEX
  5
1351
330
1137
100
AcDbEntity
  8
0
 62
     7
100
AcDbFaceRecord
 10
0.0
 20
0.0
 30
0.0
 70
   128
 71
    56
 72
   138
 73
     8
  0
VERTEX
  5
1352
330
1137
100
AcDbEntity
  8
0
 62
     7
100
AcDbFaceRecord
 10
0.0
 20
0.0
 30
0.0
 70
   128
 71
   139
 72
   152
 73
   138
  0
VERTEX
  5
1353
330
1137
100
AcDbEntity
  8
0
 62
     7
100
AcDbFaceRecord
 10
0.0
 20
0.0
 30
0.0
 70
   128
 71
   152
 72
   139
 73
   150
  0
VERTEX
  5
1354
330
1137
100
AcDbEntity
  8
0
 62
     7
100
AcDbFaceRecord
 10
0.0
 20
0.0
 30
0.0
 70
   128
 71
   117
 72
   151
 73
   115
  0
VERTEX
  5
1355
330
1137
100
AcDbEntity
  8
0
 62
     7
100
AcDbFaceRecord
 10
0.0
 20
0.0
 30
0.0
 70
   128
 71
   151
 72
   117
 73
   148
  0
VERTEX
  5
1356
330
1137
100
AcDbEntity
  8
0
 62
     7
100
AcDbFaceRecord
 10
0.0
 20
0.0
 30
0.0
 70
   128
 71
   120
 72
   149
 73
   118
  0
VERTEX
  5
1357
330
1137
100
AcDbEntity
  8
0
 62
     7
100
AcDbFaceRecord
 10
0.0
 20
0.0
 30
0.0
 70
   128
 71
   149
 72
   120
 73
   146
  0
VERTEX
  5
1358
330
1137
100
AcDbEntity
  8
0
 62
     7
100
AcDbFaceRecord
 10
0.0
 20
0.0
 30
0.0
 70
   128
 71
   123
 72
   147
 73
   121
  0
VERTEX
  5
1359
330
1137
100
AcDbEntity
  8
0
 62
     7
100
AcDbFaceRecord
 10
0.0
 20
0.0
 30
0.0
 70
   128
 71
   147
 72
   123
 73
   144
  0
VERTEX
  5
135A
330
1137
100
AcDbEntity
  8
0
 62
     7
100
AcDbFaceRecord
 10
0.0
 20
0.0
 30
0.0
 70
   128
 71
    23
 72
   145
 73
   126
  0
VERTEX
  5
135B
330
1137
100
AcDbEntity
  8
0
 62
     7
100
AcDbFaceRecord
 10
0.0
 20
0.0
 30
0.0
 70
   128
 71
    17
 72
   145
 73
    23
  0
VERTEX
  5
135C
330
1137
100
AcDbEntity
  8
0
 62
     7
100
AcDbFaceRecord
 10
0.0
 20
0.0
 30
0.0
 70
   128
 71
    53
 72
    54
 73
   153
  0
VERTEX
  5
135D
330
1137
100
AcDbEntity
  8
0
 62
     7
100
AcDbFaceRecord
 10
0.0
 20
0.0
 30
0.0
 70
   128
 71
    50
 72
   154
 73
    49
  0
VERTEX
  5
135E
330
1137
100
AcDbEntity
  8
0
 62
     7
100
AcDbFaceRecord
 10
0.0
 20
0.0
 30
0.0
 70
   128
 71
    46
 72
    47
 73
   155
  0
VERTEX
  5
135F
330
1137
100
AcDbEntity
  8
0
 62
     7
100
AcDbFaceRecord
 10
0.0
 20
0.0
 30
0.0
 70
   128
 71
     8
 72
   152
 73
   156
  0
VERTEX
  5
1360
330
1137
100
AcDbEntity
  8
0
 62
     7
100
AcDbFaceRecord
 10
0.0
 20
0.0
 30
0.0
 70
   128
 71
   157
 72
   158
 73
   159
  0
VERTEX
  5
1361
330
1137
100
AcDbEntity
  8
0
 62
     7
100
AcDbFaceRecord
 10
0.0
 20
0.0
 30
0.0
 70
   128
 71
   153
 72
   159
 73
   158
  0
VERTEX
  5
1362
330
1137
100
AcDbEntity
  8
0
 62
     7
100
AcDbFaceRecord
 10
0.0
 20
0.0
 30
0.0
 70
   128
 71
   160
 72
   161
 73
   162
  0
VERTEX
  5
1363
330
1137
100
AcDbEntity
  8
0
 62
     7
100
AcDbFaceRecord
 10
0.0
 20
0.0
 30
0.0
 70
   128
 71
   154
 72
   162
 73
   161
  0
VERTEX
  5
1364
330
1137
100
AcDbEntity
  8
0
 62
     7
100
AcDbFaceRecord
 10
0.0
 20
0.0
 30
0.0
 70
   128
 71
   163
 72
   164
 73
   165
  0
VERTEX
  5
1365
330
1137
100
AcDbEntity
  8
0
 62
     7
100
AcDbFaceRecord
 10
0.0
 20
0.0
 30
0.0
 70
   128
 71
   155
 72
   165
 73
   164
  0
VERTEX
  5
1366
330
1137
100
AcDbEntity
  8
0
 62
     7
100
AcDbFaceRecord
 10
0.0
 20
0.0
 30
0.0
 70
   128
 71
     5
 72
   166
 73
     1
  0
VERTEX
  5
1367
330
1137
100
AcDbEntity
  8
0
 62
     7
100
AcDbFaceRecord
 10
0.0
 20
0.0
 30
0.0
 70
   128
 71
     5
 72
   167
 73
   166
  0
VERTEX
  5
1368
330
1137
100
AcDbEntity
  8
0
 62
     7
100
AcDbFaceRecord
 10
0.0
 20
0.0
 30
0.0
 70
   128
 71
   151
 72
   168
 73
   150
  0
VERTEX
  5
1369
330
1137
100
AcDbEntity
  8
0
 62
     7
100
AcDbFaceRecord
 10
0.0
 20
0.0
 30
0.0
 70
   128
 71
   169
 72
   170
 73
   171
  0
VERTEX
  5
136A
330
1137
100
AcDbEntity
  8
0
 62
     7
100
AcDbFaceRecord
 10
0.0
 20
0.0
 30
0.0
 70
   128
 71
   172
 72
   159
 73
   156
  0
VERTEX
  5
136B
330
1137
100
AcDbEntity
  8
0
 62
     7
100
AcDbFaceRecord
 10
0.0
 20
0.0
 30
0.0
 70
   128
 71
   172
 72
   157
 73
   159
  0
VERTEX
  5
136C
330
1137
100
AcDbEntity
  8
0
 62
     7
100
AcDbFaceRecord
 10
0.0
 20
0.0
 30
0.0
 70
   128
 71
   173
 72
   157
 73
   174
  0
VERTEX
  5
136D
330
1137
100
AcDbEntity
  8
0
 62
     7
100
AcDbFaceRecord
 10
0.0
 20
0.0
 30
0.0
 70
   128
 71
   173
 72
   158
 73
   157
  0
VERTEX
  5
136E
330
1137
100
AcDbEntity
  8
0
 62
     7
100
AcDbFaceRecord
 10
0.0
 20
0.0
 30
0.0
 70
   128
 71
   173
 72
   162
 73
   158
  0
VERTEX
  5
136F
330
1137
100
AcDbEntity
  8
0
 62
     7
100
AcDbFaceRecord
 10
0.0
 20
0.0
 30
0.0
 70
   128
 71
   173
 72
   160
 73
   162
  0
VERTEX
  5
1370
330
1137
100
AcDbEntity
  8
0
 62
     7
100
AcDbFaceRecord
 10
0.0
 20
0.0
 30
0.0
 70
   128
 71
   175
 72
   157
 73
   172
  0
VERTEX
  5
1371
330
1137
100
AcDbEntity
  8
0
 62
     7
100
AcDbFaceRecord
 10
0.0
 20
0.0
 30
0.0
 70
   128
 71
   175
 72
   174
 73
   157
  0
VERTEX
  5
1372
330
1137
100
AcDbEntity
  8
0
 62
     7
100
AcDbFaceRecord
 10
0.0
 20
0.0
 30
0.0
 70
   128
 71
   176
 72
   160
 73
   177
  0
VERTEX
  5
1373
330
1137
100
AcDbEntity
  8
0
 62
     7
100
AcDbFaceRecord
 10
0.0
 20
0.0
 30
0.0
 70
   128
 71
   176
 72
   161
 73
   160
  0
VERTEX
  5
1374
330
1137
100
AcDbEntity
  8
0
 62
     7
100
AcDbFaceRecord
 10
0.0
 20
0.0
 30
0.0
 70
   128
 71
   176
 72
   165
 73
   161
  0
VERTEX
  5
1375
330
1137
100
AcDbEntity
  8
0
 62
     7
100
AcDbFaceRecord
 10
0.0
 20
0.0
 30
0.0
 70
   128
 71
   176
 72
   163
 73
   165
  0
VERTEX
  5
1376
330
1137
100
AcDbEntity
  8
0
 62
     7
100
AcDbFaceRecord
 10
0.0
 20
0.0
 30
0.0
 70
   128
 71
   178
 72
   174
 73
   179
  0
VERTEX
  5
1377
330
1137
100
AcDbEntity
  8
0
 62
     7
100
AcDbFaceRecord
 10
0.0
 20
0.0
 30
0.0
 70
   128
 71
   178
 72
   173
 73
   174
  0
VERTEX
  5
1378
330
1137
100
AcDbEntity
  8
0
 62
     7
100
AcDbFaceRecord
 10
0.0
 20
0.0
 30
0.0
 70
   128
 71
   178
 72
   160
 73
   173
  0
VERTEX
  5
1379
330
1137
100
AcDbEntity
  8
0
 62
     7
100
AcDbFaceRecord
 10
0.0
 20
0.0
 30
0.0
 70
   128
 71
   178
 72
   177
 73
   160
  0
VERTEX
  5
137A
330
1137
100
AcDbEntity
  8
0
 62
     7
100
AcDbFaceRecord
 10
0.0
 20
0.0
 30
0.0
 70
   128
 71
   180
 72
   171
 73
   170
  0
VERTEX
  5
137B
330
1137
100
AcDbEntity
  8
0
 62
     7
100
AcDbFaceRecord
 10
0.0
 20
0.0
 30
0.0
 70
   128
 71
   180
 72
   163
 73
   171
  0
VERTEX
  5
137C
330
1137
100
AcDbEntity
  8
0
 62
     7
100
AcDbFaceRecord
 10
0.0
 20
0.0
 30
0.0
 70
   128
 71
   180
 72
   164
 73
   163
  0
VERTEX
  5
137D
330
1137
100
AcDbEntity
  8
0
 62
     7
100
AcDbFaceRecord
 10
0.0
 20
0.0
 30
0.0
 70
   128
 71
   181
 72
   177
 73
   182
  0
VERTEX
  5
137E
330
1137
100
AcDbEntity
  8
0
 62
     7
100
AcDbFaceRecord
 10
0.0
 20
0.0
 30
0.0
 70
   128
 71
   181
 72
   176
 73
   177
  0
VERTEX
  5
137F
330
1137
100
AcDbEntity
  8
0
 62
     7
100
AcDbFaceRecord
 10
0.0
 20
0.0
 30
0.0
 70
   128
 71
   181
 72
   163
 73
   176
  0
VERTEX
  5
1380
330
1137
100
AcDbEntity
  8
0
 62
     7
100
AcDbFaceRecord
 10
0.0
 20
0.0
 30
0.0
 70
   128
 71
   181
 72
   171
 73
   163
  0
VERTEX
  5
1381
330
1137
100
AcDbEntity
  8
0
 62
     7
100
AcDbFaceRecord
 10
0.0
 20
0.0
 30
0.0
 70
   128
 71
   183
 72
   169
 73
   184
  0
VERTEX
  5
1382
330
1137
100
AcDbEntity
  8
0
 62
     7
100
AcDbFaceRecord
 10
0.0
 20
0.0
 30
0.0
 70
   128
 71
   185
 72
   175
 73
   172
  0
VERTEX
  5
1383
330
1137
100
AcDbEntity
  8
0
 62
     7
100
AcDbFaceRecord
 10
0.0
 20
0.0
 30
0.0
 70
   128
 71
   185
 72
   186
 73
   175
  0
VERTEX
  5
1384
330
1137
100
AcDbEntity
  8
0
 62
     7
100
AcDbFaceRecord
 10
0.0
 20
0.0
 30
0.0
 70
   128
 71
   187
 72
   175
 73
   186
  0
VERTEX
  5
1385
330
1137
100
AcDbEntity
  8
0
 62
     7
100
AcDbFaceRecord
 10
0.0
 20
0.0
 30
0.0
 70
   128
 71
   187
 72
   174
 73
   175
  0
VERTEX
  5
1386
330
1137
100
AcDbEntity
  8
0
 62
     7
100
AcDbFaceRecord
 10
0.0
 20
0.0
 30
0.0
 70
   128
 71
   187
 72
   179
 73
   174
  0
VERTEX
  5
1387
330
1137
100
AcDbEntity
  8
0
 62
     7
100
AcDbFaceRecord
 10
0.0
 20
0.0
 30
0.0
 70
   128
 71
   188
 72
   179
 73
   187
  0
VERTEX
  5
1388
330
1137
100
AcDbEntity
  8
0
 62
     7
100
AcDbFaceRecord
 10
0.0
 20
0.0
 30
0.0
 70
   128
 71
   189
 72
   178
 73
   179
  0
VERTEX
  5
1389
330
1137
100
AcDbEntity
  8
0
 62
     7
100
AcDbFaceRecord
 10
0.0
 20
0.0
 30
0.0
 70
   128
 71
   189
 72
   177
 73
   178
  0
VERTEX
  5
138A
330
1137
100
AcDbEntity
  8
0
 62
     7
100
AcDbFaceRecord
 10
0.0
 20
0.0
 30
0.0
 70
   128
 71
   189
 72
   182
 73
   177
  0
VERTEX
  5
138B
330
1137
100
AcDbEntity
  8
0
 62
     7
100
AcDbFaceRecord
 10
0.0
 20
0.0
 30
0.0
 70
   128
 71
   190
 72
   182
 73
   189
  0
VERTEX
  5
138C
330
1137
100
AcDbEntity
  8
0
 62
     7
100
AcDbFaceRecord
 10
0.0
 20
0.0
 30
0.0
 70
   128
 71
   184
 72
   181
 73
   182
  0
VERTEX
  5
138D
330
1137
100
AcDbEntity
  8
0
 62
     7
100
AcDbFaceRecord
 10
0.0
 20
0.0
 30
0.0
 70
   128
 71
   184
 72
   171
 73
   181
  0
VERTEX
  5
138E
330
1137
100
AcDbEntity
  8
0
 62
     7
100
AcDbFaceRecord
 10
0.0
 20
0.0
 30
0.0
 70
   128
 71
   184
 72
   169
 73
   171
  0
VERTEX
  5
138F
330
1137
100
AcDbEntity
  8
0
 62
     7
100
AcDbFaceRecord
 10
0.0
 20
0.0
 30
0.0
 70
   128
 71
   191
 72
   183
 73
   192
  0
VERTEX
  5
1390
330
1137
100
AcDbEntity
  8
0
 62
     7
100
AcDbFaceRecord
 10
0.0
 20
0.0
 30
0.0
 70
   128
 71
   191
 72
   169
 73
   183
  0
VERTEX
  5
1391
330
1137
100
AcDbEntity
  8
0
 62
     7
100
AcDbFaceRecord
 10
0.0
 20
0.0
 30
0.0
 70
   128
 71
   193
 72
   185
 73
   168
  0
VERTEX
  5
1392
330
1137
100
AcDbEntity
  8
0
 62
     7
100
AcDbFaceRecord
 10
0.0
 20
0.0
 30
0.0
 70
   128
 71
   193
 72
   186
 73
   185
  0
VERTEX
  5
1393
330
1137
100
AcDbEntity
  8
0
 62
     7
100
AcDbFaceRecord
 10
0.0
 20
0.0
 30
0.0
 70
   128
 71
   193
 72
   194
 73
   186
  0
VERTEX
  5
1394
330
1137
100
AcDbEntity
  8
0
 62
     7
100
AcDbFaceRecord
 10
0.0
 20
0.0
 30
0.0
 70
   128
 71
   193
 72
   195
 73
   194
  0
VERTEX
  5
1395
330
1137
100
AcDbEntity
  8
0
 62
     7
100
AcDbFaceRecord
 10
0.0
 20
0.0
 30
0.0
 70
   128
 71
   196
 72
   186
 73
   194
  0
VERTEX
  5
1396
330
1137
100
AcDbEntity
  8
0
 62
     7
100
AcDbFaceRecord
 10
0.0
 20
0.0
 30
0.0
 70
   128
 71
   196
 72
   187
 73
   186
  0
VERTEX
  5
1397
330
1137
100
AcDbEntity
  8
0
 62
     7
100
AcDbFaceRecord
 10
0.0
 20
0.0
 30
0.0
 70
   128
 71
   196
 72
   188
 73
   187
  0
VERTEX
  5
1398
330
1137
100
AcDbEntity
  8
0
 62
     7
100
AcDbFaceRecord
 10
0.0
 20
0.0
 30
0.0
 70
   128
 71
   197
 72
   196
 73
   194
  0
VERTEX
  5
1399
330
1137
100
AcDbEntity
  8
0
 62
     7
100
AcDbFaceRecord
 10
0.0
 20
0.0
 30
0.0
 70
   128
 71
   198
 72
   179
 73
   188
  0
VERTEX
  5
139A
330
1137
100
AcDbEntity
  8
0
 62
     7
100
AcDbFaceRecord
 10
0.0
 20
0.0
 30
0.0
 70
   128
 71
   198
 72
   189
 73
   179
  0
VERTEX
  5
139B
330
1137
100
AcDbEntity
  8
0
 62
     7
100
AcDbFaceRecord
 10
0.0
 20
0.0
 30
0.0
 70
   128
 71
   198
 72
   190
 73
   189
  0
VERTEX
  5
139C
330
1137
100
AcDbEntity
  8
0
 62
     7
100
AcDbFaceRecord
 10
0.0
 20
0.0
 30
0.0
 70
   128
 71
   199
 72
   198
 73
   188
  0
VERTEX
  5
139D
330
1137
100
AcDbEntity
  8
0
 62
     7
100
AcDbFaceRecord
 10
0.0
 20
0.0
 30
0.0
 70
   128
 71
   200
 72
   182
 73
   190
  0
VERTEX
  5
139E
330
1137
100
AcDbEntity
  8
0
 62
     7
100
AcDbFaceRecord
 10
0.0
 20
0.0
 30
0.0
 70
   128
 71
   200
 72
   184
 73
   182
  0
VERTEX
  5
139F
330
1137
100
AcDbEntity
  8
0
 62
     7
100
AcDbFaceRecord
 10
0.0
 20
0.0
 30
0.0
 70
   128
 71
   200
 72
   183
 73
   184
  0
VERTEX
  5
13A0
330
1137
100
AcDbEntity
  8
0
 62
     7
100
AcDbFaceRecord
 10
0.0
 20
0.0
 30
0.0
 70
   128
 71
   201
 72
   200
 73
   190
  0
VERTEX
  5
13A1
330
1137
100
AcDbEntity
  8
0
 62
     7
100
AcDbFaceRecord
 10
0.0
 20
0.0
 30
0.0
 70
   128
 71
   202
 72
   203
 73
   195
  0
VERTEX
  5
13A2
330
1137
100
AcDbEntity
  8
0
 62
     7
100
AcDbFaceRecord
 10
0.0
 20
0.0
 30
0.0
 70
   128
 71
   204
 72
   195
 73
   203
  0
VERTEX
  5
13A3
330
1137
100
AcDbEntity
  8
0
 62
     7
100
AcDbFaceRecord
 10
0.0
 20
0.0
 30
0.0
 70
   128
 71
   204
 72
   194
 73
   195
  0
VERTEX
  5
13A4
330
1137
100
AcDbEntity
  8
0
 62
     7
100
AcDbFaceRecord
 10
0.0
 20
0.0
 30
0.0
 70
   128
 71
   204
 72
   197
 73
   194
  0
VERTEX
  5
13A5
330
1137
100
AcDbEntity
  8
0
 62
     7
100
AcDbFaceRecord
 10
0.0
 20
0.0
 30
0.0
 70
   128
 71
   205
 72
   197
 73
   204
  0
VERTEX
  5
13A6
330
1137
100
AcDbEntity
  8
0
 62
     7
100
AcDbFaceRecord
 10
0.0
 20
0.0
 30
0.0
 70
   128
 71
   206
 72
   196
 73
   197
  0
VERTEX
  5
13A7
330
1137
100
AcDbEntity
  8
0
 62
     7
100
AcDbFaceRecord
 10
0.0
 20
0.0
 30
0.0
 70
   128
 71
   206
 72
   188
 73
   196
  0
VERTEX
  5
13A8
330
1137
100
AcDbEntity
  8
0
 62
     7
100
AcDbFaceRecord
 10
0.0
 20
0.0
 30
0.0
 70
   128
 71
   206
 72
   199
 73
   188
  0
VERTEX
  5
13A9
330
1137
100
AcDbEntity
  8
0
 62
     7
100
AcDbFaceRecord
 10
0.0
 20
0.0
 30
0.0
 70
   128
 71
   207
 72
   199
 73
   206
  0
VERTEX
  5
13AA
330
1137
100
AcDbEntity
  8
0
 62
     7
100
AcDbFaceRecord
 10
0.0
 20
0.0
 30
0.0
 70
   128
 71
   208
 72
   198
 73
   199
  0
VERTEX
  5
13AB
330
1137
100
AcDbEntity
  8
0
 62
     7
100
AcDbFaceRecord
 10
0.0
 20
0.0
 30
0.0
 70
   128
 71
   208
 72
   190
 73
   198
  0
VERTEX
  5
13AC
330
1137
100
AcDbEntity
  8
0
 62
     7
100
AcDbFaceRecord
 10
0.0
 20
0.0
 30
0.0
 70
   128
 71
   208
 72
   201
 73
   190
  0
VERTEX
  5
13AD
330
1137
100
AcDbEntity
  8
0
 62
     7
100
AcDbFaceRecord
 10
0.0
 20
0.0
 30
0.0
 70
   128
 71
   209
 72
   201
 73
   208
  0
VERTEX
  5
13AE
330
1137
100
AcDbEntity
  8
0
 62
     7
100
AcDbFaceRecord
 10
0.0
 20
0.0
 30
0.0
 70
   128
 71
   147
 72
   210
 73
   146
  0
VERTEX
  5
13AF
330
1137
100
AcDbEntity
  8
0
 62
     7
100
AcDbFaceRecord
 10
0.0
 20
0.0
 30
0.0
 70
   128
 71
   211
 72
   212
 73
   213
  0
VERTEX
  5
13B0
330
1137
100
AcDbEntity
  8
0
 62
     7
100
AcDbFaceRecord
 10
0.0
 20
0.0
 30
0.0
 70
   128
 71
   214
 72
   215
 73
   216
  0
VERTEX
  5
13B1
330
1137
100
AcDbEntity
  8
0
 62
     7
100
AcDbFaceRecord
 10
0.0
 20
0.0
 30
0.0
 70
   128
 71
   217
 72
   203
 73
   202
  0
VERTEX
  5
13B2
330
1137
100
AcDbEntity
  8
0
 62
     7
100
AcDbFaceRecord
 10
0.0
 20
0.0
 30
0.0
 70
   128
 71
   217
 72
   218
 73
   203
  0
VERTEX
  5
13B3
330
1137
100
AcDbEntity
  8
0
 62
     7
100
AcDbFaceRecord
 10
0.0
 20
0.0
 30
0.0
 70
   128
 71
   219
 72
   218
 73
   220
  0
VERTEX
  5
13B4
330
1137
100
AcDbEntity
  8
0
 62
     7
100
AcDbFaceRecord
 10
0.0
 20
0.0
 30
0.0
 70
   128
 71
   219
 72
   203
 73
   218
  0
VERTEX
  5
13B5
330
1137
100
AcDbEntity
  8
0
 62
     7
100
AcDbFaceRecord
 10
0.0
 20
0.0
 30
0.0
 70
   128
 71
   219
 72
   204
 73
   203
  0
VERTEX
  5
13B6
330
1137
100
AcDbEntity
  8
0
 62
     7
100
AcDbFaceRecord
 10
0.0
 20
0.0
 30
0.0
 70
   128
 71
   219
 72
   205
 73
   204
  0
VERTEX
  5
13B7
330
1137
100
AcDbEntity
  8
0
 62
     7
100
AcDbFaceRecord
 10
0.0
 20
0.0
 30
0.0
 70
   128
 71
   221
 72
   220
 73
   218
  0
VERTEX
  5
13B8
330
1137
100
AcDbEntity
  8
0
 62
     7
100
AcDbFaceRecord
 10
0.0
 20
0.0
 30
0.0
 70
   128
 71
   222
 72
   205
 73
   223
  0
VERTEX
  5
13B9
330
1137
100
AcDbEntity
  8
0
 62
     7
100
AcDbFaceRecord
 10
0.0
 20
0.0
 30
0.0
 70
   128
 71
   222
 72
   197
 73
   205
  0
VERTEX
  5
13BA
330
1137
100
AcDbEntity
  8
0
 62
     7
100
AcDbFaceRecord
 10
0.0
 20
0.0
 30
0.0
 70
   128
 71
   222
 72
   206
 73
   197
  0
VERTEX
  5
13BB
330
1137
100
AcDbEntity
  8
0
 62
     7
100
AcDbFaceRecord
 10
0.0
 20
0.0
 30
0.0
 70
   128
 71
   222
 72
   207
 73
   206
  0
VERTEX
  5
13BC
330
1137
100
AcDbEntity
  8
0
 62
     7
100
AcDbFaceRecord
 10
0.0
 20
0.0
 30
0.0
 70
   128
 71
   224
 72
   220
 73
   225
  0
VERTEX
  5
13BD
330
1137
100
AcDbEntity
  8
0
 62
     7
100
AcDbFaceRecord
 10
0.0
 20
0.0
 30
0.0
 70
   128
 71
   224
 72
   219
 73
   220
  0
VERTEX
  5
13BE
330
1137
100
AcDbEntity
  8
0
 62
     7
100
AcDbFaceRecord
 10
0.0
 20
0.0
 30
0.0
 70
   128
 71
   224
 72
   205
 73
   219
  0
VERTEX
  5
13BF
330
1137
100
AcDbEntity
  8
0
 62
     7
100
AcDbFaceRecord
 10
0.0
 20
0.0
 30
0.0
 70
   128
 71
   224
 72
   223
 73
   205
  0
VERTEX
  5
13C0
330
1137
100
AcDbEntity
  8
0
 62
     7
100
AcDbFaceRecord
 10
0.0
 20
0.0
 30
0.0
 70
   128
 71
   226
 72
   216
 73
   215
  0
VERTEX
  5
13C1
330
1137
100
AcDbEntity
  8
0
 62
     7
100
AcDbFaceRecord
 10
0.0
 20
0.0
 30
0.0
 70
   128
 71
   226
 72
   207
 73
   216
  0
VERTEX
  5
13C2
330
1137
100
AcDbEntity
  8
0
 62
     7
100
AcDbFaceRecord
 10
0.0
 20
0.0
 30
0.0
 70
   128
 71
   226
 72
   199
 73
   207
  0
VERTEX
  5
13C3
330
1137
100
AcDbEntity
  8
0
 62
     7
100
AcDbFaceRecord
 10
0.0
 20
0.0
 30
0.0
 70
   128
 71
   226
 72
   208
 73
   199
  0
VERTEX
  5
13C4
330
1137
100
AcDbEntity
  8
0
 62
     7
100
AcDbFaceRecord
 10
0.0
 20
0.0
 30
0.0
 70
   128
 71
   226
 72
   209
 73
   208
  0
VERTEX
  5
13C5
330
1137
100
AcDbEntity
  8
0
 62
     7
100
AcDbFaceRecord
 10
0.0
 20
0.0
 30
0.0
 70
   128
 71
   227
 72
   223
 73
   228
  0
VERTEX
  5
13C6
330
1137
100
AcDbEntity
  8
0
 62
     7
100
AcDbFaceRecord
 10
0.0
 20
0.0
 30
0.0
 70
   128
 71
   227
 72
   222
 73
   223
  0
VERTEX
  5
13C7
330
1137
100
AcDbEntity
  8
0
 62
     7
100
AcDbFaceRecord
 10
0.0
 20
0.0
 30
0.0
 70
   128
 71
   227
 72
   207
 73
   222
  0
VERTEX
  5
13C8
330
1137
100
AcDbEntity
  8
0
 62
     7
100
AcDbFaceRecord
 10
0.0
 20
0.0
 30
0.0
 70
   128
 71
   227
 72
   216
 73
   207
  0
VERTEX
  5
13C9
330
1137
100
AcDbEntity
  8
0
 62
     7
100
AcDbFaceRecord
 10
0.0
 20
0.0
 30
0.0
 70
   128
 71
   212
 72
   201
 73
   209
  0
VERTEX
  5
13CA
330
1137
100
AcDbEntity
  8
0
 62
     7
100
AcDbFaceRecord
 10
0.0
 20
0.0
 30
0.0
 70
   128
 71
   209
 72
   226
 73
   215
  0
VERTEX
  5
13CB
330
1137
100
AcDbEntity
  8
0
 62
     7
100
AcDbFaceRecord
 10
0.0
 20
0.0
 30
0.0
 70
   128
 71
   229
 72
   220
 73
   221
  0
VERTEX
  5
13CC
330
1137
100
AcDbEntity
  8
0
 62
     7
100
AcDbFaceRecord
 10
0.0
 20
0.0
 30
0.0
 70
   128
 71
   229
 72
   225
 73
   220
  0
VERTEX
  5
13CD
330
1137
100
AcDbEntity
  8
0
 62
     7
100
AcDbFaceRecord
 10
0.0
 20
0.0
 30
0.0
 70
   128
 71
   230
 72
   224
 73
   225
  0
VERTEX
  5
13CE
330
1137
100
AcDbEntity
  8
0
 62
     7
100
AcDbFaceRecord
 10
0.0
 20
0.0
 30
0.0
 70
   128
 71
   230
 72
   223
 73
   224
  0
VERTEX
  5
13CF
330
1137
100
AcDbEntity
  8
0
 62
     7
100
AcDbFaceRecord
 10
0.0
 20
0.0
 30
0.0
 70
   128
 71
   230
 72
   228
 73
   223
  0
VERTEX
  5
13D0
330
1137
100
AcDbEntity
  8
0
 62
     7
100
AcDbFaceRecord
 10
0.0
 20
0.0
 30
0.0
 70
   128
 71
   231
 72
   230
 73
   225
  0
VERTEX
  5
13D1
330
1137
100
AcDbEntity
  8
0
 62
     7
100
AcDbFaceRecord
 10
0.0
 20
0.0
 30
0.0
 70
   128
 71
   232
 72
   227
 73
   228
  0
VERTEX
  5
13D2
330
1137
100
AcDbEntity
  8
0
 62
     7
100
AcDbFaceRecord
 10
0.0
 20
0.0
 30
0.0
 70
   128
 71
   232
 72
   216
 73
   227
  0
VERTEX
  5
13D3
330
1137
100
AcDbEntity
  8
0
 62
     7
100
AcDbFaceRecord
 10
0.0
 20
0.0
 30
0.0
 70
   128
 71
   232
 72
   214
 73
   216
  0
VERTEX
  5
13D4
330
1137
100
AcDbEntity
  8
0
 62
     7
100
AcDbFaceRecord
 10
0.0
 20
0.0
 30
0.0
 70
   128
 71
   233
 72
   232
 73
   228
  0
VERTEX
  5
13D5
330
1137
100
AcDbEntity
  8
0
 62
     7
100
AcDbFaceRecord
 10
0.0
 20
0.0
 30
0.0
 70
   128
 71
   234
 72
   214
 73
   235
  0
VERTEX
  5
13D6
330
1137
100
AcDbEntity
  8
0
 62
     7
100
AcDbFaceRecord
 10
0.0
 20
0.0
 30
0.0
 70
   128
 71
   234
 72
   215
 73
   214
  0
VERTEX
  5
13D7
330
1137
100
AcDbEntity
  8
0
 62
     7
100
AcDbFaceRecord
 10
0.0
 20
0.0
 30
0.0
 70
   128
 71
   236
 72
   235
 73
   237
  0
VERTEX
  5
13D8
330
1137
100
AcDbEntity
  8
0
 62
     7
100
AcDbFaceRecord
 10
0.0
 20
0.0
 30
0.0
 70
   128
 71
   236
 72
   234
 73
   235
  0
VERTEX
  5
13D9
330
1137
100
AcDbEntity
  8
0
 62
     7
100
AcDbFaceRecord
 10
0.0
 20
0.0
 30
0.0
 70
   128
 71
   144
 72
   145
 73
   238
  0
VERTEX
  5
13DA
330
1137
100
AcDbEntity
  8
0
 62
     7
100
AcDbFaceRecord
 10
0.0
 20
0.0
 30
0.0
 70
   128
 71
   239
 72
   238
 73
   145
  0
VERTEX
  5
13DB
330
1137
100
AcDbEntity
  8
0
 62
     7
100
AcDbFaceRecord
 10
0.0
 20
0.0
 30
0.0
 70
   128
 71
   239
 72
   240
 73
   238
  0
VERTEX
  5
13DC
330
1137
100
AcDbEntity
  8
0
 62
     7
100
AcDbFaceRecord
 10
0.0
 20
0.0
 30
0.0
 70
   128
 71
   241
 72
   221
 73
   210
  0
VERTEX
  5
13DD
330
1137
100
AcDbEntity
  8
0
 62
     7
100
AcDbFaceRecord
 10
0.0
 20
0.0
 30
0.0
 70
   128
 71
   241
 72
   229
 73
   221
  0
VERTEX
  5
13DE
330
1137
100
AcDbEntity
  8
0
 62
     7
100
AcDbFaceRecord
 10
0.0
 20
0.0
 30
0.0
 70
   128
 71
   241
 72
   242
 73
   229
  0
VERTEX
  5
13DF
330
1137
100
AcDbEntity
  8
0
 62
     7
100
AcDbFaceRecord
 10
0.0
 20
0.0
 30
0.0
 70
   128
 71
   241
 72
   243
 73
   242
  0
VERTEX
  5
13E0
330
1137
100
AcDbEntity
  8
0
 62
     7
100
AcDbFaceRecord
 10
0.0
 20
0.0
 30
0.0
 70
   128
 71
   244
 72
   229
 73
   242
  0
VERTEX
  5
13E1
330
1137
100
AcDbEntity
  8
0
 62
     7
100
AcDbFaceRecord
 10
0.0
 20
0.0
 30
0.0
 70
   128
 71
   244
 72
   225
 73
   229
  0
VERTEX
  5
13E2
330
1137
100
AcDbEntity
  8
0
 62
     7
100
AcDbFaceRecord
 10
0.0
 20
0.0
 30
0.0
 70
   128
 71
   244
 72
   231
 73
   225
  0
VERTEX
  5
13E3
330
1137
100
AcDbEntity
  8
0
 62
     7
100
AcDbFaceRecord
 10
0.0
 20
0.0
 30
0.0
 70
   128
 71
   245
 72
   244
 73
   242
  0
VERTEX
  5
13E4
330
1137
100
AcDbEntity
  8
0
 62
     7
100
AcDbFaceRecord
 10
0.0
 20
0.0
 30
0.0
 70
   128
 71
   246
 72
   230
 73
   231
  0
VERTEX
  5
13E5
330
1137
100
AcDbEntity
  8
0
 62
     7
100
AcDbFaceRecord
 10
0.0
 20
0.0
 30
0.0
 70
   128
 71
   246
 72
   228
 73
   230
  0
VERTEX
  5
13E6
330
1137
100
AcDbEntity
  8
0
 62
     7
100
AcDbFaceRecord
 10
0.0
 20
0.0
 30
0.0
 70
   128
 71
   246
 72
   233
 73
   228
  0
VERTEX
  5
13E7
330
1137
100
AcDbEntity
  8
0
 62
     7
100
AcDbFaceRecord
 10
0.0
 20
0.0
 30
0.0
 70
   128
 71
   247
 72
   246
 73
   231
  0
VERTEX
  5
13E8
330
1137
100
AcDbEntity
  8
0
 62
     7
100
AcDbFaceRecord
 10
0.0
 20
0.0
 30
0.0
 70
   128
 71
   248
 72
   232
 73
   233
  0
VERTEX
  5
13E9
330
1137
100
AcDbEntity
  8
0
 62
     7
100
AcDbFaceRecord
 10
0.0
 20
0.0
 30
0.0
 70
   128
 71
   248
 72
   214
 73
   232
  0
VERTEX
  5
13EA
330
1137
100
AcDbEntity
  8
0
 62
     7
100
AcDbFaceRecord
 10
0.0
 20
0.0
 30
0.0
 70
   128
 71
   248
 72
   235
 73
   214
  0
VERTEX
  5
13EB
330
1137
100
AcDbEntity
  8
0
 62
     7
100
AcDbFaceRecord
 10
0.0
 20
0.0
 30
0.0
 70
   128
 71
   249
 72
   248
 73
   233
  0
VERTEX
  5
13EC
330
1137
100
AcDbEntity
  8
0
 62
     7
100
AcDbFaceRecord
 10
0.0
 20
0.0
 30
0.0
 70
   128
 71
    32
 72
    33
 73
   250
  0
VERTEX
  5
13ED
330
1137
100
AcDbEntity
  8
0
 62
     7
100
AcDbFaceRecord
 10
0.0
 20
0.0
 30
0.0
 70
   128
 71
    28
 72
   251
 73
     2
  0
VERTEX
  5
13EE
330
1137
100
AcDbEntity
  8
0
 62
     7
100
AcDbFaceRecord
 10
0.0
 20
0.0
 30
0.0
 70
   128
 71
    26
 72
    27
 73
   252
  0
VERTEX
  5
13EF
330
1137
100
AcDbEntity
  8
0
 62
     7
100
AcDbFaceRecord
 10
0.0
 20
0.0
 30
0.0
 70
   128
 71
   243
 72
   238
 73
   240
  0
VERTEX
  5
13F0
330
1137
100
AcDbEntity
  8
0
 62
     7
100
AcDbFaceRecord
 10
0.0
 20
0.0
 30
0.0
 70
   128
 71
   253
 72
   243
 73
   240
  0
VERTEX
  5
13F1
330
1137
100
AcDbEntity
  8
0
 62
     7
100
AcDbFaceRecord
 10
0.0
 20
0.0
 30
0.0
 70
   128
 71
   253
 72
   242
 73
   243
  0
VERTEX
  5
13F2
330
1137
100
AcDbEntity
  8
0
 62
     7
100
AcDbFaceRecord
 10
0.0
 20
0.0
 30
0.0
 70
   128
 71
   253
 72
   245
 73
   242
  0
VERTEX
  5
13F3
330
1137
100
AcDbEntity
  8
0
 62
     7
100
AcDbFaceRecord
 10
0.0
 20
0.0
 30
0.0
 70
   128
 71
   252
 72
   253
 73
   240
  0
VERTEX
  5
13F4
330
1137
100
AcDbEntity
  8
0
 62
     7
100
AcDbFaceRecord
 10
0.0
 20
0.0
 30
0.0
 70
   128
 71
   254
 72
   244
 73
   245
  0
VERTEX
  5
13F5
330
1137
100
AcDbEntity
  8
0
 62
     7
100
AcDbFaceRecord
 10
0.0
 20
0.0
 30
0.0
 70
   128
 71
   254
 72
   231
 73
   244
  0
VERTEX
  5
13F6
330
1137
100
AcDbEntity
  8
0
 62
     7
100
AcDbFaceRecord
 10
0.0
 20
0.0
 30
0.0
 70
   128
 71
   254
 72
   247
 73
   231
  0
VERTEX
  5
13F7
330
1137
100
AcDbEntity
  8
0
 62
     7
100
AcDbFaceRecord
 10
0.0
 20
0.0
 30
0.0
 70
   128
 71
   251
 72
   254
 73
   245
  0
VERTEX
  5
13F8
330
1137
100
AcDbEntity
  8
0
 62
     7
100
AcDbFaceRecord
 10
0.0
 20
0.0
 30
0.0
 70
   128
 71
   255
 72
   247
 73
   250
  0
VERTEX
  5
13F9
330
1137
100
AcDbEntity
  8
0
 62
     7
100
AcDbFaceRecord
 10
0.0
 20
0.0
 30
0.0
 70
   128
 71
   255
 72
   246
 73
   247
  0
VERTEX
  5
13FA
330
1137
100
AcDbEntity
  8
0
 62
     7
100
AcDbFaceRecord
 10
0.0
 20
0.0
 30
0.0
 70
   128
 71
   255
 72
   233
 73
   246
  0
VERTEX
  5
13FB
330
1137
100
AcDbEntity
  8
0
 62
     7
100
AcDbFaceRecord
 10
0.0
 20
0.0
 30
0.0
 70
   128
 71
   255
 72
   249
 73
   233
  0
VERTEX
  5
13FC
330
1137
100
AcDbEntity
  8
0
 62
     7
100
AcDbFaceRecord
 10
0.0
 20
0.0
 30
0.0
 70
   128
 71
   256
 72
   250
 73
    33
  0
VERTEX
  5
13FD
330
1137
100
AcDbEntity
  8
0
 62
     7
100
AcDbFaceRecord
 10
0.0
 20
0.0
 30
0.0
 70
   128
 71
   256
 72
   255
 73
   250
  0
VERTEX
  5
13FE
330
1137
100
AcDbEntity
  8
0
 62
     7
100
AcDbFaceRecord
 10
0.0
 20
0.0
 30
0.0
 70
   128
 71
   249
 72
   256
 73
    35
  0
VERTEX
  5
13FF
330
1137
100
AcDbEntity
  8
0
 62
     7
100
AcDbFaceRecord
 10
0.0
 20
0.0
 30
0.0
 70
   128
 71
   249
 72
   255
 73
   256
  0
VERTEX
  5
1400
330
1137
100
AcDbEntity
  8
0
 62
     7
100
AcDbFaceRecord
 10
0.0
 20
0.0
 30
0.0
 70
   128
 71
    36
 72
    37
 73
   249
  0
VERTEX
  5
1401
330
1137
100
AcDbEntity
  8
0
 62
     7
100
AcDbFaceRecord
 10
0.0
 20
0.0
 30
0.0
 70
   128
 71
   149
 72
   202
 73
   148
  0
VERTEX
  5
1402
330
1137
100
AcDbEntity
  8
0
 62
     7
100
AcDbFaceRecord
 10
0.0
 20
0.0
 30
0.0
 70
   128
 71
   149
 72
   217
 73
   202
  0
VERTEX
  5
1403
330
1137
100
AcDbEntity
  8
0
 62
     7
100
AcDbFaceRecord
 10
0.0
 20
0.0
 30
0.0
 70
   128
 71
   257
 72
   170
 73
   169
  0
VERTEX
  5
1404
330
1137
100
AcDbEntity
  8
0
 62
     7
100
AcDbFaceRecord
 10
0.0
 20
0.0
 30
0.0
 70
   128
 71
     4
 72
   258
 73
    44
  0
VERTEX
  5
1405
330
1137
100
AcDbEntity
  8
0
 62
     7
100
AcDbFaceRecord
 10
0.0
 20
0.0
 30
0.0
 70
   128
 71
    17
 72
   239
 73
   145
  0
VERTEX
  5
1406
330
1137
100
AcDbEntity
  8
0
 62
     7
100
AcDbFaceRecord
 10
0.0
 20
0.0
 30
0.0
 70
   128
 71
   259
 72
   210
 73
   147
  0
VERTEX
  5
1407
330
1137
100
AcDbEntity
  8
0
 62
     7
100
AcDbFaceRecord
 10
0.0
 20
0.0
 30
0.0
 70
   128
 71
   259
 72
   241
 73
   210
  0
VERTEX
  5
1408
330
1137
100
AcDbEntity
  8
0
 62
     7
100
AcDbFaceRecord
 10
0.0
 20
0.0
 30
0.0
 70
   128
 71
   259
 72
   243
 73
   241
  0
VERTEX
  5
1409
330
1137
100
AcDbEntity
  8
0
 62
     7
100
AcDbFaceRecord
 10
0.0
 20
0.0
 30
0.0
 70
   128
 71
   259
 72
   238
 73
   243
  0
VERTEX
  5
140A
330
1137
100
AcDbEntity
  8
0
 62
     7
100
AcDbFaceRecord
 10
0.0
 20
0.0
 30
0.0
 70
   128
 71
   259
 72
   144
 73
   238
  0
VERTEX
  5
140B
330
1137
100
AcDbEntity
  8
0
 62
     7
100
AcDbFaceRecord
 10
0.0
 20
0.0
 30
0.0
 70
   128
 71
   144
 72
   259
 73
   147
  0
VERTEX
  5
140C
330
1137
100
AcDbEntity
  8
0
 62
     7
100
AcDbFaceRecord
 10
0.0
 20
0.0
 30
0.0
 70
   128
 71
   260
 72
   217
 73
   149
  0
VERTEX
  5
140D
330
1137
100
AcDbEntity
  8
0
 62
     7
100
AcDbFaceRecord
 10
0.0
 20
0.0
 30
0.0
 70
   128
 71
   260
 72
   218
 73
   217
  0
VERTEX
  5
140E
330
1137
100
AcDbEntity
  8
0
 62
     7
100
AcDbFaceRecord
 10
0.0
 20
0.0
 30
0.0
 70
   128
 71
   260
 72
   221
 73
   218
  0
VERTEX
  5
140F
330
1137
100
AcDbEntity
  8
0
 62
     7
100
AcDbFaceRecord
 10
0.0
 20
0.0
 30
0.0
 70
   128
 71
   260
 72
   210
 73
   221
  0
VERTEX
  5
1410
330
1137
100
AcDbEntity
  8
0
 62
     7
100
AcDbFaceRecord
 10
0.0
 20
0.0
 30
0.0
 70
   128
 71
   260
 72
   146
 73
   210
  0
VERTEX
  5
1411
330
1137
100
AcDbEntity
  8
0
 62
     7
100
AcDbFaceRecord
 10
0.0
 20
0.0
 30
0.0
 70
   128
 71
   146
 72
   260
 73
   149
  0
VERTEX
  5
1412
330
1137
100
AcDbEntity
  8
0
 62
     7
100
AcDbFaceRecord
 10
0.0
 20
0.0
 30
0.0
 70
   128
 71
   261
 72
   168
 73
   151
  0
VERTEX
  5
1413
330
1137
100
AcDbEntity
  8
0
 62
     7
100
AcDbFaceRecord
 10
0.0
 20
0.0
 30
0.0
 70
   128
 71
   261
 72
   193
 73
   168
  0
VERTEX
  5
1414
330
1137
100
AcDbEntity
  8
0
 62
     7
100
AcDbFaceRecord
 10
0.0
 20
0.0
 30
0.0
 70
   128
 71
   261
 72
   195
 73
   193
  0
VERTEX
  5
1415
330
1137
100
AcDbEntity
  8
0
 62
     7
100
AcDbFaceRecord
 10
0.0
 20
0.0
 30
0.0
 70
   128
 71
   261
 72
   202
 73
   195
  0
VERTEX
  5
1416
330
1137
100
AcDbEntity
  8
0
 62
     7
100
AcDbFaceRecord
 10
0.0
 20
0.0
 30
0.0
 70
   128
 71
   261
 72
   148
 73
   202
  0
VERTEX
  5
1417
330
1137
100
AcDbEntity
  8
0
 62
     7
100
AcDbFaceRecord
 10
0.0
 20
0.0
 30
0.0
 70
   128
 71
   148
 72
   261
 73
   151
  0
VERTEX
  5
1418
330
1137
100
AcDbEntity
  8
0
 62
     7
100
AcDbFaceRecord
 10
0.0
 20
0.0
 30
0.0
 70
   128
 71
   262
 72
   156
 73
   152
  0
VERTEX
  5
1419
330
1137
100
AcDbEntity
  8
0
 62
     7
100
AcDbFaceRecord
 10
0.0
 20
0.0
 30
0.0
 70
   128
 71
   262
 72
   172
 73
   156
  0
VERTEX
  5
141A
330
1137
100
AcDbEntity
  8
0
 62
     7
100
AcDbFaceRecord
 10
0.0
 20
0.0
 30
0.0
 70
   128
 71
   262
 72
   185
 73
   172
  0
VERTEX
  5
141B
330
1137
100
AcDbEntity
  8
0
 62
     7
100
AcDbFaceRecord
 10
0.0
 20
0.0
 30
0.0
 70
   128
 71
   262
 72
   168
 73
   185
  0
VERTEX
  5
141C
330
1137
100
AcDbEntity
  8
0
 62
     7
100
AcDbFaceRecord
 10
0.0
 20
0.0
 30
0.0
 70
   128
 71
   262
 72
   150
 73
   168
  0
VERTEX
  5
141D
330
1137
100
AcDbEntity
  8
0
 62
     7
100
AcDbFaceRecord
 10
0.0
 20
0.0
 30
0.0
 70
   128
 71
   150
 72
   262
 73
   152
  0
VERTEX
  5
141E
330
1137
100
AcDbEntity
  8
0
 62
     7
100
AcDbFaceRecord
 10
0.0
 20
0.0
 30
0.0
 70
   128
 71
   263
 72
   153
 73
    54
  0
VERTEX
  5
141F
330
1137
100
AcDbEntity
  8
0
 62
     7
100
AcDbFaceRecord
 10
0.0
 20
0.0
 30
0.0
 70
   128
 71
   263
 72
   159
 73
   153
  0
VERTEX
  5
1420
330
1137
100
AcDbEntity
  8
0
 62
     7
100
AcDbFaceRecord
 10
0.0
 20
0.0
 30
0.0
 70
   128
 71
   263
 72
   156
 73
   159
  0
VERTEX
  5
1421
330
1137
100
AcDbEntity
  8
0
 62
     7
100
AcDbFaceRecord
 10
0.0
 20
0.0
 30
0.0
 70
   128
 71
   263
 72
     8
 73
   156
  0
VERTEX
  5
1422
330
1137
100
AcDbEntity
  8
0
 62
     7
100
AcDbFaceRecord
 10
0.0
 20
0.0
 30
0.0
 70
   128
 71
    55
 72
     8
 73
   263
  0
VERTEX
  5
1423
330
1137
100
AcDbEntity
  8
0
 62
     7
100
AcDbFaceRecord
 10
0.0
 20
0.0
 30
0.0
 70
   128
 71
    55
 72
   263
 73
    54
  0
VERTEX
  5
1424
330
1137
100
AcDbEntity
  8
0
 62
     7
100
AcDbFaceRecord
 10
0.0
 20
0.0
 30
0.0
 70
   128
 71
    52
 72
    53
 73
   153
  0
VERTEX
  5
1425
330
1137
100
AcDbEntity
  8
0
 62
     7
100
AcDbFaceRecord
 10
0.0
 20
0.0
 30
0.0
 70
   128
 71
   264
 72
   154
 73
    50
  0
VERTEX
  5
1426
330
1137
100
AcDbEntity
  8
0
 62
     7
100
AcDbFaceRecord
 10
0.0
 20
0.0
 30
0.0
 70
   128
 71
   264
 72
   162
 73
   154
  0
VERTEX
  5
1427
330
1137
100
AcDbEntity
  8
0
 62
     7
100
AcDbFaceRecord
 10
0.0
 20
0.0
 30
0.0
 70
   128
 71
   264
 72
   158
 73
   162
  0
VERTEX
  5
1428
330
1137
100
AcDbEntity
  8
0
 62
     7
100
AcDbFaceRecord
 10
0.0
 20
0.0
 30
0.0
 70
   128
 71
   264
 72
   153
 73
   158
  0
VERTEX
  5
1429
330
1137
100
AcDbEntity
  8
0
 62
     7
100
AcDbFaceRecord
 10
0.0
 20
0.0
 30
0.0
 70
   128
 71
   264
 72
    52
 73
   153
  0
VERTEX
  5
142A
330
1137
100
AcDbEntity
  8
0
 62
     7
100
AcDbFaceRecord
 10
0.0
 20
0.0
 30
0.0
 70
   128
 71
    51
 72
    52
 73
   264
  0
VERTEX
  5
142B
330
1137
100
AcDbEntity
  8
0
 62
     7
100
AcDbFaceRecord
 10
0.0
 20
0.0
 30
0.0
 70
   128
 71
    51
 72
   264
 73
    50
  0
VERTEX
  5
142C
330
1137
100
AcDbEntity
  8
0
 62
     7
100
AcDbFaceRecord
 10
0.0
 20
0.0
 30
0.0
 70
   128
 71
   265
 72
   155
 73
    47
  0
VERTEX
  5
142D
330
1137
100
AcDbEntity
  8
0
 62
     7
100
AcDbFaceRecord
 10
0.0
 20
0.0
 30
0.0
 70
   128
 71
   265
 72
   165
 73
   155
  0
VERTEX
  5
142E
330
1137
100
AcDbEntity
  8
0
 62
     7
100
AcDbFaceRecord
 10
0.0
 20
0.0
 30
0.0
 70
   128
 71
   265
 72
   161
 73
   165
  0
VERTEX
  5
142F
330
1137
100
AcDbEntity
  8
0
 62
     7
100
AcDbFaceRecord
 10
0.0
 20
0.0
 30
0.0
 70
   128
 71
   265
 72
   154
 73
   161
  0
VERTEX
  5
1430
330
1137
100
AcDbEntity
  8
0
 62
     7
100
AcDbFaceRecord
 10
0.0
 20
0.0
 30
0.0
 70
   128
 71
   265
 72
    49
 73
   154
  0
VERTEX
  5
1431
330
1137
100
AcDbEntity
  8
0
 62
     7
100
AcDbFaceRecord
 10
0.0
 20
0.0
 30
0.0
 70
   128
 71
    48
 72
    49
 73
   265
  0
VERTEX
  5
1432
330
1137
100
AcDbEntity
  8
0
 62
     7
100
AcDbFaceRecord
 10
0.0
 20
0.0
 30
0.0
 70
   128
 71
    48
 72
   265
 73
    47
  0
VERTEX
  5
1433
330
1137
100
AcDbEntity
  8
0
 62
     7
100
AcDbFaceRecord
 10
0.0
 20
0.0
 30
0.0
 70
   128
 71
    45
 72
    46
 73
   155
  0
VERTEX
  5
1434
330
1137
100
AcDbEntity
  8
0
 62
     7
100
AcDbFaceRecord
 10
0.0
 20
0.0
 30
0.0
 70
   128
 71
   266
 72
   155
 73
   164
  0
VERTEX
  5
1435
330
1137
100
AcDbEntity
  8
0
 62
     7
100
AcDbFaceRecord
 10
0.0
 20
0.0
 30
0.0
 70
   128
 71
   266
 72
    45
 73
   155
  0
VERTEX
  5
1436
330
1137
100
AcDbEntity
  8
0
 62
     7
100
AcDbFaceRecord
 10
0.0
 20
0.0
 30
0.0
 70
   128
 71
     6
 72
    45
 73
   266
  0
VERTEX
  5
1437
330
1137
100
AcDbEntity
  8
0
 62
     7
100
AcDbFaceRecord
 10
0.0
 20
0.0
 30
0.0
 70
   128
 71
     4
 72
     6
 73
   266
  0
VERTEX
  5
1438
330
1137
100
AcDbEntity
  8
0
 62
     7
100
AcDbFaceRecord
 10
0.0
 20
0.0
 30
0.0
 70
   128
 71
   167
 72
   164
 73
   180
  0
VERTEX
  5
1439
330
1137
100
AcDbEntity
  8
0
 62
     7
100
AcDbFaceRecord
 10
0.0
 20
0.0
 30
0.0
 70
   128
 71
   167
 72
   266
 73
   164
  0
VERTEX
  5
143A
330
1137
100
AcDbEntity
  8
0
 62
     7
100
AcDbFaceRecord
 10
0.0
 20
0.0
 30
0.0
 70
   128
 71
   167
 72
     4
 73
   266
  0
VERTEX
  5
143B
330
1137
100
AcDbEntity
  8
0
 62
     7
100
AcDbFaceRecord
 10
0.0
 20
0.0
 30
0.0
 70
   128
 71
   167
 72
   258
 73
     4
  0
VERTEX
  5
143C
330
1137
100
AcDbEntity
  8
0
 62
     7
100
AcDbFaceRecord
 10
0.0
 20
0.0
 30
0.0
 70
   128
 71
   167
 72
    44
 73
   258
  0
VERTEX
  5
143D
330
1137
100
AcDbEntity
  8
0
 62
     7
100
AcDbFaceRecord
 10
0.0
 20
0.0
 30
0.0
 70
   128
 71
    44
 72
   167
 73
     5
  0
VERTEX
  5
143E
330
1137
100
AcDbEntity
  8
0
 62
     7
100
AcDbFaceRecord
 10
0.0
 20
0.0
 30
0.0
 70
   128
 71
   267
 72
     1
 73
   166
  0
VERTEX
  5
143F
330
1137
100
AcDbEntity
  8
0
 62
     7
100
AcDbFaceRecord
 10
0.0
 20
0.0
 30
0.0
 70
   128
 71
   268
 72
   170
 73
   257
  0
VERTEX
  5
1440
330
1137
100
AcDbEntity
  8
0
 62
     7
100
AcDbFaceRecord
 10
0.0
 20
0.0
 30
0.0
 70
   128
 71
   268
 72
   180
 73
   170
  0
VERTEX
  5
1441
330
1137
100
AcDbEntity
  8
0
 62
     7
100
AcDbFaceRecord
 10
0.0
 20
0.0
 30
0.0
 70
   128
 71
   268
 72
   167
 73
   180
  0
VERTEX
  5
1442
330
1137
100
AcDbEntity
  8
0
 62
     7
100
AcDbFaceRecord
 10
0.0
 20
0.0
 30
0.0
 70
   128
 71
   268
 72
   166
 73
   167
  0
VERTEX
  5
1443
330
1137
100
AcDbEntity
  8
0
 62
     7
100
AcDbFaceRecord
 10
0.0
 20
0.0
 30
0.0
 70
   128
 71
   268
 72
   267
 73
   166
  0
VERTEX
  5
1444
330
1137
100
AcDbEntity
  8
0
 62
     7
100
AcDbFaceRecord
 10
0.0
 20
0.0
 30
0.0
 70
   128
 71
   267
 72
   268
 73
   257
  0
VERTEX
  5
1445
330
1137
100
AcDbEntity
  8
0
 62
     7
100
AcDbFaceRecord
 10
0.0
 20
0.0
 30
0.0
 70
   128
 71
   257
 72
   169
 73
   191
  0
VERTEX
  5
1446
330
1137
100
AcDbEntity
  8
0
 62
     7
100
AcDbFaceRecord
 10
0.0
 20
0.0
 30
0.0
 70
   128
 71
   269
 72
   212
 73
   211
  0
VERTEX
  5
1447
330
1137
100
AcDbEntity
  8
0
 62
     7
100
AcDbFaceRecord
 10
0.0
 20
0.0
 30
0.0
 70
   128
 71
   269
 72
   201
 73
   212
  0
VERTEX
  5
1448
330
1137
100
AcDbEntity
  8
0
 62
     7
100
AcDbFaceRecord
 10
0.0
 20
0.0
 30
0.0
 70
   128
 71
   269
 72
   200
 73
   201
  0
VERTEX
  5
1449
330
1137
100
AcDbEntity
  8
0
 62
     7
100
AcDbFaceRecord
 10
0.0
 20
0.0
 30
0.0
 70
   128
 71
   269
 72
   183
 73
   200
  0
VERTEX
  5
144A
330
1137
100
AcDbEntity
  8
0
 62
     7
100
AcDbFaceRecord
 10
0.0
 20
0.0
 30
0.0
 70
   128
 71
   269
 72
   192
 73
   183
  0
VERTEX
  5
144B
330
1137
100
AcDbEntity
  8
0
 62
     7
100
AcDbFaceRecord
 10
0.0
 20
0.0
 30
0.0
 70
   128
 71
   192
 72
   269
 73
   211
  0
VERTEX
  5
144C
330
1137
100
AcDbEntity
  8
0
 62
     7
100
AcDbFaceRecord
 10
0.0
 20
0.0
 30
0.0
 70
   128
 71
   270
 72
   234
 73
   236
  0
VERTEX
  5
144D
330
1137
100
AcDbEntity
  8
0
 62
     7
100
AcDbFaceRecord
 10
0.0
 20
0.0
 30
0.0
 70
   128
 71
   270
 72
   215
 73
   234
  0
VERTEX
  5
144E
330
1137
100
AcDbEntity
  8
0
 62
     7
100
AcDbFaceRecord
 10
0.0
 20
0.0
 30
0.0
 70
   128
 71
   270
 72
   209
 73
   215
  0
VERTEX
  5
144F
330
1137
100
AcDbEntity
  8
0
 62
     7
100
AcDbFaceRecord
 10
0.0
 20
0.0
 30
0.0
 70
   128
 71
   270
 72
   212
 73
   209
  0
VERTEX
  5
1450
330
1137
100
AcDbEntity
  8
0
 62
     7
100
AcDbFaceRecord
 10
0.0
 20
0.0
 30
0.0
 70
   128
 71
   270
 72
   213
 73
   212
  0
VERTEX
  5
1451
330
1137
100
AcDbEntity
  8
0
 62
     7
100
AcDbFaceRecord
 10
0.0
 20
0.0
 30
0.0
 70
   128
 71
   213
 72
   270
 73
   236
  0
VERTEX
  5
1452
330
1137
100
AcDbEntity
  8
0
 62
     7
100
AcDbFaceRecord
 10
0.0
 20
0.0
 30
0.0
 70
   128
 71
   271
 72
   249
 73
    37
  0
VERTEX
  5
1453
330
1137
100
AcDbEntity
  8
0
 62
     7
100
AcDbFaceRecord
 10
0.0
 20
0.0
 30
0.0
 70
   128
 71
   271
 72
   248
 73
   249
  0
VERTEX
  5
1454
330
1137
100
AcDbEntity
  8
0
 62
     7
100
AcDbFaceRecord
 10
0.0
 20
0.0
 30
0.0
 70
   128
 71
   271
 72
   235
 73
   248
  0
VERTEX
  5
1455
330
1137
100
AcDbEntity
  8
0
 62
     7
100
AcDbFaceRecord
 10
0.0
 20
0.0
 30
0.0
 70
   128
 71
   271
 72
   237
 73
   235
  0
VERTEX
  5
1456
330
1137
100
AcDbEntity
  8
0
 62
     7
100
AcDbFaceRecord
 10
0.0
 20
0.0
 30
0.0
 70
   128
 71
    29
 72
   237
 73
   271
  0
VERTEX
  5
1457
330
1137
100
AcDbEntity
  8
0
 62
     7
100
AcDbFaceRecord
 10
0.0
 20
0.0
 30
0.0
 70
   128
 71
    29
 72
   271
 73
    37
  0
VERTEX
  5
1458
330
1137
100
AcDbEntity
  8
0
 62
     7
100
AcDbFaceRecord
 10
0.0
 20
0.0
 30
0.0
 70
   128
 71
   272
 72
   249
 73
    35
  0
VERTEX
  5
1459
330
1137
100
AcDbEntity
  8
0
 62
     7
100
AcDbFaceRecord
 10
0.0
 20
0.0
 30
0.0
 70
   128
 71
   272
 72
    36
 73
   249
  0
VERTEX
  5
145A
330
1137
100
AcDbEntity
  8
0
 62
     7
100
AcDbFaceRecord
 10
0.0
 20
0.0
 30
0.0
 70
   128
 71
    36
 72
   272
 73
    35
  0
VERTEX
  5
145B
330
1137
100
AcDbEntity
  8
0
 62
     7
100
AcDbFaceRecord
 10
0.0
 20
0.0
 30
0.0
 70
   128
 71
    34
 72
    35
 73
   256
  0
VERTEX
  5
145C
330
1137
100
AcDbEntity
  8
0
 62
     7
100
AcDbFaceRecord
 10
0.0
 20
0.0
 30
0.0
 70
   128
 71
    34
 72
   256
 73
    33
  0
VERTEX
  5
145D
330
1137
100
AcDbEntity
  8
0
 62
     7
100
AcDbFaceRecord
 10
0.0
 20
0.0
 30
0.0
 70
   128
 71
    31
 72
    32
 73
   250
  0
VERTEX
  5
145E
330
1137
100
AcDbEntity
  8
0
 62
     7
100
AcDbFaceRecord
 10
0.0
 20
0.0
 30
0.0
 70
   128
 71
   273
 72
   251
 73
    28
  0
VERTEX
  5
145F
330
1137
100
AcDbEntity
  8
0
 62
     7
100
AcDbFaceRecord
 10
0.0
 20
0.0
 30
0.0
 70
   128
 71
   273
 72
   254
 73
   251
  0
VERTEX
  5
1460
330
1137
100
AcDbEntity
  8
0
 62
     7
100
AcDbFaceRecord
 10
0.0
 20
0.0
 30
0.0
 70
   128
 71
   273
 72
   247
 73
   254
  0
VERTEX
  5
1461
330
1137
100
AcDbEntity
  8
0
 62
     7
100
AcDbFaceRecord
 10
0.0
 20
0.0
 30
0.0
 70
   128
 71
   273
 72
   250
 73
   247
  0
VERTEX
  5
1462
330
1137
100
AcDbEntity
  8
0
 62
     7
100
AcDbFaceRecord
 10
0.0
 20
0.0
 30
0.0
 70
   128
 71
   273
 72
    31
 73
   250
  0
VERTEX
  5
1463
330
1137
100
AcDbEntity
  8
0
 62
     7
100
AcDbFaceRecord
 10
0.0
 20
0.0
 30
0.0
 70
   128
 71
    30
 72
    31
 73
   273
  0
VERTEX
  5
1464
330
1137
100
AcDbEntity
  8
0
 62
     7
100
AcDbFaceRecord
 10
0.0
 20
0.0
 30
0.0
 70
   128
 71
    30
 72
   273
 73
    28
  0
VERTEX
  5
1465
330
1137
100
AcDbEntity
  8
0
 62
     7
100
AcDbFaceRecord
 10
0.0
 20
0.0
 30
0.0
 70
   128
 71
   274
 72
   252
 73
    27
  0
VERTEX
  5
1466
330
1137
100
AcDbEntity
  8
0
 62
     7
100
AcDbFaceRecord
 10
0.0
 20
0.0
 30
0.0
 70
   128
 71
   274
 72
   253
 73
   252
  0
VERTEX
  5
1467
330
1137
100
AcDbEntity
  8
0
 62
     7
100
AcDbFaceRecord
 10
0.0
 20
0.0
 30
0.0
 70
   128
 71
   274
 72
   245
 73
   253
  0
VERTEX
  5
1468
330
1137
100
AcDbEntity
  8
0
 62
     7
100
AcDbFaceRecord
 10
0.0
 20
0.0
 30
0.0
 70
   128
 71
   274
 72
   251
 73
   245
  0
VERTEX
  5
1469
330
1137
100
AcDbEntity
  8
0
 62
     7
100
AcDbFaceRecord
 10
0.0
 20
0.0
 30
0.0
 70
   128
 71
   274
 72
     2
 73
   251
  0
VERTEX
  5
146A
330
1137
100
AcDbEntity
  8
0
 62
     7
100
AcDbFaceRecord
 10
0.0
 20
0.0
 30
0.0
 70
   128
 71
     3
 72
     2
 73
   274
  0
VERTEX
  5
146B
330
1137
100
AcDbEntity
  8
0
 62
     7
100
AcDbFaceRecord
 10
0.0
 20
0.0
 30
0.0
 70
   128
 71
     3
 72
   274
 73
    27
  0
VERTEX
  5
146C
330
1137
100
AcDbEntity
  8
0
 62
     7
100
AcDbFaceRecord
 10
0.0
 20
0.0
 30
0.0
 70
   128
 71
    24
 72
    26
 73
   252
  0
VERTEX
  5
146D
330
1137
100
AcDbEntity
  8
0
 62
     7
100
AcDbFaceRecord
 10
0.0
 20
0.0
 30
0.0
 70
   128
 71
   275
 72
   239
 73
    17
  0
VERTEX
  5
146E
330
1137
100
AcDbEntity
  8
0
 62
     7
100
AcDbFaceRecord
 10
0.0
 20
0.0
 30
0.0
 70
   128
 71
   275
 72
   240
 73
   239
  0
VERTEX
  5
146F
330
1137
100
AcDbEntity
  8
0
 62
     7
100
AcDbFaceRecord
 10
0.0
 20
0.0
 30
0.0
 70
   128
 71
   275
 72
   252
 73
   240
  0
VERTEX
  5
1470
330
1137
100
AcDbEntity
  8
0
 62
     7
100
AcDbFaceRecord
 10
0.0
 20
0.0
 30
0.0
 70
   128
 71
   275
 72
    24
 73
   252
  0
VERTEX
  5
1471
330
1137
100
AcDbEntity
  8
0
 62
     7
100
AcDbFaceRecord
 10
0.0
 20
0.0
 30
0.0
 70
   128
 71
    25
 72
    24
 73
   275
  0
VERTEX
  5
1472
330
1137
100
AcDbEntity
  8
0
 62
     7
100
AcDbFaceRecord
 10
0.0
 20
0.0
 30
0.0
 70
   128
 71
    25
 72
   275
 73
    17
  0
VERTEX
  5
1473
330
1137
100
AcDbEntity
  8
0
 62
     7
100
AcDbFaceRecord
 10
0.0
 20
0.0
 30
0.0
 70
   128
 71
   257
 72
   191
 73
   276
  0
VERTEX
  5
1474
330
1137
100
AcDbEntity
  8
0
 62
     7
100
AcDbFaceRecord
 10
0.0
 20
0.0
 30
0.0
 70
   128
 71
   277
 72
   276
 73
   191
  0
VERTEX
  5
1475
330
1137
100
AcDbEntity
  8
0
 62
     7
100
AcDbFaceRecord
 10
0.0
 20
0.0
 30
0.0
 70
   128
 71
   277
 72
   278
 73
   276
  0
VERTEX
  5
1476
330
1137
100
AcDbEntity
  8
0
 62
     7
100
AcDbFaceRecord
 10
0.0
 20
0.0
 30
0.0
 70
   128
 71
    63
 72
   278
 73
    67
  0
VERTEX
  5
1477
330
1137
100
AcDbEntity
  8
0
 62
     7
100
AcDbFaceRecord
 10
0.0
 20
0.0
 30
0.0
 70
   128
 71
   279
 72
   278
 73
    63
  0
VERTEX
  5
1478
330
1137
100
AcDbEntity
  8
0
 62
     7
100
AcDbFaceRecord
 10
0.0
 20
0.0
 30
0.0
 70
   128
 71
   279
 72
   276
 73
   278
  0
VERTEX
  5
1479
330
1137
100
AcDbEntity
  8
0
 62
     7
100
AcDbFaceRecord
 10
0.0
 20
0.0
 30
0.0
 70
   128
 71
   192
 72
   211
 73
   280
  0
VERTEX
  5
147A
330
1137
100
AcDbEntity
  8
0
 62
     7
100
AcDbFaceRecord
 10
0.0
 20
0.0
 30
0.0
 70
   128
 71
   281
 72
   282
 73
   213
  0
VERTEX
  5
147B
330
1137
100
AcDbEntity
  8
0
 62
     7
100
AcDbFaceRecord
 10
0.0
 20
0.0
 30
0.0
 70
   128
 71
   281
 72
   283
 73
   282
  0
VERTEX
  5
147C
330
1137
100
AcDbEntity
  8
0
 62
     7
100
AcDbFaceRecord
 10
0.0
 20
0.0
 30
0.0
 70
   128
 71
    64
 72
   283
 73
    68
  0
VERTEX
  5
147D
330
1137
100
AcDbEntity
  8
0
 62
     7
100
AcDbFaceRecord
 10
0.0
 20
0.0
 30
0.0
 70
   128
 71
   284
 72
   283
 73
    64
  0
VERTEX
  5
147E
330
1137
100
AcDbEntity
  8
0
 62
     7
100
AcDbFaceRecord
 10
0.0
 20
0.0
 30
0.0
 70
   128
 71
   284
 72
   282
 73
   283
  0
VERTEX
  5
147F
330
1137
100
AcDbEntity
  8
0
 62
     7
100
AcDbFaceRecord
 10
0.0
 20
0.0
 30
0.0
 70
   128
 71
    40
 72
   285
 73
    38
  0
VERTEX
  5
1480
330
1137
100
AcDbEntity
  8
0
 62
     7
100
AcDbFaceRecord
 10
0.0
 20
0.0
 30
0.0
 70
   128
 71
    40
 72
   286
 73
   285
  0
VERTEX
  5
1481
330
1137
100
AcDbEntity
  8
0
 62
     7
100
AcDbFaceRecord
 10
0.0
 20
0.0
 30
0.0
 70
   128
 71
   287
 72
   280
 73
   211
  0
VERTEX
  5
1482
330
1137
100
AcDbEntity
  8
0
 62
     7
100
AcDbFaceRecord
 10
0.0
 20
0.0
 30
0.0
 70
   128
 71
   287
 72
   288
 73
   280
  0
VERTEX
  5
1483
330
1137
100
AcDbEntity
  8
0
 62
     7
100
AcDbFaceRecord
 10
0.0
 20
0.0
 30
0.0
 70
   128
 71
   287
 72
   284
 73
   288
  0
VERTEX
  5
1484
330
1137
100
AcDbEntity
  8
0
 62
     7
100
AcDbFaceRecord
 10
0.0
 20
0.0
 30
0.0
 70
   128
 71
   287
 72
   282
 73
   284
  0
VERTEX
  5
1485
330
1137
100
AcDbEntity
  8
0
 62
     7
100
AcDbFaceRecord
 10
0.0
 20
0.0
 30
0.0
 70
   128
 71
   287
 72
   213
 73
   282
  0
VERTEX
  5
1486
330
1137
100
AcDbEntity
  8
0
 62
     7
100
AcDbFaceRecord
 10
0.0
 20
0.0
 30
0.0
 70
   128
 71
    66
 72
   288
 73
   284
  0
VERTEX
  5
1487
330
1137
100
AcDbEntity
  8
0
 62
     7
100
AcDbFaceRecord
 10
0.0
 20
0.0
 30
0.0
 70
   128
 71
   279
 72
    65
 73
   289
  0
VERTEX
  5
1488
330
1137
100
AcDbEntity
  8
0
 62
     7
100
AcDbFaceRecord
 10
0.0
 20
0.0
 30
0.0
 70
   128
 71
   290
 72
     1
 73
   267
  0
VERTEX
  5
1489
330
1137
100
AcDbEntity
  8
0
 62
     7
100
AcDbFaceRecord
 10
0.0
 20
0.0
 30
0.0
 70
   128
 71
   281
 72
   236
 73
   286
  0
VERTEX
  5
148A
330
1137
100
AcDbEntity
  8
0
 62
     7
100
AcDbFaceRecord
 10
0.0
 20
0.0
 30
0.0
 70
   128
 71
   236
 72
   281
 73
   213
  0
VERTEX
  5
148B
330
1137
100
AcDbEntity
  8
0
 62
     7
100
AcDbFaceRecord
 10
0.0
 20
0.0
 30
0.0
 70
   128
 71
   213
 72
   287
 73
   211
  0
VERTEX
  5
148C
330
1137
100
AcDbEntity
  8
0
 62
     7
100
AcDbFaceRecord
 10
0.0
 20
0.0
 30
0.0
 70
   128
 71
   277
 72
   192
 73
   280
  0
VERTEX
  5
148D
330
1137
100
AcDbEntity
  8
0
 62
     7
100
AcDbFaceRecord
 10
0.0
 20
0.0
 30
0.0
 70
   128
 71
   192
 72
   277
 73
   191
  0
VERTEX
  5
148E
330
1137
100
AcDbEntity
  8
0
 62
     7
100
AcDbFaceRecord
 10
0.0
 20
0.0
 30
0.0
 70
   128
 71
   291
 72
   290
 73
   267
  0
VERTEX
  5
148F
330
1137
100
AcDbEntity
  8
0
 62
     7
100
AcDbFaceRecord
 10
0.0
 20
0.0
 30
0.0
 70
   128
 71
   291
 72
   289
 73
   290
  0
VERTEX
  5
1490
330
1137
100
AcDbEntity
  8
0
 62
     7
100
AcDbFaceRecord
 10
0.0
 20
0.0
 30
0.0
 70
   128
 71
   291
 72
   279
 73
   289
  0
VERTEX
  5
1491
330
1137
100
AcDbEntity
  8
0
 62
     7
100
AcDbFaceRecord
 10
0.0
 20
0.0
 30
0.0
 70
   128
 71
   291
 72
   276
 73
   279
  0
VERTEX
  5
1492
330
1137
100
AcDbEntity
  8
0
 62
     7
100
AcDbFaceRecord
 10
0.0
 20
0.0
 30
0.0
 70
   128
 71
   291
 72
   257
 73
   276
  0
VERTEX
  5
1493
330
1137
100
AcDbEntity
  8
0
 62
     7
100
AcDbFaceRecord
 10
0.0
 20
0.0
 30
0.0
 70
   128
 71
   257
 72
   291
 73
   267
  0
VERTEX
  5
1494
330
1137
100
AcDbEntity
  8
0
 62
     7
100
AcDbFaceRecord
 10
0.0
 20
0.0
 30
0.0
 70
   128
 71
    41
 72
     1
 73
   290
  0
VERTEX
  5
1495
330
1137
100
AcDbEntity
  8
0
 62
     7
100
AcDbFaceRecord
 10
0.0
 20
0.0
 30
0.0
 70
   128
 71
   292
 72
   289
 73
    65
  0
VERTEX
  5
1496
330
1137
100
AcDbEntity
  8
0
 62
     7
100
AcDbFaceRecord
 10
0.0
 20
0.0
 30
0.0
 70
   128
 71
   292
 72
   290
 73
   289
  0
VERTEX
  5
1497
330
1137
100
AcDbEntity
  8
0
 62
     7
100
AcDbFaceRecord
 10
0.0
 20
0.0
 30
0.0
 70
   128
 71
   292
 72
    41
 73
   290
  0
VERTEX
  5
1498
330
1137
100
AcDbEntity
  8
0
 62
     7
100
AcDbFaceRecord
 10
0.0
 20
0.0
 30
0.0
 70
   128
 71
    39
 72
    41
 73
   292
  0
VERTEX
  5
1499
330
1137
100
AcDbEntity
  8
0
 62
     7
100
AcDbFaceRecord
 10
0.0
 20
0.0
 30
0.0
 70
   128
 71
    43
 72
    39
 73
   292
  0
VERTEX
  5
149A
330
1137
100
AcDbEntity
  8
0
 62
     7
100
AcDbFaceRecord
 10
0.0
 20
0.0
 30
0.0
 70
   128
 71
    43
 72
   292
 73
    65
  0
VERTEX
  5
149B
330
1137
100
AcDbEntity
  8
0
 62
     7
100
AcDbFaceRecord
 10
0.0
 20
0.0
 30
0.0
 70
   128
 71
    65
 72
   279
 73
    63
  0
VERTEX
  5
149C
330
1137
100
AcDbEntity
  8
0
 62
     7
100
AcDbFaceRecord
 10
0.0
 20
0.0
 30
0.0
 70
   128
 71
   293
 72
   288
 73
    66
  0
VERTEX
  5
149D
330
1137
100
AcDbEntity
  8
0
 62
     7
100
AcDbFaceRecord
 10
0.0
 20
0.0
 30
0.0
 70
   128
 71
   293
 72
   280
 73
   288
  0
VERTEX
  5
149E
330
1137
100
AcDbEntity
  8
0
 62
     7
100
AcDbFaceRecord
 10
0.0
 20
0.0
 30
0.0
 70
   128
 71
   293
 72
   277
 73
   280
  0
VERTEX
  5
149F
330
1137
100
AcDbEntity
  8
0
 62
     7
100
AcDbFaceRecord
 10
0.0
 20
0.0
 30
0.0
 70
   128
 71
   293
 72
   278
 73
   277
  0
VERTEX
  5
14A0
330
1137
100
AcDbEntity
  8
0
 62
     7
100
AcDbFaceRecord
 10
0.0
 20
0.0
 30
0.0
 70
   128
 71
   293
 72
    67
 73
   278
  0
VERTEX
  5
14A1
330
1137
100
AcDbEntity
  8
0
 62
     7
100
AcDbFaceRecord
 10
0.0
 20
0.0
 30
0.0
 70
   128
 71
    67
 72
   293
 73
    66
  0
VERTEX
  5
14A2
330
1137
100
AcDbEntity
  8
0
 62
     7
100
AcDbFaceRecord
 10
0.0
 20
0.0
 30
0.0
 70
   128
 71
    66
 72
   284
 73
    64
  0
VERTEX
  5
14A3
330
1137
100
AcDbEntity
  8
0
 62
     7
100
AcDbFaceRecord
 10
0.0
 20
0.0
 30
0.0
 70
   128
 71
   294
 72
   286
 73
    40
  0
VERTEX
  5
14A4
330
1137
100
AcDbEntity
  8
0
 62
     7
100
AcDbFaceRecord
 10
0.0
 20
0.0
 30
0.0
 70
   128
 71
   294
 72
   281
 73
   286
  0
VERTEX
  5
14A5
330
1137
100
AcDbEntity
  8
0
 62
     7
100
AcDbFaceRecord
 10
0.0
 20
0.0
 30
0.0
 70
   128
 71
   294
 72
   283
 73
   281
  0
VERTEX
  5
14A6
330
1137
100
AcDbEntity
  8
0
 62
     7
100
AcDbFaceRecord
 10
0.0
 20
0.0
 30
0.0
 70
   128
 71
   294
 72
    68
 73
   283
  0
VERTEX
  5
14A7
330
1137
100
AcDbEntity
  8
0
 62
     7
100
AcDbFaceRecord
 10
0.0
 20
0.0
 30
0.0
 70
   128
 71
    42
 72
    68
 73
   294
  0
VERTEX
  5
14A8
330
1137
100
AcDbEntity
  8
0
 62
     7
100
AcDbFaceRecord
 10
0.0
 20
0.0
 30
0.0
 70
   128
 71
    42
 72
   294
 73
    40
  0
VERTEX
  5
14A9
330
1137
100
AcDbEntity
  8
0
 62
     7
100
AcDbFaceRecord
 10
0.0
 20
0.0
 30
0.0
 70
   128
 71
    29
 72
    38
 73
   285
  0
VERTEX
  5
14AA
330
1137
100
AcDbEntity
  8
0
 62
     7
100
AcDbFaceRecord
 10
0.0
 20
0.0
 30
0.0
 70
   128
 71
   237
 72
   286
 73
   236
  0
VERTEX
  5
14AB
330
1137
100
AcDbEntity
  8
0
 62
     7
100
AcDbFaceRecord
 10
0.0
 20
0.0
 30
0.0
 70
   128
 71
   237
 72
   285
 73
   286
  0
VERTEX
  5
14AC
330
1137
100
AcDbEntity
  8
0
 62
     7
100
AcDbFaceRecord
 10
0.0
 20
0.0
 30
0.0
 70
   128
 71
   237
 72
    29
 73
   285
  0
VERTEX
  5
14AD
330
1137
100
AcDbEntity
  8
0
 62
     7
100
AcDbFaceRecord
 10
0.0
 20
0.0
 30
0.0
 70
   128
 71
   295
 72
   296
 73
   297
  0
VERTEX
  5
14AE
330
1137
100
AcDbEntity
  8
0
 62
     7
100
AcDbFaceRecord
 10
0.0
 20
0.0
 30
0.0
 70
   128
 71
   298
 72
   296
 73
   295
  0
VERTEX
  5
14AF
330
1137
100
AcDbEntity
  8
0
 62
     7
100
AcDbFaceRecord
 10
0.0
 20
0.0
 30
0.0
 70
   128
 71
   299
 72
   300
 73
   301
  0
VERTEX
  5
14B0
330
1137
100
AcDbEntity
  8
0
 62
     7
100
AcDbFaceRecord
 10
0.0
 20
0.0
 30
0.0
 70
   128
 71
   302
 72
   300
 73
   299
  0
VERTEX
  5
14B1
330
1137
100
AcDbEntity
  8
0
 62
     7
100
AcDbFaceRecord
 10
0.0
 20
0.0
 30
0.0
 70
   128
 71
   303
 72
   304
 73
   302
  0
VERTEX
  5
14B2
330
1137
100
AcDbEntity
  8
0
 62
     7
100
AcDbFaceRecord
 10
0.0
 20
0.0
 30
0.0
 70
   128
 71
   303
 72
   302
 73
   299
  0
VERTEX
  5
14B3
330
1137
100
AcDbEntity
  8
0
 62
     7
100
AcDbFaceRecord
 10
0.0
 20
0.0
 30
0.0
 70
   128
 71
   298
 72
   301
 73
   300
  0
VERTEX
  5
14B4
330
1137
100
AcDbEntity
  8
0
 62
     7
100
AcDbFaceRecord
 10
0.0
 20
0.0
 30
0.0
 70
   128
 71
   301
 72
   298
 73
   295
  0
VERTEX
  5
14B5
330
1137
100
AcDbEntity
  8
0
 62
     7
100
AcDbFaceRecord
 10
0.0
 20
0.0
 30
0.0
 70
   128
 71
   305
 72
   297
 73
   296
  0
VERTEX
  5
14B6
330
1137
100
AcDbEntity
  8
0
 62
     7
100
AcDbFaceRecord
 10
0.0
 20
0.0
 30
0.0
 70
   128
 71
    14
 72
   297
 73
   305
  0
VERTEX
  5
14B7
330
1137
100
AcDbEntity
  8
0
 62
     7
100
AcDbFaceRecord
 10
0.0
 20
0.0
 30
0.0
 70
   128
 71
    59
 72
    14
 73
   305
  0
VERTEX
  5
14B8
330
1137
100
AcDbEntity
  8
0
 62
     7
100
AcDbFaceRecord
 10
0.0
 20
0.0
 30
0.0
 70
   128
 71
   306
 72
   302
 73
   307
  0
VERTEX
  5
14B9
330
1137
100
AcDbEntity
  8
0
 62
     7
100
AcDbFaceRecord
 10
0.0
 20
0.0
 30
0.0
 70
   128
 71
   308
 72
   297
 73
   309
  0
VERTEX
  5
14BA
330
1137
100
AcDbEntity
  8
0
 62
     7
100
AcDbFaceRecord
 10
0.0
 20
0.0
 30
0.0
 70
   128
 71
   295
 72
   297
 73
   308
  0
VERTEX
  5
14BB
330
1137
100
AcDbEntity
  8
0
 62
     7
100
AcDbFaceRecord
 10
0.0
 20
0.0
 30
0.0
 70
   128
 71
   310
 72
   301
 73
   311
  0
VERTEX
  5
14BC
330
1137
100
AcDbEntity
  8
0
 62
     7
100
AcDbFaceRecord
 10
0.0
 20
0.0
 30
0.0
 70
   128
 71
   299
 72
   301
 73
   310
  0
VERTEX
  5
14BD
330
1137
100
AcDbEntity
  8
0
 62
     7
100
AcDbFaceRecord
 10
0.0
 20
0.0
 30
0.0
 70
   128
 71
   303
 72
   299
 73
   312
  0
VERTEX
  5
14BE
330
1137
100
AcDbEntity
  8
0
 62
     7
100
AcDbFaceRecord
 10
0.0
 20
0.0
 30
0.0
 70
   128
 71
   304
 72
   303
 73
   312
  0
VERTEX
  5
14BF
330
1137
100
AcDbEntity
  8
0
 62
     7
100
AcDbFaceRecord
 10
0.0
 20
0.0
 30
0.0
 70
   128
 71
   300
 72
   302
 73
   306
  0
VERTEX
  5
14C0
330
1137
100
AcDbEntity
  8
0
 62
     7
100
AcDbFaceRecord
 10
0.0
 20
0.0
 30
0.0
 70
   128
 71
   313
 72
   298
 73
   314
  0
VERTEX
  5
14C1
330
1137
100
AcDbEntity
  8
0
 62
     7
100
AcDbFaceRecord
 10
0.0
 20
0.0
 30
0.0
 70
   128
 71
   296
 72
   298
 73
   313
  0
VERTEX
  5
14C2
330
1137
100
AcDbEntity
  8
0
 62
     7
100
AcDbFaceRecord
 10
0.0
 20
0.0
 30
0.0
 70
   128
 71
    61
 72
   305
 73
   315
  0
VERTEX
  5
14C3
330
1137
100
AcDbEntity
  8
0
 62
     7
100
AcDbFaceRecord
 10
0.0
 20
0.0
 30
0.0
 70
   128
 71
    59
 72
   305
 73
    61
  0
VERTEX
  5
14C4
330
1137
100
AcDbEntity
  8
0
 62
     7
100
AcDbFaceRecord
 10
0.0
 20
0.0
 30
0.0
 70
   128
 71
   296
 72
   315
 73
   305
  0
VERTEX
  5
14C5
330
1137
100
AcDbEntity
  8
0
 62
     7
100
AcDbFaceRecord
 10
0.0
 20
0.0
 30
0.0
 70
   128
 71
   315
 72
   296
 73
   313
  0
VERTEX
  5
14C6
330
1137
100
AcDbEntity
  8
0
 62
     7
100
AcDbFaceRecord
 10
0.0
 20
0.0
 30
0.0
 70
   128
 71
   300
 72
   314
 73
   298
  0
VERTEX
  5
14C7
330
1137
100
AcDbEntity
  8
0
 62
     7
100
AcDbFaceRecord
 10
0.0
 20
0.0
 30
0.0
 70
   128
 71
   314
 72
   300
 73
   306
  0
VERTEX
  5
14C8
330
1137
100
AcDbEntity
  8
0
 62
     7
100
AcDbFaceRecord
 10
0.0
 20
0.0
 30
0.0
 70
   128
 71
   316
 72
   307
 73
   302
  0
VERTEX
  5
14C9
330
1137
100
AcDbEntity
  8
0
 62
     7
100
AcDbFaceRecord
 10
0.0
 20
0.0
 30
0.0
 70
   128
 71
   304
 72
   316
 73
   302
  0
VERTEX
  5
14CA
330
1137
100
AcDbEntity
  8
0
 62
     7
100
AcDbFaceRecord
 10
0.0
 20
0.0
 30
0.0
 70
   128
 71
   316
 72
   304
 73
   312
  0
VERTEX
  5
14CB
330
1137
100
AcDbEntity
  8
0
 62
     7
100
AcDbFaceRecord
 10
0.0
 20
0.0
 30
0.0
 70
   128
 71
   312
 72
   299
 73
   310
  0
VERTEX
  5
14CC
330
1137
100
AcDbEntity
  8
0
 62
     7
100
AcDbFaceRecord
 10
0.0
 20
0.0
 30
0.0
 70
   128
 71
   295
 72
   311
 73
   301
  0
VERTEX
  5
14CD
330
1137
100
AcDbEntity
  8
0
 62
     7
100
AcDbFaceRecord
 10
0.0
 20
0.0
 30
0.0
 70
   128
 71
   311
 72
   295
 73
   308
  0
VERTEX
  5
14CE
330
1137
100
AcDbEntity
  8
0
 62
     7
100
AcDbFaceRecord
 10
0.0
 20
0.0
 30
0.0
 70
   128
 71
    14
 72
   309
 73
   297
  0
VERTEX
  5
14CF
330
1137
100
AcDbEntity
  8
0
 62
     7
100
AcDbFaceRecord
 10
0.0
 20
0.0
 30
0.0
 70
   128
 71
    62
 72
   309
 73
    14
  0
VERTEX
  5
14D0
330
1137
100
AcDbEntity
  8
0
 62
     7
100
AcDbFaceRecord
 10
0.0
 20
0.0
 30
0.0
 70
   128
 71
   316
 72
    84
 73
    86
  0
VERTEX
  5
14D1
330
1137
100
AcDbEntity
  8
0
 62
     7
100
AcDbFaceRecord
 10
0.0
 20
0.0
 30
0.0
 70
   128
 71
    91
 72
   308
 73
   114
  0
VERTEX
  5
14D2
330
1137
100
AcDbEntity
  8
0
 62
     7
100
AcDbFaceRecord
 10
0.0
 20
0.0
 30
0.0
 70
   128
 71
   311
 72
   308
 73
    91
  0
VERTEX
  5
14D3
330
1137
100
AcDbEntity
  8
0
 62
     7
100
AcDbFaceRecord
 10
0.0
 20
0.0
 30
0.0
 70
   128
 71
    96
 72
   310
 73
    93
  0
VERTEX
  5
14D4
330
1137
100
AcDbEntity
  8
0
 62
     7
100
AcDbFaceRecord
 10
0.0
 20
0.0
 30
0.0
 70
   128
 71
   312
 72
   310
 73
    96
  0
VERTEX
  5
14D5
330
1137
100
AcDbEntity
  8
0
 62
     7
100
AcDbFaceRecord
 10
0.0
 20
0.0
 30
0.0
 70
   128
 71
   307
 72
   316
 73
    86
  0
VERTEX
  5
14D6
330
1137
100
AcDbEntity
  8
0
 62
     7
100
AcDbFaceRecord
 10
0.0
 20
0.0
 30
0.0
 70
   128
 71
    74
 72
   306
 73
   104
  0
VERTEX
  5
14D7
330
1137
100
AcDbEntity
  8
0
 62
     7
100
AcDbFaceRecord
 10
0.0
 20
0.0
 30
0.0
 70
   128
 71
   314
 72
   306
 73
    74
  0
VERTEX
  5
14D8
330
1137
100
AcDbEntity
  8
0
 62
     7
100
AcDbFaceRecord
 10
0.0
 20
0.0
 30
0.0
 70
   128
 71
    72
 72
   313
 73
    73
  0
VERTEX
  5
14D9
330
1137
100
AcDbEntity
  8
0
 62
     7
100
AcDbFaceRecord
 10
0.0
 20
0.0
 30
0.0
 70
   128
 71
   315
 72
   313
 73
    72
  0
VERTEX
  5
14DA
330
1137
100
AcDbEntity
  8
0
 62
     7
100
AcDbFaceRecord
 10
0.0
 20
0.0
 30
0.0
 70
   128
 71
    60
 72
    61
 73
   315
  0
VERTEX
  5
14DB
330
1137
100
AcDbEntity
  8
0
 62
     7
100
AcDbFaceRecord
 10
0.0
 20
0.0
 30
0.0
 70
   128
 71
    60
 72
   315
 73
    72
  0
VERTEX
  5
14DC
330
1137
100
AcDbEntity
  8
0
 62
     7
100
AcDbFaceRecord
 10
0.0
 20
0.0
 30
0.0
 70
   128
 71
   314
 72
    73
 73
   313
  0
VERTEX
  5
14DD
330
1137
100
AcDbEntity
  8
0
 62
     7
100
AcDbFaceRecord
 10
0.0
 20
0.0
 30
0.0
 70
   128
 71
    73
 72
   314
 73
    74
  0
VERTEX
  5
14DE
330
1137
100
AcDbEntity
  8
0
 62
     7
100
AcDbFaceRecord
 10
0.0
 20
0.0
 30
0.0
 70
   128
 71
   307
 72
   104
 73
   306
  0
VERTEX
  5
14DF
330
1137
100
AcDbEntity
  8
0
 62
     7
100
AcDbFaceRecord
 10
0.0
 20
0.0
 30
0.0
 70
   128
 71
   104
 72
   307
 73
    86
  0
VERTEX
  5
14E0
330
1137
100
AcDbEntity
  8
0
 62
     7
100
AcDbFaceRecord
 10
0.0
 20
0.0
 30
0.0
 70
   128
 71
    98
 72
    84
 73
   316
  0
VERTEX
  5
14E1
330
1137
100
AcDbEntity
  8
0
 62
     7
100
AcDbFaceRecord
 10
0.0
 20
0.0
 30
0.0
 70
   128
 71
   312
 72
    98
 73
   316
  0
VERTEX
  5
14E2
330
1137
100
AcDbEntity
  8
0
 62
     7
100
AcDbFaceRecord
 10
0.0
 20
0.0
 30
0.0
 70
   128
 71
    98
 72
   312
 73
    96
  0
VERTEX
  5
14E3
330
1137
100
AcDbEntity
  8
0
 62
     7
100
AcDbFaceRecord
 10
0.0
 20
0.0
 30
0.0
 70
   128
 71
   311
 72
    93
 73
   310
  0
VERTEX
  5
14E4
330
1137
100
AcDbEntity
  8
0
 62
     7
100
AcDbFaceRecord
 10
0.0
 20
0.0
 30
0.0
 70
   128
 71
    93
 72
   311
 73
    91
  0
VERTEX
  5
14E5
330
1137
100
AcDbEntity
  8
0
 62
     7
100
AcDbFaceRecord
 10
0.0
 20
0.0
 30
0.0
 70
   128
 71
   309
 72
   114
 73
   308
  0
VERTEX
  5
14E6
330
1137
100
AcDbEntity
  8
0
 62
     7
100
AcDbFaceRecord
 10
0.0
 20
0.0
 30
0.0
 70
   128
 71
    13
 72
   114
 73
   309
  0
VERTEX
  5
14E7
330
1137
100
AcDbEntity
  8
0
 62
     7
100
AcDbFaceRecord
 10
0.0
 20
0.0
 30
0.0
 70
   128
 71
    62
 72
    13
 73
   309
  0
SEQEND
  5
14E8
330
1137
100
AcDbEntity
  8
0
 62
     7
  0
INSERT
  5
14E9
330
1F
100
AcDbEntity
  8
0
100
AcDbBlockReference
 66
     1
  2
RM_SDB
 10
-9.008491522102428
 20
0.0
 30
-0.0000000005943397
1001
AVE_MATERIAL
1002
{
1000
*GLOBAL*01
1000
2
1000

1002
{
1002
}
1002
{
1070
    39
1002
{
1002
{
1010
1.428571462631224
1020
1.428571462631224
1030
1.428571462631224
1002
}
1040
0.6999999880790711
1000

1040
0.0
1002
{
1002
}
1040
0.0
1002
{
1002
}
1040
0.0
1002
}
1002
{
1002
{
1010
1.0
1020
1.0
1030
1.0
1002
}
1040
1.0
1000

1040
0.0
1002
{
1002
}
1040
0.0
1002
{
1002
}
1040
0.0
1002
}
1002
{
1002
{
1010
5.0
1020
5.0
1030
5.0
1002
}
1040
0.2000000029802322
1000

1040
0.0
1002
{
1002
}
1040
0.0
1002
{
1002
}
1040
0.0
1002
}
1002
{
1070
     0
1002
{
1070
     1
1002
{
1040
1.0
1040
1.0
1000

1040
0.0
1002
{
1002
}
1040
0.0
1002
{
1002
}
1040
0.0
1002
}
1002
}
1040
0.0
1040
0.0
1040
0.0
1002
}
1002
{
1040
0.0
1040
0.0
1000

1040
0.0
1002
{
1002
}
1040
0.0
1002
{
1002
}
1040
0.0
1002
}
1002
{
1040
0.5
1040
1.0
1000

1040
0.0
1002
{
1002
}
1040
0.0
1002
{
1002
}
1040
0.0
1002
}
1002
{
1070
     0
1040
0.0
1002
{
1002
}
1040
0.0
1002
{
1002
}
1040
0.0
1002
}
1002
{
1040
0.0
1002
{
1002
{
1010
0.0
1020
0.0
1030
0.0
1002
}
1040
0.0
1000

1040
0.0
1002
{
1002
}
1040
0.0
1002
{
1002
}
1040
0.0
1002
}
1002
}
1002
{
1002
{
1070
     1
1002
{
1040
0.0
1040
1.0
1000

1040
0.0
1002
{
1002
}
1040
0.0
1002
{
1002
}
1040
0.0
1002
}
1002
}
1040
0.0
1002
{
1002
}
1010
0.0
1020
0.0
1030
0.0
1010
0.0
1020
0.0
1030
0.0
1010
0.0
1020
0.0
1030
0.0
1070
     0
1002
}
1002
{
1002
{
1040
0.0
1040
0.0
1002
{
1070
     0
1002
}
1002
}
1070
     0
1040
0.0
1002
{
1002
}
1002
}
1002
{
1002
}
1002
}
1002
{
1071
        3
1070
     3
1070
     0
1002
{
1070
     2
1070
     1
1070
     0
1040
0.0
1002
}
1070
     0
1070
     2
1002
{
1002
}
1002
}
1002
{
1040
8030.0
1040
190.3000030517578
1040
0.3050000071525574
1040
228.0
1040
545.0
1040
14.0
1040
17.39999961853027
1040
0.4560000002384186
1002
}
1000
D41
1002
}
  0
ATTRIB
  5
14EA
330
14E9
100
AcDbEntity
  8
0
100
AcDbText
 10
-9.008491522102428
 20
0.0
 30
-0.0000000005943397
 40
0.2
  1
*GLOBAL*01
100
AcDbAttribute
  2
NAME
 70
     1
  0
ATTRIB
  5
14EB
330
14E9
100
AcDbEntity
  8
0
100
AcDbText
 10
-9.008491522102428
 20
0.0
 30
-0.0000000005943397
 40
0.2
  1

100
AcDbAttribute
  2
ACADCOLOR
 70
     1
  0
ATTRIB
  5
14EC
330
14E9
100
AcDbEntity
  8
0
100
AcDbText
 10
-9.008491522102428
 20
0.0
 30
-0.0000000005943397
 40
0.2
  1
1.0000,1.0000,1.0000
100
AcDbAttribute
  2
COLOR
 70
     1
  0
ATTRIB
  5
14ED
330
14E9
100
AcDbEntity
  8
0
100
AcDbText
 10
-9.008491522102428
 20
0.0
 30
-0.0000000005943397
 40
0.2
  1
1.0,1.0,1.0
100
AcDbAttribute
  2
OPACITY
 70
     1
  0
ATTRIB
  5
14EE
330
14E9
100
AcDbEntity
  8
0
100
AcDbText
 10
-9.008491522102428
 20
0.0
 30
-0.0000000005943397
 40
0.2
  1
("nullsurf" "")
100
AcDbAttribute
  2
SURFACE
 70
     1
  0
ATTRIB
  5
14EF
330
14E9
100
AcDbEntity
  8
0
100
AcDbText
 10
-9.008491522102428
 20
0.0
 30
-0.0000000005943397
 40
0.2
  1
(11 "Ka" "0.7")(11 "Kd" "1")(11 "Ks" "0.2")(11 "roughness" "0.5")
100
AcDbAttribute
  2
SURF1
 70
     1
  0
ATTRIB
  5
14F0
330
14E9
100
AcDbEntity
  8
0
100
AcDbText
 10
-9.008491522102428
 20
0.0
 30
-0.0000000005943397
 40
0.2
  1

100
AcDbAttribute
  2
SURF2
 70
     1
  0
ATTRIB
  5
14F1
330
14E9
100
AcDbEntity
  8
0
100
AcDbText
 10
-9.008491522102428
 20
0.0
 30
-0.0000000005943397
 40
0.2
  1

100
AcDbAttribute
  2
SURF3
 70
     1
  0
ATTRIB
  5
14F2
330
14E9
100
AcDbEntity
  8
0
100
AcDbText
 10
-9.008491522102428
 20
0.0
 30
-0.0000000005943397
 40
0.2
  1

100
AcDbAttribute
  2
SURF4
 70
     1
  0
ATTRIB
  5
14F3
330
14E9
100
AcDbEntity
  8
0
100
AcDbText
 10
-9.008491522102428
 20
0.0
 30
-0.0000000005943397
 40
0.2
  1
-1.0
100
AcDbAttribute
  2
SHADINGRATE
 70
     1
  0
ATTRIB
  5
14F4
330
14E9
100
AcDbEntity
  8
0
100
AcDbText
 10
-9.008491522102428
 20
0.0
 30
-0.0000000005943397
 40
0.2
  1
("nulldisp" "")
100
AcDbAttribute
  2
DISPLACEMENT
 70
     1
  0
ATTRIB
  5
14F5
330
14E9
100
AcDbEntity
  8
0
100
AcDbText
 10
-9.008491522102428
 20
0.0
 30
-0.0000000005943397
 40
0.2
  1

100
AcDbAttribute
  2
DISP1
 70
     1
  0
ATTRIB
  5
14F6
330
14E9
100
AcDbEntity
  8
0
100
AcDbText
 10
-9.008491522102428
 20
0.0
 30
-0.0000000005943397
 40
0.2
  1

100
AcDbAttribute
  2
DISP2
 70
     1
  0
ATTRIB
  5
14F7
330
14E9
100
AcDbEntity
  8
0
100
AcDbText
 10
-9.008491522102428
 20
0.0
 30
-0.0000000005943397
 40
0.2
  1

100
AcDbAttribute
  2
DISP3
 70
     1
  0
ATTRIB
  5
14F8
330
14E9
100
AcDbEntity
  8
0
100
AcDbText
 10
-9.008491522102428
 20
0.0
 30
-0.0000000005943397
 40
0.2
  1

100
AcDbAttribute
  2
DISP4
 70
     1
  0
ATTRIB
  5
14F9
330
14E9
100
AcDbEntity
  8
0
100
AcDbText
 10
-9.008491522102428
 20
0.0
 30
-0.0000000005943397
 40
0.2
  1
0.0
100
AcDbAttribute
  2
DBOUND
 70
     1
  0
ATTRIB
  5
14FA
330
14E9
100
AcDbEntity
  8
0
100
AcDbText
 10
-9.008491522102428
 20
0.0
 30
-0.0000000005943397
 40
0.2
  1
0
100
AcDbAttribute
  2
SMOOTH
 70
     1
  0
ATTRIB
  5
14FB
330
14E9
100
AcDbEntity
  8
0
100
AcDbText
 10
-9.008491522102428
 20
0.0
 30
-0.0000000005943397
 40
0.2
  1
("" "")
100
AcDbAttribute
  2
ATMOSHPERE
 70
     1
  0
ATTRIB
  5
14FC
330
14E9
100
AcDbEntity
  8
0
100
AcDbText
 10
-9.008491522102428
 20
0.0
 30
-0.0000000005943397
 40
0.2
  1

100
AcDbAttribute
  2
ATMO1
 70
     1
  0
ATTRIB
  5
14FD
330
14E9
100
AcDbEntity
  8
0
100
AcDbText
 10
-9.008491522102428
 20
0.0
 30
-0.0000000005943397
 40
0.2
  1

100
AcDbAttribute
  2
ATMO2
 70
     1
  0
ATTRIB
  5
14FE
330
14E9
100
AcDbEntity
  8
0
100
AcDbText
 10
-9.008491522102428
 20
0.0
 30
-0.0000000005943397
 40
0.2
  1

100
AcDbAttribute
  2
ATMO3
 70
     1
  0
ATTRIB
  5
14FF
330
14E9
100
AcDbEntity
  8
0
100
AcDbText
 10
-9.008491522102428
 20
0.0
 30
-0.0000000005943397
 40
0.2
  1

100
AcDbAttribute
  2
ATMO4
 70
     1
  0
ATTRIB
  5
1500
330
14E9
100
AcDbEntity
  8
0
100
AcDbText
 10
-9.008491522102428
 20
0.0
 30
-0.0000000005943397
 40
0.2
  1
0.0 0.0 1.0 0.0 0.0 1.0 1.0 1.0
100
AcDbAttribute
  2
TCCORD
 70
     1
  0
SEQEND
  5
1501
330
14E9
100
AcDbEntity
  8
0
  0
ENDSEC
  0
SECTION
  2
OBJECTS
  0
DICTIONARY
  5
C
330
0
100
AcDbDictionary
281
     1
  3
ACAD_COLOR
350
7B7
  3
ACAD_GROUP
350
D
  3
ACAD_LAYOUT
350
1A
  3
ACAD_MATERIAL
350
7B6
  3
ACAD_MLEADERSTYLE
350
937
  3
ACAD_MLINESTYLE
350
17
  3
ACAD_PLOTSETTINGS
350
19
  3
ACAD_PLOTSTYLENAME
350
E
  3
ACAD_SCALELIST
350
915
  3
ACAD_TABLESTYLE
350
7B8
  3
ACAD_VISUALSTYLE
350
904
  3
ACDB_RECOMPOSE_DATA
350
D57
  3
AcDbVariableDictionary
350
7AF
  3
AVE_ACITABLE
350
947
  3
DWGPROPS
350
1503
  0
DICTIONARY
  5
D49
330
10
100
AcDbDictionary
280
     1
281
     1
  3
ADSK_XREC_LAYER_RECONCILED
360
D4A
  0
DICTIONARY
  5
D4B
330
D2
100
AcDbDictionary
280
     1
281
     1
  3
ADSK_XREC_LAYER_RECONCILED
360
D4C
  0
DICTIONARY
  5
D4D
330
798
100
AcDbDictionary
280
     1
281
     1
  3
ADSK_XREC_LAYER_RECONCILED
360
D4E
  0
DICTIONARY
  5
D4F
330
942
100
AcDbDictionary
280
     1
281
     1
  3
ADSK_XREC_LAYER_RECONCILED
360
D50
  0
DICTIONARY
  5
80B
330
7FA
100
AcDbDictionary
280
     1
281
     1
  3
ACAD_SORTENTS
360
80C
  0
DICTIONARY
  5
7B7
102
{ACAD_REACTORS
330
C
102
}
330
C
100
AcDbDictionary
281
     1
  0
DICTIONARY
  5
D
102
{ACAD_REACTORS
330
C
102
}
330
C
100
AcDbDictionary
281
     1
  0
DICTIONARY
  5
1A
102
{ACAD_REACTORS
330
C
102
}
330
C
100
AcDbDictionary
281
     1
  3
Layout1
350
1E
  3
Layout2
350
26
  3
Model
350
22
  0
DICTIONARY
  5
7B6
102
{ACAD_REACTORS
330
C
102
}
330
C
100
AcDbDictionary
281
     1
  3
_GLOBAL_01
350
D41
  3
ByBlock
350
8F4
  3
ByLayer
350
8EC
  3
Global
350
8FC
  0
DICTIONARY
  5
937
102
{ACAD_REACTORS
330
C
102
}
330
C
100
AcDbDictionary
281
     1
  3
Standard
350
938
  0
DICTIONARY
  5
17
102
{ACAD_REACTORS
330
C
102
}
330
C
100
AcDbDictionary
281
     1
  3
Standard
350
18
  0
DICTIONARY
  5
19
102
{ACAD_REACTORS
330
C
102
}
330
C
100
AcDbDictionary
281
     1
  0
ACDBDICTIONARYWDFLT
  5
E
102
{ACAD_REACTORS
330
C
102
}
330
C
100
AcDbDictionary
281
     1
  3
Normal
350
F
100
AcDbDictionaryWithDefault
340
F
  0
DICTIONARY
  5
915
102
{ACAD_REACTORS
330
C
102
}
330
C
100
AcDbDictionary
281
     1
  3
A0
350
916
  3
A1
350
917
  3
A2
350
918
  3
A3
350
919
  3
A4
350
91A
  3
A5
350
91B
  3
A6
350
91C
  3
A7
350
91D
  3
A8
350
91E
  3
A9
350
91F
  3
B0
350
920
  3
B1
350
921
  3
B2
350
922
  3
B3
350
923
  3
B4
350
924
  3
B5
350
925
  3
B6
350
926
  3
B7
350
927
  3
B8
350
928
  3
B9
350
929
  3
C0
350
92A
  3
C1
350
92B
  3
C2
350
92C
  3
C3
350
92D
  3
C4
350
92E
  3
C5
350
92F
  3
C6
350
930
  3
C7
350
931
  3
C8
350
932
  3
C9
350
933
  3
D0
350
934
  3
D1
350
935
  3
D2
350
936
  0
DICTIONARY
  5
7B8
102
{ACAD_REACTORS
330
C
102
}
330
C
100
AcDbDictionary
281
     1
  3
Standard
350
7B9
  0
DICTIONARY
  5
904
102
{ACAD_REACTORS
330
C
102
}
330
C
100
AcDbDictionary
281
     1
  3
2dWireframe
350
90A
  3
3D Hidden
350
90C
  3
3dWireframe
350
90B
  3
Basic
350
909
  3
Brighten
350
910
  3
ColorChange
350
914
  3
Conceptual
350
90D
  3
Dim
350
90F
  3
Facepattern
350
913
  3
Flat
350
905
  3
FlatWithEdges
350
906
  3
Gouraud
350
907
  3
GouraudWithEdges
350
908
  3
Linepattern
350
912
  3
Realistic
350
90E
  3
Thicken
350
911
  0
XRECORD
  5
D57
102
{ACAD_REACTORS
330
C
102
}
330
C
100
AcDbXrecord
280
     1
 90
        1
330
7B9
  0
DICTIONARY
  5
7AF
102
{ACAD_REACTORS
330
C
102
}
330
C
100
AcDbDictionary
281
     1
  3
CANNOSCALE
350
D52
  3
CMLEADERSTYLE
350
D51
  3
CTABLESTYLE
350
7C8
  3
DIMASSOC
350
7B0
  3
INDEXCTL
350
D54
  3
SORTENTS
350
D53
  0
DICTIONARY
  5
947
102
{ACAD_REACTORS
330
C
102
}
330
C
100
AcDbDictionary
281
     1
  0
XRECORD
  5
1503
102
{ACAD_REACTORS
330
C
102
}
330
C
100
AcDbXrecord
280
     1
  1
DWGPROPS COOKIE
  2

  3

  4

  6

  7

  8
Christian
  9

300
=
301
=
302
=
303
=
304
=
305
=
306
=
307
=
308
=
309
=
 40
0.6017887847222223
 41
2452587.497350764
 42
2454459.465801632
  1

 90
        0
  0
XRECORD
  5
D4A
102
{ACAD_REACTORS
330
D49
102
}
330
D49
100
AcDbXrecord
280
     1
290
     1
  0
XRECORD
  5
D4C
102
{ACAD_REACTORS
330
D4B
102
}
330
D4B
100
AcDbXrecord
280
     1
290
     1
  0
XRECORD
  5
D4E
102
{ACAD_REACTORS
330
D4D
102
}
330
D4D
100
AcDbXrecord
280
     1
290
     1
  0
XRECORD
  5
D50
102
{ACAD_REACTORS
330
D4F
102
}
330
D4F
100
AcDbXrecord
280
     1
290
     1
  0
SORTENTSTABLE
  5
80C
102
{ACAD_REACTORS
330
80B
102
}
330
80B
100
AcDbSortentsTable
330
7FA
  0
LAYOUT
  5
1E
102
{ACAD_XDICTIONARY
360
1504
102
}
102
{ACAD_REACTORS
330
1A
102
}
330
1A
100
AcDbPlotSettings
  1

  2

  4

  6

 40
0.0
 41
0.0
 42
0.0
 43
0.0
 44
0.0
 45
0.0
 46
0.0
 47
0.0
 48
0.0
 49
0.0
140
0.0
141
0.0
142
1.0
143
1.0
 70
   688
 72
     0
 73
     0
 74
     5
  7

 75
    16
147
1.0
148
0.0
149
0.0
100
AcDbLayout
  1
Layout1
 70
     1
 71
     1
 10
0.0
 20
0.0
 11
12.0
 21
9.0
 12
0.0
 22
0.0
 32
0.0
 14
1.000000000000000E+20
 24
1.000000000000000E+20
 34
1.000000000000000E+20
 15
-1.000000000000000E+20
 25
-1.000000000000000E+20
 35
-1.000000000000000E+20
146
0.0
 13
0.0
 23
0.0
 33
0.0
 16
1.0
 26
0.0
 36
0.0
 17
0.0
 27
1.0
 37
0.0
 76
     0
330
1B
  0
LAYOUT
  5
26
102
{ACAD_XDICTIONARY
360
1508
102
}
102
{ACAD_REACTORS
330
1A
102
}
330
1A
100
AcDbPlotSettings
  1

  2

  4

  6

 40
0.0
 41
0.0
 42
0.0
 43
0.0
 44
0.0
 45
0.0
 46
0.0
 47
0.0
 48
0.0
 49
0.0
140
0.0
141
0.0
142
1.0
143
1.0
 70
   688
 72
     0
 73
     0
 74
     5
  7

 75
    16
147
1.0
148
0.0
149
0.0
100
AcDbLayout
  1
Layout2
 70
     1
 71
     2
 10
0.0
 20
0.0
 11
12.0
 21
9.0
 12
0.0
 22
0.0
 32
0.0
 14
0.0
 24
0.0
 34
0.0
 15
0.0
 25
0.0
 35
0.0
146
0.0
 13
0.0
 23
0.0
 33
0.0
 16
1.0
 26
0.0
 36
0.0
 17
0.0
 27
1.0
 37
0.0
 76
     0
330
23
  0
LAYOUT
  5
22
102
{ACAD_XDICTIONARY
360
1506
102
}
102
{ACAD_REACTORS
330
1A
102
}
330
1A
100
AcDbPlotSettings
  1

  2
EPSON Stylus C80 Series
  4
Letter
  6

 40
3.757083177566528
 41
14.76376056671143
 42
3.757080078125
 43
3.757080078125
 44
215.8999938964844
 45
279.3999938964844
 46
0.0
 47
0.0
 48
0.0
 49
0.0
140
0.0
141
0.0
142
1.0
143
1.0
 70
 11952
 72
     0
 73
     1
 74
     0
  7

 75
     0
147
1.0
148
-32.82152498042917
149
339.8261437359589
100
AcDbLayout
  1
Model
 70
     1
 71
     0
 10
0.0
 20
0.0
 11
12.0
 21
9.0
 12
0.0
 22
0.0
 32
0.0
 14
0.0
 24
0.0
 34
0.0
 15
0.0
 25
0.0
 35
0.0
146
0.0
 13
0.0
 23
0.0
 33
0.0
 16
1.0
 26
0.0
 36
0.0
 17
0.0
 27
1.0
 37
0.0
 76
     0
330
1F
331
8D7
  0
MATERIAL
  5
D41
102
{ACAD_XDICTIONARY
360
D42
102
}
102
{ACAD_REACTORS
330
7B6
102
}
330
7B6
100
AcDbMaterial
  1
_GLOBAL_01
 70
     1
 40
0.6999999880790711
 90
-1033081748
 71
     1
 91
-1023410177
 72
     0
 76
     1
 45
0.2000000029802322
 92
-1023673349
 77
     0
171
     0
175
     0
179
     0
  0
MATERIAL
  5
8F4
102
{ACAD_XDICTIONARY
360
8F5
102
}
102
{ACAD_REACTORS
330
7B6
102
}
330
7B6
100
AcDbMaterial
  1
ByBlock
 72
     0
 43
0.0208333333333333
 43
0.0
 43
0.0
 43
0.0
 43
0.0
 43
0.0208333333333333
 43
0.0
 43
0.0
 43
0.0
 43
0.0
 43
1.0
 43
0.0
 43
0.0
 43
0.0
 43
0.0
 43
1.0
 77
     0
 47
0.0208333333333333
 47
0.0
 47
0.0
 47
0.0
 47
0.0
 47
0.0208333333333333
 47
0.0
 47
0.0
 47
0.0
 47
0.0
 47
1.0
 47
0.0
 47
0.0
 47
0.0
 47
0.0
 47
1.0
171
     0
 49
0.0208333333333333
 49
0.0
 49
0.0
 49
0.0
 49
0.0
 49
0.0208333333333333
 49
0.0
 49
0.0
 49
0.0
 49
0.0
 49
1.0
 49
0.0
 49
0.0
 49
0.0
 49
0.0
 49
1.0
175
     0
142
0.0208333333333333
142
0.0
142
0.0
142
0.0
142
0.0
142
0.0208333333333333
142
0.0
142
0.0
142
0.0
142
0.0
142
1.0
142
0.0
142
0.0
142
0.0
142
0.0
142
1.0
179
     0
144
0.0208333333333333
144
0.0
144
0.0
144
0.0
144
0.0
144
0.0208333333333333
144
0.0
144
0.0
144
0.0
144
0.0
144
1.0
144
0.0
144
0.0
144
0.0
144
0.0
144
1.0
147
0.0208333333333333
147
0.0
147
0.0
147
0.0
147
0.0
147
0.0208333333333333
147
0.0
147
0.0
147
0.0
147
0.0
147
1.0
147
0.0
147
0.0
147
0.0
147
0.0
147
1.0
  0
MATERIAL
  5
8EC
102
{ACAD_XDICTIONARY
360
8ED
102
}
102
{ACAD_REACTORS
330
7B6
102
}
330
7B6
100
AcDbMaterial
  1
ByLayer
 72
     0
 43
0.0208333333333333
 43
0.0
 43
0.0
 43
0.0
 43
0.0
 43
0.0208333333333333
 43
0.0
 43
0.0
 43
0.0
 43
0.0
 43
1.0
 43
0.0
 43
0.0
 43
0.0
 43
0.0
 43
1.0
 77
     0
 47
0.0208333333333333
 47
0.0
 47
0.0
 47
0.0
 47
0.0
 47
0.0208333333333333
 47
0.0
 47
0.0
 47
0.0
 47
0.0
 47
1.0
 47
0.0
 47
0.0
 47
0.0
 47
0.0
 47
1.0
171
     0
 49
0.0208333333333333
 49
0.0
 49
0.0
 49
0.0
 49
0.0
 49
0.0208333333333333
 49
0.0
 49
0.0
 49
0.0
 49
0.0
 49
1.0
 49
0.0
 49
0.0
 49
0.0
 49
0.0
 49
1.0
175
     0
142
0.0208333333333333
142
0.0
142
0.0
142
0.0
142
0.0
142
0.0208333333333333
142
0.0
142
0.0
142
0.0
142
0.0
142
1.0
142
0.0
142
0.0
142
0.0
142
0.0
142
1.0
179
     0
144
0.0208333333333333
144
0.0
144
0.0
144
0.0
144
0.0
144
0.0208333333333333
144
0.0
144
0.0
144
0.0
144
0.0
144
1.0
144
0.0
144
0.0
144
0.0
144
0.0
144
1.0
147
0.0208333333333333
147
0.0
147
0.0
147
0.0
147
0.0
147
0.0208333333333333
147
0.0
147
0.0
147
0.0
147
0.0
147
1.0
147
0.0
147
0.0
147
0.0
147
0.0
147
1.0
  0
MATERIAL
  5
8FC
102
{ACAD_XDICTIONARY
360
8FD
102
}
102
{ACAD_REACTORS
330
7B6
102
}
330
7B6
100
AcDbMaterial
  1
Global
 72
     0
 43
0.0208333333333333
 43
0.0
 43
0.0
 43
0.0
 43
0.0
 43
0.0208333333333333
 43
0.0
 43
0.0
 43
0.0
 43
0.0
 43
1.0
 43
0.0
 43
0.0
 43
0.0
 43
0.0
 43
1.0
 77
     0
 47
0.0208333333333333
 47
0.0
 47
0.0
 47
0.0
 47
0.0
 47
0.0208333333333333
 47
0.0
 47
0.0
 47
0.0
 47
0.0
 47
1.0
 47
0.0
 47
0.0
 47
0.0
 47
0.0
 47
1.0
171
     0
 49
0.0208333333333333
 49
0.0
 49
0.0
 49
0.0
 49
0.0
 49
0.0208333333333333
 49
0.0
 49
0.0
 49
0.0
 49
0.0
 49
1.0
 49
0.0
 49
0.0
 49
0.0
 49
0.0
 49
1.0
175
     0
142
0.0208333333333333
142
0.0
142
0.0
142
0.0
142
0.0
142
0.0208333333333333
142
0.0
142
0.0
142
0.0
142
0.0
142
1.0
142
0.0
142
0.0
142
0.0
142
0.0
142
1.0
179
     0
144
0.0208333333333333
144
0.0
144
0.0
144
0.0
144
0.0
144
0.0208333333333333
144
0.0
144
0.0
144
0.0
144
0.0
144
1.0
144
0.0
144
0.0
144
0.0
144
0.0
144
1.0
147
0.0208333333333333
147
0.0
147
0.0
147
0.0
147
0.0
147
0.0208333333333333
147
0.0
147
0.0
147
0.0
147
0.0
147
1.0
147
0.0
147
0.0
147
0.0
147
0.0
147
1.0
  0
MLEADERSTYLE
  5
938
102
{ACAD_REACTORS
330
937
102
}
330
937
100
AcDbMLeaderStyle
170
     2
171
     1
172
     0
 90
        2
 40
0.0
 41
0.0
173
     1
 91
-1056964608
340
14
 92
       -2
290
     1
 42
0.09
291
     1
 43
0.36
  3
Standard
 44
0.18
300

342
11
174
     1
178
     6
175
     1
176
     0
 93
-1056964608
 45
0.18
292
     0
297
     0
 46
0.18
 94
-1056964608
 47
1.0
 49
1.0
140
1.0
293
     1
141
0.0
294
     1
177
     0
142
1.0
295
     0
296
     0
143
0.125
1001
ACAD_MLEADERVER
1070
     2
  0
MLINESTYLE
  5
18
102
{ACAD_REACTORS
330
17
102
}
330
17
100
AcDbMlineStyle
  2
STANDARD
 70
     0
  3

 62
   256
 51
90.0
 52
90.0
 71
     2
 49
0.5
 62
   256
  6
BYLAYER
 49
-0.5
 62
   256
  6
BYLAYER
  0
ACDBPLACEHOLDER
  5
F
102
{ACAD_REACTORS
330
E
102
}
330
E
  0
SCALE
  5
916
102
{ACAD_REACTORS
330
915
102
}
330
915
100
AcDbScale
 70
     0
300
1:1
140
1.0
141
1.0
290
     1
  0
SCALE
  5
917
102
{ACAD_REACTORS
330
915
102
}
330
915
100
AcDbScale
 70
     0
300
1:2
140
1.0
141
2.0
290
     0
  0
SCALE
  5
918
102
{ACAD_REACTORS
330
915
102
}
330
915
100
AcDbScale
 70
     0
300
1:4
140
1.0
141
4.0
290
     0
  0
SCALE
  5
919
102
{ACAD_REACTORS
330
915
102
}
330
915
100
AcDbScale
 70
     0
300
1:5
140
1.0
141
5.0
290
     0
  0
SCALE
  5
91A
102
{ACAD_REACTORS
330
915
102
}
330
915
100
AcDbScale
 70
     0
300
1:8
140
1.0
141
8.0
290
     0
  0
SCALE
  5
91B
102
{ACAD_REACTORS
330
915
102
}
330
915
100
AcDbScale
 70
     0
300
1:10
140
1.0
141
10.0
290
     0
  0
SCALE
  5
91C
102
{ACAD_REACTORS
330
915
102
}
330
915
100
AcDbScale
 70
     0
300
1:16
140
1.0
141
16.0
290
     0
  0
SCALE
  5
91D
102
{ACAD_REACTORS
330
915
102
}
330
915
100
AcDbScale
 70
     0
300
1:20
140
1.0
141
20.0
290
     0
  0
SCALE
  5
91E
102
{ACAD_REACTORS
330
915
102
}
330
915
100
AcDbScale
 70
     0
300
1:30
140
1.0
141
30.0
290
     0
  0
SCALE
  5
91F
102
{ACAD_REACTORS
330
915
102
}
330
915
100
AcDbScale
 70
     0
300
1:40
140
1.0
141
40.0
290
     0
  0
SCALE
  5
920
102
{ACAD_REACTORS
330
915
102
}
330
915
100
AcDbScale
 70
     0
300
1:50
140
1.0
141
50.0
290
     0
  0
SCALE
  5
921
102
{ACAD_REACTORS
330
915
102
}
330
915
100
AcDbScale
 70
     0
300
1:100
140
1.0
141
100.0
290
     0
  0
SCALE
  5
922
102
{ACAD_REACTORS
330
915
102
}
330
915
100
AcDbScale
 70
     0
300
2:1
140
2.0
141
1.0
290
     0
  0
SCALE
  5
923
102
{ACAD_REACTORS
330
915
102
}
330
915
100
AcDbScale
 70
     0
300
4:1
140
4.0
141
1.0
290
     0
  0
SCALE
  5
924
102
{ACAD_REACTORS
330
915
102
}
330
915
100
AcDbScale
 70
     0
300
8:1
140
8.0
141
1.0
290
     0
  0
SCALE
  5
925
102
{ACAD_REACTORS
330
915
102
}
330
915
100
AcDbScale
 70
     0
300
10:1
140
10.0
141
1.0
290
     0
  0
SCALE
  5
926
102
{ACAD_REACTORS
330
915
102
}
330
915
100
AcDbScale
 70
     0
300
100:1
140
100.0
141
1.0
290
     0
  0
SCALE
  5
927
102
{ACAD_REACTORS
330
915
102
}
330
915
100
AcDbScale
 70
     0
300
1/128" = 1'-0"
140
0.0078125
141
12.0
290
     0
  0
SCALE
  5
928
102
{ACAD_REACTORS
330
915
102
}
330
915
100
AcDbScale
 70
     0
300
1/64" = 1'-0"
140
0.015625
141
12.0
290
     0
  0
SCALE
  5
929
102
{ACAD_REACTORS
330
915
102
}
330
915
100
AcDbScale
 70
     0
300
1/32" = 1'-0"
140
0.03125
141
12.0
290
     0
  0
SCALE
  5
92A
102
{ACAD_REACTORS
330
915
102
}
330
915
100
AcDbScale
 70
     0
300
1/16" = 1'-0"
140
0.0625
141
12.0
290
     0
  0
SCALE
  5
92B
102
{ACAD_REACTORS
330
915
102
}
330
915
100
AcDbScale
 70
     0
300
3/32" = 1'-0"
140
0.09375
141
12.0
290
     0
  0
SCALE
  5
92C
102
{ACAD_REACTORS
330
915
102
}
330
915
100
AcDbScale
 70
     0
300
1/8" = 1'-0"
140
0.125
141
12.0
290
     0
  0
SCALE
  5
92D
102
{ACAD_REACTORS
330
915
102
}
330
915
100
AcDbScale
 70
     0
300
3/16" = 1'-0"
140
0.1875
141
12.0
290
     0
  0
SCALE
  5
92E
102
{ACAD_REACTORS
330
915
102
}
330
915
100
AcDbScale
 70
     0
300
1/4" = 1'-0"
140
0.25
141
12.0
290
     0
  0
SCALE
  5
92F
102
{ACAD_REACTORS
330
915
102
}
330
915
100
AcDbScale
 70
     0
300
3/8" = 1'-0"
140
0.375
141
12.0
290
     0
  0
SCALE
  5
930
102
{ACAD_REACTORS
330
915
102
}
330
915
100
AcDbScale
 70
     0
300
1/2" = 1'-0"
140
0.5
141
12.0
290
     0
  0
SCALE
  5
931
102
{ACAD_REACTORS
330
915
102
}
330
915
100
AcDbScale
 70
     0
300
3/4" = 1'-0"
140
0.75
141
12.0
290
     0
  0
SCALE
  5
932
102
{ACAD_REACTORS
330
915
102
}
330
915
100
AcDbScale
 70
     0
300
1" = 1'-0"
140
1.0
141
12.0
290
     0
  0
SCALE
  5
933
102
{ACAD_REACTORS
330
915
102
}
330
915
100
AcDbScale
 70
     0
300
1-1/2" = 1'-0"
140
1.5
141
12.0
290
     0
  0
SCALE
  5
934
102
{ACAD_REACTORS
330
915
102
}
330
915
100
AcDbScale
 70
     0
300
3" = 1'-0"
140
3.0
141
12.0
290
     0
  0
SCALE
  5
935
102
{ACAD_REACTORS
330
915
102
}
330
915
100
AcDbScale
 70
     0
300
6" = 1'-0"
140
6.0
141
12.0
290
     0
  0
SCALE
  5
936
102
{ACAD_REACTORS
330
915
102
}
330
915
100
AcDbScale
 70
     0
300
1'-0" = 1'-0"
140
12.0
141
12.0
290
     0
  0
TABLESTYLE
  5
7B9
102
{ACAD_XDICTIONARY
360
D55
102
}
102
{ACAD_REACTORS
330
7B8
102
}
330
7B8
100
AcDbTableStyle
  3
Standard
 70
     0
 71
     0
 40
0.06
 41
0.06
280
     0
281
     0
  7
Standard
140
0.18
170
     2
 62
     0
 63
     7
283
     0
274
    -2
284
     1
 64
     0
275
    -2
285
     1
 65
     0
276
    -2
286
     1
 66
     0
277
    -2
287
     1
 67
     0
278
    -2
288
     1
 68
     0
279
    -2
289
     1
 69
     0
  7
Standard
140
0.25
170
     5
 62
     0
 63
     7
283
     0
274
    -2
284
     1
 64
     0
275
    -2
285
     1
 65
     0
276
    -2
286
     1
 66
     0
277
    -2
287
     1
 67
     0
278
    -2
288
     1
 68
     0
279
    -2
289
     1
 69
     0
  7
Standard
140
0.18
170
     5
 62
     0
 63
     7
283
     0
274
    -2
284
     1
 64
     0
275
    -2
285
     1
 65
     0
276
    -2
286
     1
 66
     0
277
    -2
287
     1
 67
     0
278
    -2
288
     1
 68
     0
279
    -2
289
     1
 69
     0
  0
VISUALSTYLE
  5
90A
102
{ACAD_REACTORS
330
904
102
}
330
904
100
AcDbVisualStyle
  2
2dWireframe
 70
     4
 71
     0
 72
     2
 73
     0
 90
        0
 40
-0.6
 41
-30.0
 62
     5
 63
     7
 74
     1
 91
        4
 64
     7
 65
   257
 75
     1
175
     1
 42
1.0
 92
        0
 66
   257
 43
1.0
 76
     1
 77
     6
 78
     2
 67
     7
 79
     5
170
     0
171
     0
290
     0
174
     0
 93
        1
 44
0.0
173
     0
291
     0
 45
0.0
1001
ACAD
1000
AcDbSavedByObjectVersion
1070
     0
1000
AcDbSavedByObjectVersion
1070
     0
  0
VISUALSTYLE
  5
90C
102
{ACAD_REACTORS
330
904
102
}
330
904
100
AcDbVisualStyle
  2
3D Hidden
 70
     6
 71
     1
 72
     2
 73
     2
 90
        0
 40
-0.6
 41
-30.0
 62
     5
 63
     7
 74
     2
 91
        2
 64
     7
 65
   257
 75
     2
175
     1
 42
40.0
 92
        0
 66
   257
 43
1.0
 76
     1
 77
     6
 78
     2
 67
     7
 79
     3
170
     0
171
     0
290
     0
174
     0
 93
        1
 44
0.0
173
     0
291
     0
 45
0.0
1001
ACAD
1000
AcDbSavedByObjectVersion
1070
     0
1000
AcDbSavedByObjectVersion
1070
     0
  0
VISUALSTYLE
  5
90B
102
{ACAD_REACTORS
330
904
102
}
330
904
100
AcDbVisualStyle
  2
3dWireframe
 70
     5
 71
     0
 72
     2
 73
     0
 90
        0
 40
-0.6
 41
-30.0
 62
     5
 63
     7
 74
     1
 91
        4
 64
     7
 65
   257
 75
     1
175
     1
 42
1.0
 92
        0
 66
   257
 43
1.0
 76
     1
 77
     6
 78
     2
 67
     7
 79
     5
170
     0
171
     0
290
     0
174
     0
 93
        1
 44
0.0
173
     0
291
     0
 45
0.0
1001
ACAD
1000
AcDbSavedByObjectVersion
1070
     0
1000
AcDbSavedByObjectVersion
1070
     0
  0
VISUALSTYLE
  5
909
102
{ACAD_REACTORS
330
904
102
}
330
904
100
AcDbVisualStyle
  2
Basic
 70
     7
 71
     1
 72
     0
 73
     1
 90
        0
 40
-0.6
 41
-30.0
 62
     5
 63
     7
 74
     0
 91
        4
 64
     7
 65
   257
 75
     1
175
     1
 42
1.0
 92
        8
 66
     7
 43
1.0
 76
     1
 77
     6
 78
     2
 67
     7
 79
     5
170
     0
171
     0
290
     0
174
     0
 93
        1
 44
0.0
173
     0
291
     1
 45
0.0
1001
ACAD
1000
AcDbSavedByObjectVersion
1070
     0
1000
AcDbSavedByObjectVersion
1070
     0
  0
VISUALSTYLE
  5
910
102
{ACAD_REACTORS
330
904
102
}
330
904
100
AcDbVisualStyle
  2
Brighten
 70
    12
 71
     2
 72
     2
 73
     0
 90
        0
 40
-0.6
 41
-30.0
 62
     5
 63
     7
 74
     1
 91
        4
 64
     7
 65
   257
 75
     1
175
     1
 42
1.0
 92
        8
 66
     7
 43
1.0
 76
     1
 77
     6
 78
     2
 67
     7
 79
     5
170
     0
171
     0
290
     0
174
     0
 93
        1
 44
50.0
173
     0
291
     1
 45
0.0
1001
ACAD
1000
AcDbSavedByObjectVersion
1070
     0
1000
AcDbSavedByObjectVersion
1070
     0
  0
VISUALSTYLE
  5
914
102
{ACAD_REACTORS
330
904
102
}
330
904
100
AcDbVisualStyle
  2
ColorChange
 70
    16
 71
     2
 72
     2
 73
     3
 90
        0
 40
-0.6
 41
-30.0
 62
     5
 63
     8
 74
     1
 91
        4
 64
     7
 65
   257
 75
     1
175
     1
 42
1.0
 92
        8
 66
     8
 43
1.0
 76
     1
 77
     6
 78
     2
 67
     7
 79
     5
170
     0
171
     0
290
     0
174
     0
 93
        1
 44
0.0
173
     0
291
     1
 45
0.0
1001
ACAD
1000
AcDbSavedByObjectVersion
1070
     0
1000
AcDbSavedByObjectVersion
1070
     0
  0
VISUALSTYLE
  5
90D
102
{ACAD_REACTORS
330
904
102
}
330
904
100
AcDbVisualStyle
  2
Conceptual
 70
     9
 71
     3
 72
     2
 73
     0
 90
        0
 40
-0.6
 41
-30.0
 62
     5
 63
     7
 74
     2
 91
        2
 64
     7
 65
   257
 75
     1
175
     1
 42
40.0
 92
        8
 66
     7
 43
1.0
 76
     1
 77
     6
 78
     2
 67
     7
 79
     3
170
     0
171
     0
290
     0
174
     0
 93
        1
 44
0.0
173
     0
291
     0
 45
0.0
1001
ACAD
1000
AcDbSavedByObjectVersion
1070
     0
1000
AcDbSavedByObjectVersion
1070
     0
  0
VISUALSTYLE
  5
90F
102
{ACAD_REACTORS
330
904
102
}
330
904
100
AcDbVisualStyle
  2
Dim
 70
    11
 71
     2
 72
     2
 73
     0
 90
        0
 40
-0.6
 41
-30.0
 62
     5
 63
     7
 74
     1
 91
        4
 64
     7
 65
   257
 75
     1
175
     1
 42
1.0
 92
        8
 66
     7
 43
1.0
 76
     1
 77
     6
 78
     2
 67
     7
 79
     5
170
     0
171
     0
290
     0
174
     0
 93
        1
 44
-50.0
173
     0
291
     1
 45
0.0
1001
ACAD
1000
AcDbSavedByObjectVersion
1070
     0
1000
AcDbSavedByObjectVersion
1070
     0
  0
VISUALSTYLE
  5
913
102
{ACAD_REACTORS
330
904
102
}
330
904
100
AcDbVisualStyle
  2
Facepattern
 70
    15
 71
     2
 72
     2
 73
     0
 90
        0
 40
-0.6
 41
-30.0
 62
     5
 63
     7
 74
     1
 91
        4
 64
     7
 65
   257
 75
     1
175
     1
 42
1.0
 92
        8
 66
     7
 43
1.0
 76
     1
 77
     6
 78
     2
 67
     7
 79
     5
170
     0
171
     0
290
     0
174
     0
 93
        1
 44
0.0
173
     0
291
     1
 45
0.0
1001
ACAD
1000
AcDbSavedByObjectVersion
1070
     0
1000
AcDbSavedByObjectVersion
1070
     0
  0
VISUALSTYLE
  5
905
102
{ACAD_REACTORS
330
904
102
}
330
904
100
AcDbVisualStyle
  2
Flat
 70
     0
 71
     2
 72
     1
 73
     1
 90
        2
 40
-0.6
 41
30.0
 62
     5
 63
     7
 74
     0
 91
        4
 64
     7
 65
   257
 75
     1
175
     1
 42
1.0
 92
        8
 66
     7
 43
1.0
 76
     1
 77
     6
 78
     2
 67
     7
 79
     5
170
     0
171
     0
290
     0
174
     0
 93
       13
 44
0.0
173
     0
291
     1
 45
0.0
1001
ACAD
1000
AcDbSavedByObjectVersion
1070
     0
1000
AcDbSavedByObjectVersion
1070
     0
  0
VISUALSTYLE
  5
906
102
{ACAD_REACTORS
330
904
102
}
330
904
100
AcDbVisualStyle
  2
FlatWithEdges
 70
     1
 71
     2
 72
     1
 73
     1
 90
        2
 40
-0.6
 41
30.0
 62
     5
 63
     7
 74
     1
 91
        4
 64
     7
 65
   257
 75
     1
175
     1
 42
1.0
 92
        0
 66
   257
 43
1.0
 76
     1
 77
     6
 78
     2
 67
     7
 79
     5
170
     0
171
     0
290
     0
174
     0
 93
       13
 44
0.0
173
     0
291
     1
 45
0.0
1001
ACAD
1000
AcDbSavedByObjectVersion
1070
     0
1000
AcDbSavedByObjectVersion
1070
     0
  0
VISUALSTYLE
  5
907
102
{ACAD_REACTORS
330
904
102
}
330
904
100
AcDbVisualStyle
  2
Gouraud
 70
     2
 71
     2
 72
     2
 73
     1
 90
        2
 40
-0.6
 41
30.0
 62
     5
 63
     7
 74
     0
 91
        4
 64
     7
 65
   257
 75
     1
175
     1
 42
1.0
 92
        0
 66
     7
 43
1.0
 76
     1
 77
     6
 78
     2
 67
     7
 79
     5
170
     0
171
     0
290
     0
174
     0
 93
       13
 44
0.0
173
     0
291
     1
 45
0.0
1001
ACAD
1000
AcDbSavedByObjectVersion
1070
     0
1000
AcDbSavedByObjectVersion
1070
     0
  0
VISUALSTYLE
  5
908
102
{ACAD_REACTORS
330
904
102
}
330
904
100
AcDbVisualStyle
  2
GouraudWithEdges
 70
     3
 71
     2
 72
     2
 73
     1
 90
        2
 40
-0.6
 41
30.0
 62
     5
 63
     7
 74
     1
 91
        4
 64
     7
 65
   257
 75
     1
175
     1
 42
1.0
 92
        0
 66
   257
 43
1.0
 76
     1
 77
     6
 78
     2
 67
     7
 79
     5
170
     0
171
     0
290
     0
174
     0
 93
       13
 44
0.0
173
     0
291
     1
 45
0.0
1001
ACAD
1000
AcDbSavedByObjectVersion
1070
     0
1000
AcDbSavedByObjectVersion
1070
     0
  0
VISUALSTYLE
  5
912
102
{ACAD_REACTORS
330
904
102
}
330
904
100
AcDbVisualStyle
  2
Linepattern
 70
    14
 71
     2
 72
     2
 73
     0
 90
        0
 40
-0.6
 41
-30.0
 62
     5
 63
     7
 74
     1
 91
        4
 64
     7
 65
   257
 75
     7
175
     7
 42
1.0
 92
        8
 66
     7
 43
1.0
 76
     1
 77
     6
 78
     2
 67
     7
 79
     5
170
     0
171
     0
290
     0
174
     0
 93
        1
 44
0.0
173
     0
291
     1
 45
0.0
1001
ACAD
1000
AcDbSavedByObjectVersion
1070
     0
1000
AcDbSavedByObjectVersion
1070
     0
  0
VISUALSTYLE
  5
90E
102
{ACAD_REACTORS
330
904
102
}
330
904
100
AcDbVisualStyle
  2
Realistic
 70
     8
 71
     2
 72
     2
 73
     0
 90
        0
 40
-0.6
 41
-30.0
 62
     5
 63
     7
 74
     1
 91
        0
 64
     7
 65
   257
 75
     1
175
     1
 42
1.0
 92
        8
 66
     8
 43
1.0
 76
     1
 77
     6
 78
     2
 67
     7
 79
     5
170
     0
171
     0
290
     0
174
     0
 93
       13
 44
0.0
173
     0
291
     0
 45
0.0
1001
ACAD
1000
AcDbSavedByObjectVersion
1070
     0
1000
AcDbSavedByObjectVersion
1070
     0
  0
VISUALSTYLE
  5
911
102
{ACAD_REACTORS
330
904
102
}
330
904
100
AcDbVisualStyle
  2
Thicken
 70
    13
 71
     2
 72
     2
 73
     0
 90
        0
 40
-0.6
 41
-30.0
 62
     5
 63
     7
 74
     1
 91
        4
 64
     7
 65
   257
 75
     1
175
     1
 42
1.0
 92
       12
 66
     7
 43
1.0
 76
     1
 77
     6
 78
     2
 67
     7
 79
     5
170
     0
171
     0
290
     0
174
     0
 93
        1
 44
0.0
173
     0
291
     1
 45
0.0
1001
ACAD
1000
AcDbSavedByObjectVersion
1070
     0
1000
AcDbSavedByObjectVersion
1070
     0
  0
DICTIONARYVAR
  5
D52
102
{ACAD_REACTORS
330
7AF
102
}
330
7AF
100
DictionaryVariables
280
     0
  1
1:1
  0
DICTIONARYVAR
  5
D51
102
{ACAD_REACTORS
330
7AF
102
}
330
7AF
100
DictionaryVariables
280
     0
  1
STANDARD
  0
DICTIONARYVAR
  5
7C8
102
{ACAD_REACTORS
330
7AF
102
}
330
7AF
100
DictionaryVariables
280
     0
  1
STANDARD
  0
DICTIONARYVAR
  5
7B0
102
{ACAD_REACTORS
330
7AF
102
}
330
7AF
100
DictionaryVariables
280
     0
  1
1
  0
DICTIONARYVAR
  5
D54
102
{ACAD_REACTORS
330
7AF
102
}
330
7AF
100
DictionaryVariables
280
     0
  1
0
  0
DICTIONARYVAR
  5
D53
102
{ACAD_REACTORS
330
7AF
102
}
330
7AF
100
DictionaryVariables
280
     0
  1
127
  0
DICTIONARY
  5
1504
330
1E
100
AcDbDictionary
280
     1
281
     1
  3
ACAD_XREC_ROUNDTRIP
360
1505
  0
DICTIONARY
  5
1508
330
26
100
AcDbDictionary
280
     1
281
     1
  3
ACAD_XREC_ROUNDTRIP
360
1509
  0
DICTIONARY
  5
1506
330
22
100
AcDbDictionary
280
     1
281
     1
  3
ACAD_XREC_ROUNDTRIP
360
1507
  0
DICTIONARY
  5
D42
330
D41
100
AcDbDictionary
280
     1
281
     1
  3
ACAD_XREC_ROUNDTRIP
360
D63
  3
BUMPTILE
360
D47
  3
DIFFUSETILE
360
D43
  3
OPACITYTILE
360
D46
  3
REFLECTIONTILE
360
D45
  3
REFRACTIONTILE
360
D48
  3
SPECULARTILE
360
D44
  0
DICTIONARY
  5
8F5
330
8F4
100
AcDbDictionary
280
     1
281
     1
  3
ACAD_XREC_ROUNDTRIP
360
D61
  3
BUMPTILE
360
8F7
  3
DIFFUSETILE
360
8F6
  3
OPACITYTILE
360
8FA
  3
REFLECTIONTILE
360
8F9
  3
REFRACTIONTILE
360
8FB
  3
SPECULARTILE
360
8F8
  0
DICTIONARY
  5
8ED
330
8EC
100
AcDbDictionary
280
     1
281
     1
  3
ACAD_XREC_ROUNDTRIP
360
D60
  3
BUMPTILE
360
8EF
  3
DIFFUSETILE
360
8EE
  3
OPACITYTILE
360
8F2
  3
REFLECTIONTILE
360
8F1
  3
REFRACTIONTILE
360
8F3
  3
SPECULARTILE
360
8F0
  0
DICTIONARY
  5
8FD
330
8FC
100
AcDbDictionary
280
     1
281
     1
  3
ACAD_XREC_ROUNDTRIP
360
D62
  3
BUMPTILE
360
8FF
  3
DIFFUSETILE
360
8FE
  3
OPACITYTILE
360
902
  3
REFLECTIONTILE
360
901
  3
REFRACTIONTILE
360
903
  3
SPECULARTILE
360
900
  0
DICTIONARY
  5
D55
330
7B9
100
AcDbDictionary
280
     1
281
     1
  3
ACAD_ROUNDTRIP_2008_TABLESTYLE_CELLSTYLEMAP
360
1502
  3
ACAD_XREC_ROUNDTRIP
360
150A
  0
XRECORD
  5
1505
102
{ACAD_REACTORS
330
1504
102
}
330
1504
100
AcDbXrecord
280
     1
102
SHADEPLOT
 70
     0
102
SHADEPLOTRESLEVEL
 70
     2
102
SHADEPLOTCUSTOMDPI
 70
   300
  0
XRECORD
  5
1509
102
{ACAD_REACTORS
330
1508
102
}
330
1508
100
AcDbXrecord
280
     1
102
SHADEPLOT
 70
     0
102
SHADEPLOTRESLEVEL
 70
     2
102
SHADEPLOTCUSTOMDPI
 70
   300
  0
XRECORD
  5
1507
102
{ACAD_REACTORS
330
1506
102
}
330
1506
100
AcDbXrecord
280
     1
102
SHADEPLOT
 70
     0
102
SHADEPLOTRESLEVEL
 70
     2
102
SHADEPLOTCUSTOMDPI
 70
   300
  0
XRECORD
  5
D63
102
{ACAD_REACTORS
330
D42
102
}
330
D42
100
AcDbXrecord
280
     1
102
MATERIAL
148
0.0
149
0.0
149
0.0
 93
        0
 94
      127
282
     0
 72
     0
 77
     0
171
     0
175
     0
179
     0
273
     0
  0
XRECORD
  5
D47
102
{ACAD_REACTORS
330
D42
102
}
330
D42
100
AcDbXrecord
280
     1
270
     1
271
     1
  0
XRECORD
  5
D43
102
{ACAD_REACTORS
330
D42
102
}
330
D42
100
AcDbXrecord
280
     1
270
     1
271
     1
  0
XRECORD
  5
D46
102
{ACAD_REACTORS
330
D42
102
}
330
D42
100
AcDbXrecord
280
     1
270
     1
271
     1
  0
XRECORD
  5
D45
102
{ACAD_REACTORS
330
D42
102
}
330
D42
100
AcDbXrecord
280
     1
270
     1
271
     1
  0
XRECORD
  5
D48
102
{ACAD_REACTORS
330
D42
102
}
330
D42
100
AcDbXrecord
280
     1
270
     1
271
     1
  0
XRECORD
  5
D44
102
{ACAD_REACTORS
330
D42
102
}
330
D42
100
AcDbXrecord
280
     1
270
     1
271
     1
  0
XRECORD
  5
D61
102
{ACAD_REACTORS
330
8F5
102
}
330
8F5
100
AcDbXrecord
280
     1
102
MATERIAL
148
0.0
149
0.0
149
0.0
 93
        0
 94
      127
282
     0
 72
     0
 77
     0
171
     0
175
     0
179
     0
273
     0
  0
XRECORD
  5
8F7
102
{ACAD_REACTORS
330
8F5
102
}
330
8F5
100
AcDbXrecord
280
     1
270
     1
271
     1
  0
XRECORD
  5
8F6
102
{ACAD_REACTORS
330
8F5
102
}
330
8F5
100
AcDbXrecord
280
     1
270
     1
271
     1
  0
XRECORD
  5
8FA
102
{ACAD_REACTORS
330
8F5
102
}
330
8F5
100
AcDbXrecord
280
     1
270
     1
271
     1
  0
XRECORD
  5
8F9
102
{ACAD_REACTORS
330
8F5
102
}
330
8F5
100
AcDbXrecord
280
     1
270
     1
271
     1
  0
XRECORD
  5
8FB
102
{ACAD_REACTORS
330
8F5
102
}
330
8F5
100
AcDbXrecord
280
     1
270
     1
271
     1
  0
XRECORD
  5
8F8
102
{ACAD_REACTORS
330
8F5
102
}
330
8F5
100
AcDbXrecord
280
     1
270
     1
271
     1
  0
XRECORD
  5
D60
102
{ACAD_REACTORS
330
8ED
102
}
330
8ED
100
AcDbXrecord
280
     1
102
MATERIAL
148
0.0
149
0.0
149
0.0
 93
        0
 94
      127
282
     0
 72
     0
 77
     0
171
     0
175
     0
179
     0
273
     0
  0
XRECORD
  5
8EF
102
{ACAD_REACTORS
330
8ED
102
}
330
8ED
100
AcDbXrecord
280
     1
270
     1
271
     1
  0
XRECORD
  5
8EE
102
{ACAD_REACTORS
330
8ED
102
}
330
8ED
100
AcDbXrecord
280
     1
270
     1
271
     1
  0
XRECORD
  5
8F2
102
{ACAD_REACTORS
330
8ED
102
}
330
8ED
100
AcDbXrecord
280
     1
270
     1
271
     1
  0
XRECORD
  5
8F1
102
{ACAD_REACTORS
330
8ED
102
}
330
8ED
100
AcDbXrecord
280
     1
270
     1
271
     1
  0
XRECORD
  5
8F3
102
{ACAD_REACTORS
330
8ED
102
}
330
8ED
100
AcDbXrecord
280
     1
270
     1
271
     1
  0
XRECORD
  5
8F0
102
{ACAD_REACTORS
330
8ED
102
}
330
8ED
100
AcDbXrecord
280
     1
270
     1
271
     1
  0
XRECORD
  5
D62
102
{ACAD_REACTORS
330
8FD
102
}
330
8FD
100
AcDbXrecord
280
     1
102
MATERIAL
148
0.0
149
0.0
149
0.0
 93
        0
 94
      127
282
     0
 72
     0
 77
     0
171
     0
175
     0
179
     0
273
     0
  0
XRECORD
  5
8FF
102
{ACAD_REACTORS
330
8FD
102
}
330
8FD
100
AcDbXrecord
280
     1
270
     1
271
     1
  0
XRECORD
  5
8FE
102
{ACAD_REACTORS
330
8FD
102
}
330
8FD
100
AcDbXrecord
280
     1
270
     1
271
     1
  0
XRECORD
  5
902
102
{ACAD_REACTORS
330
8FD
102
}
330
8FD
100
AcDbXrecord
280
     1
270
     1
271
     1
  0
XRECORD
  5
901
102
{ACAD_REACTORS
330
8FD
102
}
330
8FD
100
AcDbXrecord
280
     1
270
     1
271
     1
  0
XRECORD
  5
903
102
{ACAD_REACTORS
330
8FD
102
}
330
8FD
100
AcDbXrecord
280
     1
270
     1
271
     1
  0
XRECORD
  5
900
102
{ACAD_REACTORS
330
8FD
102
}
330
8FD
100
AcDbXrecord
280
     1
270
     1
271
     1
  0
CELLSTYLEMAP
  5
1502
102
{ACAD_REACTORS
330
D55
102
}
330
D55
100
AcDbCellStyleMap
 90
        3
300
CELLSTYLE
  1
TABLEFORMAT_BEGIN
 90
        5
170
     1
 91
        0
 92
    32768
 62
   257
 93
        1
300
CONTENTFORMAT
  1
CONTENTFORMAT_BEGIN
 90
        0
 91
        0
 92
        4
 93
        0
300

 40
0.0
140
1.0
 94
        5
 62
     0
340
11
144
0.25
309
CONTENTFORMAT_END
171
     1
301
MARGIN
  1
CELLMARGIN_BEGIN
 40
0.06
 40
0.06
 40
0.06
 40
0.06
 40
0.18
 40
0.18
309
CELLMARGIN_END
 94
        6
 95
        1
302
GRIDFORMAT
  1
GRIDFORMAT_BEGIN
 90
        0
 91
        1
 62
     0
 92
       -2
340
0
 93
        0
 40
0.045
309
GRIDFORMAT_END
 95
        2
302
GRIDFORMAT
  1
GRIDFORMAT_BEGIN
 90
        0
 91
        1
 62
     0
 92
       -2
340
0
 93
        0
 40
0.045
309
GRIDFORMAT_END
 95
        4
302
GRIDFORMAT
  1
GRIDFORMAT_BEGIN
 90
        0
 91
        1
 62
     0
 92
       -2
340
0
 93
        0
 40
0.045
309
GRIDFORMAT_END
 95
        8
302
GRIDFORMAT
  1
GRIDFORMAT_BEGIN
 90
        0
 91
        1
 62
     0
 92
       -2
340
0
 93
        0
 40
0.045
309
GRIDFORMAT_END
 95
       16
302
GRIDFORMAT
  1
GRIDFORMAT_BEGIN
 90
        0
 91
        1
 62
     0
 92
       -2
340
0
 93
        0
 40
0.045
309
GRIDFORMAT_END
 95
       32
302
GRIDFORMAT
  1
GRIDFORMAT_BEGIN
 90
        0
 91
        1
 62
     0
 92
       -2
340
0
 93
        0
 40
0.045
309
GRIDFORMAT_END
309
TABLEFORMAT_END
  1
CELLSTYLE_BEGIN
 90
        1
 91
        1
300
_TITLE
309
CELLSTYLE_END
300
CELLSTYLE
  1
TABLEFORMAT_BEGIN
 90
        5
170
     1
 91
        0
 92
        0
 62
   257
 93
        1
300
CONTENTFORMAT
  1
CONTENTFORMAT_BEGIN
 90
        0
 91
        0
 92
        4
 93
        0
300

 40
0.0
140
1.0
 94
        5
 62
     0
340
11
144
0.18
309
CONTENTFORMAT_END
171
     1
301
MARGIN
  1
CELLMARGIN_BEGIN
 40
0.06
 40
0.06
 40
0.06
 40
0.06
 40
0.18
 40
0.18
309
CELLMARGIN_END
 94
        6
 95
        1
302
GRIDFORMAT
  1
GRIDFORMAT_BEGIN
 90
        0
 91
        1
 62
     0
 92
       -2
340
0
 93
        0
 40
0.045
309
GRIDFORMAT_END
 95
        2
302
GRIDFORMAT
  1
GRIDFORMAT_BEGIN
 90
        0
 91
        1
 62
     0
 92
       -2
340
0
 93
        0
 40
0.045
309
GRIDFORMAT_END
 95
        4
302
GRIDFORMAT
  1
GRIDFORMAT_BEGIN
 90
        0
 91
        1
 62
     0
 92
       -2
340
0
 93
        0
 40
0.045
309
GRIDFORMAT_END
 95
        8
302
GRIDFORMAT
  1
GRIDFORMAT_BEGIN
 90
        0
 91
        1
 62
     0
 92
       -2
340
0
 93
        0
 40
0.045
309
GRIDFORMAT_END
 95
       16
302
GRIDFORMAT
  1
GRIDFORMAT_BEGIN
 90
        0
 91
        1
 62
     0
 92
       -2
340
0
 93
        0
 40
0.045
309
GRIDFORMAT_END
 95
       32
302
GRIDFORMAT
  1
GRIDFORMAT_BEGIN
 90
        0
 91
        1
 62
     0
 92
       -2
340
0
 93
        0
 40
0.045
309
GRIDFORMAT_END
309
TABLEFORMAT_END
  1
CELLSTYLE_BEGIN
 90
        2
 91
        1
300
_HEADER
309
CELLSTYLE_END
300
CELLSTYLE
  1
TABLEFORMAT_BEGIN
 90
        5
170
     1
 91
        0
 92
        0
 62
   257
 93
        1
300
CONTENTFORMAT
  1
CONTENTFORMAT_BEGIN
 90
        0
 91
        0
 92
        4
 93
        0
300

 40
0.0
140
1.0
 94
        2
 62
     0
340
11
144
0.18
309
CONTENTFORMAT_END
171
     1
301
MARGIN
  1
CELLMARGIN_BEGIN
 40
0.06
 40
0.06
 40
0.06
 40
0.06
 40
0.18
 40
0.18
309
CELLMARGIN_END
 94
        6
 95
        1
302
GRIDFORMAT
  1
GRIDFORMAT_BEGIN
 90
        0
 91
        1
 62
     0
 92
       -2
340
0
 93
        0
 40
0.045
309
GRIDFORMAT_END
 95
        2
302
GRIDFORMAT
  1
GRIDFORMAT_BEGIN
 90
        0
 91
        1
 62
     0
 92
       -2
340
0
 93
        0
 40
0.045
309
GRIDFORMAT_END
 95
        4
302
GRIDFORMAT
  1
GRIDFORMAT_BEGIN
 90
        0
 91
        1
 62
     0
 92
       -2
340
0
 93
        0
 40
0.045
309
GRIDFORMAT_END
 95
        8
302
GRIDFORMAT
  1
GRIDFORMAT_BEGIN
 90
        0
 91
        1
 62
     0
 92
       -2
340
0
 93
        0
 40
0.045
309
GRIDFORMAT_END
 95
       16
302
GRIDFORMAT
  1
GRIDFORMAT_BEGIN
 90
        0
 91
        1
 62
     0
 92
       -2
340
0
 93
        0
 40
0.045
309
GRIDFORMAT_END
 95
       32
302
GRIDFORMAT
  1
GRIDFORMAT_BEGIN
 90
        0
 91
        1
 62
     0
 92
       -2
340
0
 93
        0
 40
0.045
309
GRIDFORMAT_END
309
TABLEFORMAT_END
  1
CELLSTYLE_BEGIN
 90
        3
 91
        2
300
_DATA
309
CELLSTYLE_END
  0
XRECORD
  5
150A
102
{ACAD_REACTORS
330
D55
102
}
330
D55
100
AcDbXrecord
280
     1
102
ACAD_ROUNDTRIP_PRE2007_TABLESTYLE
 90
        4
 91
        0
  1

 92
        4
 93
        0
  2

 94
        4
 95
        0
  3

  0
ENDSEC
  0
EOF
