  0
SECTION
  2
HEADER
  9
$ACADVER
  1
AC1015
  9
$ACADMAINTVER
 70
    20
  9
$DWGCODEPAGE
  3
ANSI_1252
  9
$INSBASE
 10
0.0
 20
0.0
 30
0.0
  9
$EXTMIN
 10
-1.5
 20
-1.499999999999999
 30
0.0000000000000007
  9
$EXTMAX
 10
1.5
 20
1.5
 30
35.5
  9
$LIMMIN
 10
0.0
 20
0.0
  9
$LIMMAX
 10
12.0
 20
9.0
  9
$ORTHOMODE
 70
     0
  9
$REGENMODE
 70
     1
  9
$FILLMODE
 70
     1
  9
$QTEXTMODE
 70
     0
  9
$MIRRTEXT
 70
     1
  9
$LTSCALE
 40
1.0
  9
$ATTMODE
 70
     1
  9
$TEXTSIZE
 40
0.2
  9
$TRACEWID
 40
0.05
  9
$TEXTSTYLE
  7
Standard
  9
$CLAYER
  8
0
  9
$CELTYPE
  6
ByLayer
  9
$CECOLOR
 62
   256
  9
$CELTSCALE
 40
1.0
  9
$DISPSILH
 70
     0
  9
$DIMSCALE
 40
3.0
  9
$DIMASZ
 40
0.2
  9
$DIMEXO
 40
0.1
  9
$DIMDLI
 40
0.38
  9
$DIMRND
 40
0.0
  9
$DIMDLE
 40
0.0
  9
$DIMEXE
 40
0.18
  9
$DIMTP
 40
0.0
  9
$DIMTM
 40
0.0
  9
$DIMTXT
 40
0.2
  9
$DIMCEN
 40
0.09
  9
$DIMTSZ
 40
0.0
  9
$DIMTOL
 70
     0
  9
$DIMLIM
 70
     0
  9
$DIMTIH
 70
     1
  9
$DIMTOH
 70
     1
  9
$DIMSE1
 70
     0
  9
$DIMSE2
 70
     0
  9
$DIMTAD
 70
     0
  9
$DIMZIN
 70
     0
  9
$DIMBLK
  1
ArchTick
  9
$DIMASO
 70
     1
  9
$DIMSHO
 70
     1
  9
$DIMPOST
  1
"
  9
$DIMAPOST
  1

  9
$DIMALT
 70
     0
  9
$DIMALTD
 70
     2
  9
$DIMALTF
 40
25.4
  9
$DIMLFAC
 40
1.0
  9
$DIMTOFL
 70
     0
  9
$DIMTVP
 40
0.0
  9
$DIMTIX
 70
     0
  9
$DIMSOXD
 70
     0
  9
$DIMSAH
 70
     0
  9
$DIMBLK1
  1

  9
$DIMBLK2
  1

  9
$DIMSTYLE
  2
OWP Standard
  9
$DIMCLRD
 70
     0
  9
$DIMCLRE
 70
     0
  9
$DIMCLRT
 70
     0
  9
$DIMTFAC
 40
1.0
  9
$DIMGAP
 40
0.09
  9
$DIMJUST
 70
     0
  9
$DIMSD1
 70
     0
  9
$DIMSD2
 70
     0
  9
$DIMTOLJ
 70
     1
  9
$DIMTZIN
 70
     0
  9
$DIMALTZ
 70
     0
  9
$DIMALTTZ
 70
     0
  9
$DIMUPT
 70
     0
  9
$DIMDEC
 70
     4
  9
$DIMTDEC
 70
     4
  9
$DIMALTU
 70
     2
  9
$DIMALTTD
 70
     2
  9
$DIMTXSTY
  7
Standard
  9
$DIMAUNIT
 70
     0
  9
$DIMADEC
 70
     0
  9
$DIMALTRND
 40
0.0
  9
$DIMAZIN
 70
     0
  9
$DIMDSEP
 70
    46
  9
$DIMATFIT
 70
     3
  9
$DIMFRAC
 70
     0
  9
$DIMLDRBLK
  1

  9
$DIMLUNIT
 70
     5
  9
$DIMLWD
 70
    -2
  9
$DIMLWE
 70
    -2
  9
$DIMTMOVE
 70
     0
  9
$LUNITS
 70
     2
  9
$LUPREC
 70
     4
  9
$SKETCHINC
 40
0.1
  9
$FILLETRAD
 40
0.0
  9
$AUNITS
 70
     0
  9
$AUPREC
 70
     0
  9
$MENU
  1
.
  9
$ELEVATION
 40
0.0
  9
$PELEVATION
 40
0.0
  9
$THICKNESS
 40
0.0
  9
$LIMCHECK
 70
     0
  9
$CHAMFERA
 40
0.5
  9
$CHAMFERB
 40
0.5
  9
$CHAMFERC
 40
1.0
  9
$CHAMFERD
 40
0.0
  9
$SKPOLY
 70
     0
  9
$TDCREATE
 40
2456063.473566135
  9
$TDUCREATE
 40
2456063.640232801
  9
$TDUPDATE
 40
2456064.561304664
  9
$TDUUPDATE
 40
2456064.727971331
  9
$TDINDWG
 40
0.0050570718
  9
$TDUSRTIMER
 40
0.0050569676
  9
$USRTIMER
 70
     1
  9
$ANGBASE
 50
0.0
  9
$ANGDIR
 70
     0
  9
$PDMODE
 70
     0
  9
$PDSIZE
 40
0.0
  9
$PLINEWID
 40
0.0
  9
$SPLFRAME
 70
     0
  9
$SPLINETYPE
 70
     6
  9
$SPLINESEGS
 70
     8
  9
$HANDSEED
  5
39E
  9
$SURFTAB1
 70
     6
  9
$SURFTAB2
 70
     6
  9
$SURFTYPE
 70
     6
  9
$SURFU
 70
     6
  9
$SURFV
 70
     6
  9
$UCSBASE
  2

  9
$UCSNAME
  2

  9
$UCSORG
 10
0.0
 20
0.0
 30
0.0
  9
$UCSXDIR
 10
1.0
 20
0.0
 30
0.0
  9
$UCSYDIR
 10
0.0
 20
0.0
 30
1.0
  9
$UCSORTHOREF
  2

  9
$UCSORTHOVIEW
 70
     3
  9
$UCSORGTOP
 10
0.0
 20
0.0
 30
0.0
  9
$UCSORGBOTTOM
 10
0.0
 20
0.0
 30
0.0
  9
$UCSORGLEFT
 10
0.0
 20
0.0
 30
0.0
  9
$UCSORGRIGHT
 10
0.0
 20
0.0
 30
0.0
  9
$UCSORGFRONT
 10
0.0
 20
0.0
 30
0.0
  9
$UCSORGBACK
 10
0.0
 20
0.0
 30
0.0
  9
$PUCSBASE
  2

  9
$PUCSNAME
  2

  9
$PUCSORG
 10
0.0
 20
0.0
 30
0.0
  9
$PUCSXDIR
 10
1.0
 20
0.0
 30
0.0
  9
$PUCSYDIR
 10
0.0
 20
1.0
 30
0.0
  9
$PUCSORTHOREF
  2

  9
$PUCSORTHOVIEW
 70
     0
  9
$PUCSORGTOP
 10
0.0
 20
0.0
 30
0.0
  9
$PUCSORGBOTTOM
 10
0.0
 20
0.0
 30
0.0
  9
$PUCSORGLEFT
 10
0.0
 20
0.0
 30
0.0
  9
$PUCSORGRIGHT
 10
0.0
 20
0.0
 30
0.0
  9
$PUCSORGFRONT
 10
0.0
 20
0.0
 30
0.0
  9
$PUCSORGBACK
 10
0.0
 20
0.0
 30
0.0
  9
$USERI1
 70
     0
  9
$USERI2
 70
     0
  9
$USERI3
 70
     0
  9
$USERI4
 70
     0
  9
$USERI5
 70
     0
  9
$USERR1
 40
0.0
  9
$USERR2
 40
0.0
  9
$USERR3
 40
0.0
  9
$USERR4
 40
0.0
  9
$USERR5
 40
0.0
  9
$WORLDVIEW
 70
     1
  9
$SHADEDGE
 70
     3
  9
$SHADEDIF
 70
    70
  9
$TILEMODE
 70
     1
  9
$MAXACTVP
 70
    64
  9
$PINSBASE
 10
0.0
 20
0.0
 30
0.0
  9
$PLIMCHECK
 70
     0
  9
$PEXTMIN
 10
1.000000000000000E+20
 20
1.000000000000000E+20
 30
1.000000000000000E+20
  9
$PEXTMAX
 10
-1.000000000000000E+20
 20
-1.000000000000000E+20
 30
-1.000000000000000E+20
  9
$PLIMMIN
 10
0.0
 20
0.0
  9
$PLIMMAX
 10
12.0
 20
9.0
  9
$UNITMODE
 70
     0
  9
$VISRETAIN
 70
     1
  9
$PLINEGEN
 70
     0
  9
$PSLTSCALE
 70
     1
  9
$TREEDEPTH
 70
  3020
  9
$CMLSTYLE
  2
Standard
  9
$CMLJUST
 70
     0
  9
$CMLSCALE
 40
1.0
  9
$PROXYGRAPHICS
 70
     1
  9
$MEASUREMENT
 70
     0
  9
$CELWEIGHT
370
    -1
  9
$ENDCAPS
280
     0
  9
$JOINSTYLE
280
     0
  9
$LWDISPLAY
290
     0
  9
$INSUNITS
 70
     1
  9
$HYPERLINKBASE
  1

  9
$STYLESHEET
  1

  9
$XEDIT
290
     1
  9
$CEPSNTYPE
380
     0
  9
$PSTYLEMODE
290
     1
  9
$FINGERPRINTGUID
  2
{A1ADAE36-F5A2-479C-9824-18693A94FB05}
  9
$VERSIONGUID
  2
{05996C34-BC87-4C34-A60B-6EE23684567E}
  9
$EXTNAMES
290
     1
  9
$PSVPSCALE
 40
0.0
  9
$OLESTARTUP
290
     0
  0
ENDSEC
  0
SECTION
  2
CLASSES
  0
CLASS
  1
ACDBDICTIONARYWDFLT
  2
AcDbDictionaryWithDefault
  3
ObjectDBX Classes
 90
        0
280
     0
281
     0
  0
CLASS
  1
ACDBPLACEHOLDER
  2
AcDbPlaceHolder
  3
ObjectDBX Classes
 90
        0
280
     0
281
     0
  0
CLASS
  1
LAYOUT
  2
AcDbLayout
  3
ObjectDBX Classes
 90
        0
280
     0
281
     0
  0
CLASS
  1
TABLESTYLE
  2
AcDbTableStyle
  3
ObjectDBX Classes
 90
     4095
280
     0
281
     0
  0
CLASS
  1
DIMASSOC
  2
AcDbDimAssoc
  3
"AcDbDimAssoc|Product Desc:     AcDim ARX App For Dimension|Company:          Autodesk, Inc.|WEB Address:      www.autodesk.com"
 90
    32768
280
     0
281
     0
  0
CLASS
  1
DICTIONARYVAR
  2
AcDbDictionaryVar
  3
ObjectDBX Classes
 90
        0
280
     0
281
     0
  0
CLASS
  1
MATERIAL
  2
AcDbMaterial
  3
ObjectDBX Classes
 90
     1153
280
     0
281
     0
  0
CLASS
  1
VISUALSTYLE
  2
AcDbVisualStyle
  3
ObjectDBX Classes
 90
     4095
280
     0
281
     0
  0
CLASS
  1
SCALE
  2
AcDbScale
  3
ObjectDBX Classes
 90
     1153
280
     0
281
     0
  0
CLASS
  1
MLEADERSTYLE
  2
AcDbMLeaderStyle
  3
ACDB_MLEADERSTYLE_CLASS
 90
     4095
280
     0
281
     0
  0
CLASS
  1
CELLSTYLEMAP
  2
AcDbCellStyleMap
  3
ObjectDBX Classes
 90
     1152
280
     0
281
     0
  0
CLASS
  1
ACSH_HISTORY_CLASS
  2
AcDbShHistory
  3
ObjectDBX Classes
 90
    33921
280
     0
281
     0
  0
CLASS
  1
ACAD_EVALUATION_GRAPH
  2
AcDbEvalGraph
  3
ObjectDBX Classes
 90
    33921
280
     0
281
     0
  0
CLASS
  1
ACSH_EXTRUSION_CLASS
  2
AcDbShExtrusion
  3
ObjectDBX Classes
 90
    33921
280
     0
281
     0
  0
CLASS
  1
ACSH_REVOLVE_CLASS
  2
AcDbShRevolve
  3
ObjectDBX Classes
 90
    33921
280
     0
281
     0
  0
CLASS
  1
ACSH_BOOLEAN_CLASS
  2
AcDbShBoolean
  3
ObjectDBX Classes
 90
    33921
280
     0
281
     0
  0
CLASS
  1
ACDBPERSSUBENTMANAGER
  2
AcDbPersSubentManager
  3
AcDbPersSubentManager
 90
     1024
280
     0
281
     0
  0
CLASS
  1
ACDBASSOCPERSSUBENTMANAGER
  2
AcDbAssocPersSubentManager
  3
ObjectDBX Classes
 90
     1024
280
     0
281
     0
  0
CLASS
  1
SORTENTSTABLE
  2
AcDbSortentsTable
  3
ObjectDBX Classes
 90
        0
280
     0
281
     0
  0
CLASS
  1
SOLID_BACKGROUND
  2
AcDbSolidBackground
  3
SCENEOE
 90
     4095
280
     0
281
     0
  0
CLASS
  1
NPOCOLLECTION
  2
AcDbImpNonPersistentObjectsCollection
  3
ObjectDBX Classes
 90
     1153
280
     0
281
     0
  0
ENDSEC
  0
SECTION
  2
TABLES
  0
TABLE
  2
VPORT
  5
8
330
0
100
AcDbSymbolTable
 70
     1
  0
VPORT
  5
166
330
8
100
AcDbSymbolTableRecord
100
AcDbViewportTableRecord
  2
*Active
 70
     0
 10
0.0
 20
0.0
 11
1.0
 21
1.0
 12
-7.873660570456099
 22
-2.167622136671706
 13
0.0
 23
0.0
 14
0.5
 24
0.5
 15
0.5
 25
0.5
 16
0.0
 26
-1.0
 36
0.0
 17
7.8736605704561
 27
1.946297522597489
 37
19.9176221366717
 40
35.73692992213571
 41
2.132516703786191
 42
50.0
 43
0.0
 44
0.0
 50
0.0
 51
0.0
 71
     0
 72
   100
 73
     1
 74
     3
 75
     0
 76
     0
 77
     0
 78
     0
281
     0
 65
     1
110
0.0
120
0.0
130
0.0
111
1.0
121
0.0
131
0.0
112
0.0
122
0.0
132
1.0
 79
     0
146
0.0
1001
ACAD_NAV_VCDISPLAY
1070
     3
  0
ENDTAB
  0
TABLE
  2
LTYPE
  5
5
330
0
100
AcDbSymbolTable
 70
     1
  0
LTYPE
  5
14
330
5
100
AcDbSymbolTableRecord
100
AcDbLinetypeTableRecord
  2
ByBlock
 70
     0
  3

 72
    65
 73
     0
 40
0.0
  0
LTYPE
  5
15
330
5
100
AcDbSymbolTableRecord
100
AcDbLinetypeTableRecord
  2
ByLayer
 70
     0
  3

 72
    65
 73
     0
 40
0.0
  0
LTYPE
  5
16
330
5
100
AcDbSymbolTableRecord
100
AcDbLinetypeTableRecord
  2
Continuous
 70
     0
  3
Solid line
 72
    65
 73
     0
 40
0.0
  0
ENDTAB
  0
TABLE
  2
LAYER
  5
2
102
{ACAD_XDICTIONARY
360
20C
102
}
330
0
100
AcDbSymbolTable
 70
     3
  0
LAYER
  5
10
102
{ACAD_XDICTIONARY
360
240
102
}
330
2
100
AcDbSymbolTableRecord
100
AcDbLayerTableRecord
  2
0
 70
     0
 62
     7
  6
Continuous
370
    -3
390
F
  0
LAYER
  5
AB
102
{ACAD_XDICTIONARY
360
242
102
}
330
2
100
AcDbSymbolTableRecord
100
AcDbLayerTableRecord
  2
Layer1
 70
     0
 62
     1
  6
Continuous
290
     0
370
    -3
390
F
  0
LAYER
  5
F5
330
2
100
AcDbSymbolTableRecord
100
AcDbLayerTableRecord
  2
Defpoints
 70
     0
 62
     7
  6
Continuous
290
     0
370
    -3
390
F
  0
ENDTAB
  0
TABLE
  2
STYLE
  5
3
330
0
100
AcDbSymbolTable
 70
     1
  0
STYLE
  5
11
330
3
100
AcDbSymbolTableRecord
100
AcDbTextStyleTableRecord
  2
Standard
 70
     0
 40
0.0
 41
1.0
 50
0.0
 71
     0
 42
0.2
  3
txt
  4

  0
ENDTAB
  0
TABLE
  2
VIEW
  5
6
330
0
100
AcDbSymbolTable
 70
     0
  0
ENDTAB
  0
TABLE
  2
UCS
  5
7
330
0
100
AcDbSymbolTable
 70
     0
  0
ENDTAB
  0
TABLE
  2
APPID
  5
9
330
0
100
AcDbSymbolTable
 70
    11
  0
APPID
  5
12
330
9
100
AcDbSymbolTableRecord
100
AcDbRegAppTableRecord
  2
ACAD
 70
     0
  0
APPID
  5
F7
330
9
100
AcDbSymbolTableRecord
100
AcDbRegAppTableRecord
  2
ACAD_DSTYLE_DIMEXT_LENGTH
 70
     0
  0
APPID
  5
F8
330
9
100
AcDbSymbolTableRecord
100
AcDbRegAppTableRecord
  2
ACAD_DSTYLE_DIMEXT_ENABLED
 70
     0
  0
APPID
  5
F9
330
9
100
AcDbSymbolTableRecord
100
AcDbRegAppTableRecord
  2
ACAD_DSTYLE_DIMJOGGED_JOGANGLE_SYMBOL
 70
     0
  0
APPID
  5
FA
330
9
100
AcDbSymbolTableRecord
100
AcDbRegAppTableRecord
  2
ACAD_DSTYLE_DIMARC_LENGTH_SYMBOL
 70
     0
  0
APPID
  5
1B5
330
9
100
AcDbSymbolTableRecord
100
AcDbRegAppTableRecord
  2
ACAD_MLEADERVER
 70
     0
  0
APPID
  5
1C3
330
9
100
AcDbSymbolTableRecord
100
AcDbRegAppTableRecord
  2
ACAD_DSTYLE_DIMJAG
 70
     0
  0
APPID
  5
1C4
330
9
100
AcDbSymbolTableRecord
100
AcDbRegAppTableRecord
  2
ACAD_DSTYLE_DIMTALN
 70
     0
  0
APPID
  5
1EF
330
9
100
AcDbSymbolTableRecord
100
AcDbRegAppTableRecord
  2
AcadAnnotative
 70
     0
  0
APPID
  5
20B
330
9
100
AcDbSymbolTableRecord
100
AcDbRegAppTableRecord
  2
ACAD_NAV_VCDISPLAY
 70
     0
  0
APPID
  5
230
330
9
100
AcDbSymbolTableRecord
100
AcDbRegAppTableRecord
  2
ACAD_EXEMPT_FROM_CAD_STANDARDS
 70
     0
  0
ENDTAB
  0
TABLE
  2
DIMSTYLE
  5
A
330
0
100
AcDbSymbolTable
 70
     3
100
AcDbDimStyleTable
 71
     2
340
F6
340
27
  0
DIMSTYLE
105
27
330
A
100
AcDbSymbolTableRecord
100
AcDbDimStyleTableRecord
  2
Standard
 70
     0
  3
"
 40
3.0
277
     5
340
11
342
4F
  0
DIMSTYLE
105
F6
330
A
100
AcDbSymbolTableRecord
100
AcDbDimStyleTableRecord
  2
OWP Standard
 70
     0
  3
"
 40
3.0
 41
0.2
 42
0.1
140
0.2
277
     5
340
11
342
4F
1001
ACAD_DSTYLE_DIMJOGGED_JOGANGLE_SYMBOL
1070
   384
1040
0.7853981633974483
1001
ACAD_DSTYLE_DIMJAG
1070
   388
1040
1.5
1001
ACAD_DSTYLE_DIMTALN
1070
   392
1070
     0
1001
ACAD_DSTYLE_DIMEXT_LENGTH
1070
   378
1040
0.18
  0
DIMSTYLE
105
1EE
330
A
100
AcDbSymbolTableRecord
100
AcDbDimStyleTableRecord
  2
Annotative
 70
     0
 40
0.0
340
11
1001
AcadAnnotative
1000
AnnotativeData
1002
{
1070
     1
1070
     1
1002
}
1001
ACAD_DSTYLE_DIMJAG
1070
   388
1040
1.5
1001
ACAD_DSTYLE_DIMTALN
1070
   392
1070
     0
  0
ENDTAB
  0
TABLE
  2
BLOCK_RECORD
  5
1
330
0
100
AcDbSymbolTable
 70
     6
  0
BLOCK_RECORD
  5
1F
330
1
100
AcDbSymbolTableRecord
100
AcDbBlockTableRecord
  2
*Model_Space
340
22
  0
BLOCK_RECORD
  5
1B
330
1
100
AcDbSymbolTableRecord
100
AcDbBlockTableRecord
  2
*Paper_Space
340
1E
  0
BLOCK_RECORD
  5
23
330
1
100
AcDbSymbolTableRecord
100
AcDbBlockTableRecord
  2
*Paper_Space0
340
26
  0
BLOCK_RECORD
  5
4F
330
1
100
AcDbSymbolTableRecord
100
AcDbBlockTableRecord
  2
_ArchTick
340
0
  0
BLOCK_RECORD
  5
BA
330
1
100
AcDbSymbolTableRecord
100
AcDbBlockTableRecord
  2
_Oblique
340
0
  0
BLOCK_RECORD
  5
1F0
330
1
100
AcDbSymbolTableRecord
100
AcDbBlockTableRecord
  2
A$C18112A55
340
0
1001
ACAD
1000
DesignCenter Data
1002
{
1070
     1
1070
     1
1002
}
  0
BLOCK_RECORD
  5
21F
102
{ACAD_XDICTIONARY
360
225
102
}
330
1
100
AcDbSymbolTableRecord
100
AcDbBlockTableRecord
  2
A$C067A29E2
340
0
1001
ACAD
1000
DesignCenter Data
1002
{
1070
     1
1070
     1
1002
}
  0
BLOCK_RECORD
  5
2F7
102
{ACAD_XDICTIONARY
360
2FD
102
}
330
1
100
AcDbSymbolTableRecord
100
AcDbBlockTableRecord
  2
A$C3170048A
340
0
1001
ACAD
1000
DesignCenter Data
1002
{
1070
     1
1070
     1
1002
}
  0
ENDTAB
  0
ENDSEC
  0
SECTION
  2
BLOCKS
  0
BLOCK
  5
20
330
1F
100
AcDbEntity
  8
0
100
AcDbBlockBegin
  2
*Model_Space
 70
     0
 10
0.0
 20
0.0
 30
0.0
  3
*Model_Space
  1

  0
ENDBLK
  5
21
330
1F
100
AcDbEntity
  8
0
100
AcDbBlockEnd
  0
BLOCK
  5
1C
330
1B
100
AcDbEntity
 67
     1
  8
0
100
AcDbBlockBegin
  2
*Paper_Space
 70
     0
 10
0.0
 20
0.0
 30
0.0
  3
*Paper_Space
  1

  0
ENDBLK
  5
1D
330
1B
100
AcDbEntity
 67
     1
  8
0
100
AcDbBlockEnd
  0
BLOCK
  5
24
330
23
100
AcDbEntity
 67
     1
  8
0
100
AcDbBlockBegin
  2
*Paper_Space0
 70
     0
 10
0.0
 20
0.0
 30
0.0
  3
*Paper_Space0
  1

  0
ENDBLK
  5
25
330
23
100
AcDbEntity
 67
     1
  8
0
100
AcDbBlockEnd
  0
BLOCK
  5
51
330
4F
100
AcDbEntity
  8
0
100
AcDbBlockBegin
  2
_ArchTick
 70
     0
 10
0.0
 20
0.0
 30
0.0
  3
_ArchTick
  1

  0
LWPOLYLINE
  5
50
330
4F
100
AcDbEntity
  8
0
 62
     0
100
AcDbPolyline
 90
        2
 70
     0
 43
0.15
 10
-0.5
 20
-0.5
 10
0.5
 20
0.5
  0
ENDBLK
  5
52
330
4F
100
AcDbEntity
  8
0
100
AcDbBlockEnd
  0
BLOCK
  5
BB
330
BA
100
AcDbEntity
  8
0
100
AcDbBlockBegin
  2
_Oblique
 70
     0
 10
0.0
 20
0.0
 30
0.0
  3
_Oblique
  1

  0
LINE
  5
BC
330
BA
100
AcDbEntity
  8
0
  6
ByBlock
 62
     0
370
    -2
100
AcDbLine
 10
-0.5
 20
-0.5
 30
0.0
 11
0.5
 21
0.5
 31
0.0
  0
ENDBLK
  5
BD
330
BA
100
AcDbEntity
  8
0
100
AcDbBlockEnd
  0
BLOCK
  5
1F7
330
1F0
100
AcDbEntity
  8
0
100
AcDbBlockBegin
  2
A$C18112A55
 70
     0
 10
0.0
 20
0.0
 30
0.0
  3
A$C18112A55
  1

  0
3DSOLID
  5
1F1
330
1F0
100
AcDbEntity
  8
0
100
AcDbModelerGeometry
 70
     1
  1
koo jmf n o         
  1
ni ^ *+0;:,4 ^ *+0\^ [ nf ^ LR mnhqoqoqkjol QK o  
  1
mjqlffffffffffffff fqfffffffffffffffj:rooh n:rono 
  1
=0;& {rn {n {rn {rn |
  1
3*2/ {rn {rn {m {o |
  1
,7:33 {rn {rn {rn {l {rn {n |
  1
9><: {k {j {i {m {rn {h 90-(>-; ,6183: |
  1
2>+:-6>3r>;:,4r>++-6= {rn {g {rn {l lhi o |
  1
9><: {f {no {nn {m {rn {nm 90-(>-; ,6183: |
  1
300/ {rn {nl {nk {l |
  1
+0-*,r,*-9><: {rn kqinhikojlojlnikj mqgmohohkjjimnklof rl nqglifhonfghmnomfh:roni n o kgqngfihnmmhgmnikg rkiqggijfofhgjgjnok o o n 90-(>-;@) V V V V |
  1
/:-,*=:1+r><>;L036;W6,+0-&r>++-6= {rn {rn {k {l n m m o |
  1
2>+:-6>3r>;:,4r>++-6= {rn {nj {rn {j lhi o |
  1
9><: {ni {nh {ng {m {rn {nf 90-(>-; ,6183: |
  1
300/ {rn {mo {mn {j |
  1
+0-*,r,*-9><: {rn kqinhikojlojlnikj mqljiijgflknnnnkjm rl nqglifhonfghmnomfh:roni n o kiqknmnkjlfmogijkl rkjqngogklkmllinjkk o o n 90-(>-;@) V V V V |
  1
300/ {rn {rn {mm {l |
  1
<0:;8: {rn {nk {nk {ml {mk -:):-,:; {i {rn |
  1
/:-,*=:1+r><>;L036;W6,+0-&r>++-6= {rn {rn {f {j n m l o |
  1
2>+:-6>3r>;:,4r>++-6= {rn {mj {rn {no lhi o |
  1
9><: {mi {mh {mg {m {rn {mf 90-(>-; ,6183: |
  1
300/ {rn {lo {ln {no |
  1
+0-*,r,*-9><: {rn kqinhikojlojlnikgi niqkofffmhmofnhkim rl nqglifhonfghmnomfh:roni n o rfqglgifjfhnmhjolig nmqgmfgfhfhofjfkfl o o n 90-(>-;@) V V V V |
  1
300/ {rn {rn {ml {j |
  1
<0:;8: {rn {mn {mn {lm {ll -:):-,:; {nn {rn |
  1
<0:;8: {rn {mm {mm {lk {lj 90-(>-; {nl {rn |
  1
<0:;8: {rn {ml {ml {nk {mk 90-(>-; {mo {rn |
  1
:;8: {rn {li {li {ml {lh 90-(>-; |
  1
/:-,*=:1+r><>;L036;W6,+0-&r>++-6= {rn {rn {ni {no n m k o |
  1
2>+:-6>3r>;:,4r>++-6= {rn {lg {rn {nh lhi o |
  1
9><: {lf {ko {kn {m {rn {km 90-(>-; ,6183: |
  1
300/ {rn {kl {kk {nh |
  1
+0-*,r,*-9><: {rn kqinhikojlojlnikgi njqlffolnlkigomfhg rl nqglifhonfghmnomfh:roni n o oqgjmojghohfonmffhg mqnonjlmkhfgkojok o o n 90-(>-;@) V V V V |
  1
300/ {rn {rn {lm {no |
  1
<0:;8: {rn {ln {ln {kj {ki -:):-,:; {ng {rn |
  1
<0:;8: {rn {lm {lm {mn {ll 90-(>-; {lo {rn |
  1
:;8: {rn {kh {kh {lm {kg 90-(>-; |
  1
<0:;8: {rn {lk {lk {mm {lj -:):-,:; {kf {rn |
  1
:;8: {rn {jo {jo {mm {jn 90-(>-; |
  1
):-+:' {rn {mk {jm |
  1
:336/,:r<*-): {rn kqinhikojlojlnikj gqlmgmigoljkjhmoij rl nqglifhonfghmnomfh:roni n o nqimhihgmjonjnhfjh rmqfgfffiklgiljmkng:roni o n V V |
  1
/:-,*=:1+r><>;L036;W6,+0-&r>++-6= {rn {rn {mi {nh n m j o |
  1
2>+:-6>3r>;:,4r>++-6= {rn {jl {rn {mh lhi o |
  1
9><: {jk {jj {ji {m {rn {jh 90-(>-; ,6183: |
  1
300/ {rn {jg {jf {mh |
  1
<01:r,*-9><: {rn kqinhikojlojlnikgi niqffiohflnjnmgfkm rl nqglifhonfghmnomfh:roni n o mqmjoijlnlkhjnfhnm rkqnlklgmhlinfhklih:roni o n V V o n mqmjoijlnlkhjnfhnm 90-(>-; V V V V |
  1
300/ {rn {rn {kj {nh |
  1
<0:;8: {rn {kk {kk {io {in -:):-,:; {mg {rn |
  1
<0:;8: {rn {kj {kj {ln {ki 90-(>-; {kl {rn |
  1
:;8: {rn {im {im {kj {il 90-(>-; |
  1
):-+:' {rn {ll {ik |
  1
:336/,:r<*-): {rn kqinhikojlojlnikgi nmqjklojkmjjokghhi rl nqglifhonfghmnomfh:roni n o mqlfkjgnnlgjhikmlh rkqlfghhkngffgklimk:roni o n V V |
  1
300/ {rn {ij {lk {ii |
  1
):-+:' {rn {lj {ih |
  1
:336/,:r<*-): {rn kqinhikojlojlnikj iqhmnjmoonlglmhhln rl nqglifhonfghmnomfh:roni n o nqkijimfjoklmhllnh rmqifmlnhhmngnjjgmh:roni o n V V |
  1
/061+ {rn iqmkjlnghgoiglkkoh gqlmgmigoljkjhnffk rl |
  1
/:-,*=:1+r><>;L036;W6,+0-&r>++-6= {rn {rn {lf {mh l m i o m g o m nk o |
  1
2>+:-6>3r>;:,4r>++-6= {rn {ig {rn {ko lhi o |
  1
9><: {if {ho {hn {m {rn {hm 90-(>-; ,6183: |
  1
300/ {rn {hl {hk {ko |
  1
+0-*,r,*-9><: {rn kqinhikojlojlnikgi nhqiomhfilomnljlgg rl nqglifhonfghmnomfh:roni n o mqklfffignnnlfnkmk roqiogklgolghhhhhgjg o o n 90-(>-;@) V V V V |
  1
300/ {rn {rn {io {mh |
  1
<0:;8: {rn {jf {jf {hj {hi -:):-,:; {kn {rn |
  1
<0:;8: {rn {io {io {kk {in 90-(>-; {jg {rn |
  1
:;8: {rn {hh {hh {io {hg 90-(>-; |
  1
):-+:' {rn {ki {hf |
  1
:336/,:r<*-): {rn kqinhikojlojlnikgi njqkmioimlnhlkfmnh rl nqglifhonfghmnomfh:roni n o mqfjlknhllhjiljmjj rjqkmjllfillkfomoli:roni o n V V |
  1
/061+ {rn hqonmmmniifnogohml nmqjklojkmjjokghhi rl |
  1
300/ {rn {rn {go {ii |
  1
9><: {gn {gm {kf {m {rn {gl 90-(>-; ,6183: |
  1
/061+ {rn iqoglmhoolkgjgfhig iqhmnjmoonlglmhii rl |
  1
/:-,*=:1+r><>;L036;W6,+0-&r>++-6= {rn {rn {jk {ko n m h o |
  1
2>+:-6>3r>;:,4r>++-6= {rn {gk {rn {jj lhi o |
  1
9><: {gj {gi {gh {m {rn {gg 90-(>-; ,6183: |
  1
300/ {rn {gf {fo {jj |
  1
<01:r,*-9><: {rn kqinhikojlojlnikgi ngqmnmhilinimhnjkn rl nqglifhonfghmnomfh:roni n o mqmjoijlnlkhjnfkmh rkqnlklgmhlinfhlgkk:roni o n V V o n mqmjoijlnlkhjnfkmh 90-(>-; V V V V |
  1
300/ {rn {rn {hj {ko |
  1
<0:;8: {rn {hk {hk {fn {fm -:):-,:; {ji {rn |
  1
<0:;8: {rn {hj {hj {jf {hi 90-(>-; {hl {rn |
  1
:;8: {rn {fl {fl {hj {fk 90-(>-; |
  1
):-+:' {rn {in {fj |
  1
:336/,:r<*-): {rn kqinhikojlojlnikgi niqfihjgghhnoonoog rl nqglifhonfghmnomfh:roni n o mqmjoijlnlkhjnfhnm rkqnlklgmhlinfhklih:roni o n V V |
  1
/061+ {rn hqjhnojhgigofjnhkn njqkmioimlnhlkfmnh rl |
  1
<0:;8: {rn {go {go {fi {fh 90-(>-; {ij {rn |
  1
2>+:-6>3r>;:,4r>++-6= {rn {fg {rn {ii lhi o |
  1
9><: {ff {noo {non {m {rn {nom 90-(>-; ,6183: |
  1
<01:r,*-9><: {rn kqinhikojlojlnikj iqoghnfjfmokngnfim rl nqglifhonfghmnomfh:roni n o nqklillnmkjgnkkflm rmqilgkfhifkojlohlg:roni o n V V oqokinlgfikknlgljhlk oqffgfljolofongnfkj nqklillnmkjgnkkflm 90-(>-; V V V V |
  1
/:-,*=:1+r><>;L036;W6,+0-&r>++-6= {rn {rn {if {jj l m i o m g o m nk o |
  1
2>+:-6>3r>;:,4r>++-6= {rn {nol {rn {ho lhi o |
  1
9><: {nok {noj {noi {m {rn {noh 90-(>-; ,6183: |
  1
300/ {rn {nog {nof {ho |
  1
+0-*,r,*-9><: {rn kqinhikojlojlnikgi ngqgofiojkomgfglkj rl nqglifhonfghmnomfh:roni n o mqoogllkmimjnjojik oqinkgilhfonnlgggol o o n 90-(>-;@) V V V V |
  1
300/ {rn {rn {fn {jj |
  1
<0:;8: {rn {fo {fo {nno {nnn -:):-,:; {hn {rn |
  1
<0:;8: {rn {fn {fn {hk {fm 90-(>-; {gf {rn |
  1
:;8: {rn {nnm {nnm {fn {nnl 90-(>-; |
  1
):-+:' {rn {hi {nnk |
  1
:336/,:r<*-): {rn kqinhikojlojlnikgi nhqomkjifgjfmjighj rl nqglifhonfghmnomfh:roni n o mqmjoijlnlkhjnfhnm rkqnlklgmhlinfhklih:roni o n V V |
  1
/061+ {rn iqgigmfliijmglinfh niqfihjgghhnoonoog rl |
  1
<0:;8: {rn {fi {fi {go {fh -:):-,:; {nnj {rn |
  1
:;8: {rn {nni {nni {go {nnh 90-(>-; |
  1
/:-,*=:1+r><>;L036;W6,+0-&r>++-6= {rn {rn {gn {ii n m n o |
  1
/:-,*=:1+r><>;L036;W6,+0-&r>++-6= {rn {nng {rn {gm n n nooooooooo n |
  1
9><: {nnf {nmo {nmn {m {rn {nmm 90-(>-; ,6183: |
  1
300/ {rn {rn {nml {gm |
  1
/3>1:r,*-9><: {rn kqinhikojlojlnikj nkqkfffffflgjhhoml o o o n rnqglifhonfghmnomfh:roni rn o 90-(>-;@) V V V V |
  1
/:-,*=:1+r><>;L036;W6,+0-&r>++-6= {rn {rn {gj {ho n m f o |
  1
2>+:-6>3r>;:,4r>++-6= {rn {nmk {rn {gi lhi o |
  1
9><: {nmj {nmi {nmh {m {rn {nmg 90-(>-; ,6183: |
  1
300/ {rn {nmf {nlo {gi |
  1
+0-*,r,*-9><: {rn kqinhikojlojlnikgi nfqmikgfgkoommlnnk rl nqglifhonfghmnomfh:roni n o mqmjooljgnghknjlon oqiojhmnnhfomlnofjn o o n 90-(>-;@) V V V V |
  1
300/ {rn {rn {nno {ho |
  1
<0:;8: {rn {nof {nof {nln {nlm -:):-,:; {gh {rn |
  1
<0:;8: {rn {nno {nno {fo {nnn 90-(>-; {nog {rn |
  1
:;8: {rn {nll {nll {nno {nlk 90-(>-; |
  1
):-+:' {rn {fm {nlj |
  1
:336/,:r<*-): {rn kqinhikojlojlnikgi ngqngnommhkjonlgfj rl nqglifhonfghmnomfh:roni n o mqmjoijlnlkhjnfkil rkqnlklgmhlinfhlfnl:roni o n V V |
  1
/061+ {rn iqgigmfliijmglinfh nhqomkjifgjfmjighj rl |
  1
300/ {rn {nli {fi {nlh |
  1
):-+:' {rn {fh {nlg |
  1
:336/,:r<*-): {rn kqinhikojlojlnikj jqkjmghngmhoolimij rl nqglifhonfghmnomfh:roni n o nqkoholmfghlonijnm rmqjgkihhiiimfojjg:roni o n V V |
  1
2>+:-6>3r>;:,4r>++-6= {rn {rn {ff {gm lhi o |
  1
/:-,*=:1+r><>;L036;W6,+0-&r>++-6= {rn {nlf {rn {noo n n k o |
  1
9><: {nko {nkn {nkm {m {rn {nkl 90-(>-; ,6183: |
  1
300/ {rn {rn {nkk {noo |
  1
/3>1:r,*-9><: {rn hqinhikojlojlniknj riqnkmmfghjgjokifk:roog o n rjqjnmnfnmkjhjioloi:roni o o o n 90-(>-;@) V V V V |
  1
<0:;8: {rn {nkj {nki {nkh {nkg -:):-,:; {non {rn |
  1
/:-,*=:1+r><>;L036;W6,+0-&r>++-6= {rn {rn {nok {gi n m no o |
  1
2>+:-6>3r>;:,4r>++-6= {rn {nkf {rn {noj lhi o |
  1
9><: {njo {njn {njm {m {rn {njl 90-(>-; ,6183: |
  1
300/ {rn {njk {njj {noj |
  1
+0-*,r,*-9><: {rn kqinhikojlojlnikgi nfqhfgfjinkfkinmfh rl nqglifhonfghmnomfh:roni n o mqmmhjolhhokhfhmkf oqhmifkknmfgklglohm o o n 90-(>-;@) V V V V |
  1
300/ {rn {rn {nln {gi |
  1
<0:;8: {rn {nlo {nlo {nji {njh -:):-,:; {noi {rn |
  1
<0:;8: {rn {nln {nln {nof {nlm 90-(>-; {nmf {rn |
  1
:;8: {rn {njg {njg {nln {njf 90-(>-; |
  1
):-+:' {rn {nnn {nio |
  1
:336/,:r<*-): {rn kqinhikojlojlnikgi ngqmkkjokkghjmfngg rl nqglifhonfghmnomfh:roni n o mqmjoijlnlkhjnfkmh rkqnlklgmhlinfhlgkk:roni o n V V |
  1
/061+ {rn iqgigmfliijmgljfkf ngqngnommhkjonlgfj rl |
  1
300/ {rn {rn {nin {nlh |
  1
9><: {nim {ii {nnj {m {rn {nil 90-(>-; ,6183: |
  1
/061+ {rn iqomkihljnhgllmfim jqkjmghngmhoolinfk rl |
  1
2>+:-6>3r>;:,4r>++-6= {rn {rn {nnf {noo lhi o |
  1
/:-,*=:1+r><>;L036;W6,+0-&r>++-6= {rn {nik {rn {nmo m n l o m mk o |
  1
9><: {nij {nii {nih {m {rn {nig 90-(>-; ,6183: |
  1
300/ {rn {rn {nif {nmo |
  1
/3>1:r,*-9><: {rn nqinhikojlojlniknj riqnkmmfghjgjokifk:roog o rnqglifhonfghmnomfh:roni rn o o o rn 90-(>-;@) V V V V |
  1
<0:;8: {rn {nho {nhn {nhm {nhl -:):-,:; {nmn {rn |
  1
<0:;8: {rn {nhk {nml {nhn {nhj 90-(>-; {non {rn |
  1
<0:;8: {rn {nml {nhk {nhi {nhh 90-(>-; {non {rn |
  1
<0:;8: {rn {nhg {nhm {nml {nkg 90-(>-; {nhf {rn |
  1
:;8: {rn {ngo {ngn {nml {ngm 90-(>-; |
  1
/:-,*=:1+r><>;L036;W6,+0-&r>++-6= {rn {rn {nmj {noj n m nn o |
  1
2>+:-6>3r>;:,4r>++-6= {rn {ngl {rn {nmi lhi o |
  1
9><: {ngk {ngj {ngi {m {rn {ngh 90-(>-; ,6183: |
  1
300/ {rn {ngg {ngf {nmi |
  1
+0-*,r,*-9><: {rn kqinhikojlojlnikgi moqlllonlgfgiffkfn rl nqglifhonfghmnomfh:roni n o mqmjooljgnghknjlon oqiojhmnnhfomlnofjn o o n 90-(>-;@) V V V V |
  1
300/ {rn {rn {nji {noj |
  1
<0:;8: {rn {njj {njj {nfo {nfn -:):-,:; {nmh {rn |
  1
<0:;8: {rn {nji {nji {nlo {njh 90-(>-; {njk {rn |
  1
:;8: {rn {nfm {nfm {nji {nfl 90-(>-; |
  1
):-+:' {rn {nlm {nfk |
  1
:336/,:r<*-): {rn kqinhikojlojlnikgi ngqhghkingfkhmfmlh rl nqglifhonfghmnomfh:roni n o mqimmhffnggiknnhhf rkqgngoolfkihiljkom:roni o n V V |
  1
/061+ {rn iqgigmfliijmgljfnl ngqmkkjokkghjmfngg rl |
  1
<0:;8: {rn {nin {nin {nfj {nfi 90-(>-; {nli {rn |
  1
2>+:-6>3r>;:,4r>++-6= {rn {nfh {rn {nlh lhi o |
  1
+0-*,r,*-9><: {rn kqinhikojlojlnikj jqmgmknllglmoinfok rl nqglifhonfghmnomfh:roni n o nqllmmlmklgklhofml oqnginkgllikhkijfih o o n 90-(>-;@) V V V V |
  1
2>+:-6>3r>;:,4r>++-6= {rn {rn {nko {nmo lhi o |
  1
2>+:-6>3r>;:,4r>++-6= {rn {nfg {rn {nkn lhi o |
  1
9><: {nff {moo {mon {m {rn {mom 90-(>-; ,6183: |
  1
300/ {rn {rn {mol {nkn |
  1
/3>1:r,*-9><: {rn nqinhikojlojlnikj mgqffffffflgjhhoni o rn nqglifhonfghmnomfh:roni o o o rn 90-(>-;@) V V V V |
  1
<0:;8: {rn {nif {nif {mok {moj -:):-,:; {nkm {rn |
  1
<0:;8: {rn {moi {nkk {moh {mog 90-(>-; {nmn {rn |
  1
<0:;8: {rn {nkk {moi {nkj {nhj -:):-,:; {nmn {rn |
  1
<0:;8: {rn {nkh {mof {nkk {nhl 90-(>-; {nhf {rn |
  1
:;8: {rn {mno {ngo {nkk {mnn 90-(>-; |
  1
<0:;8: {rn {nki {nkj {mnm {mnl 90-(>-; {non {rn |
  1
:;8: {rn {ngo {mnk {nhn {mnj 90-(>-; |
  1
<0:;8: {rn {mni {mol {nki {nhh -:):-,:; {nih {rn |
  1
:;8: {rn {mnh {ngn {nhi {mng 90-(>-; |
  1
<0:;8: {rn {mof {nkh {mol {mnf 90-(>-; {nhf {rn |
  1
300/ {rn {mmo {nhm {mmn |
  1
):-+:' {rn {nhj {mmm |
  1
):-+:' {rn {nkg {mml |
  1
61+<*-):r<*-): {rn 90-(>-; $ :'><+<*- 1*-=, m 0/:1 m 
  1
 oqlijkfjonhhnflolof m iqgimmmfihmikknjnm m 
  1
 hqinhikojlojlnijjh mkqkiflhgmgooonhgk nqojkhnnghllflgfgh:ronj nqojnhhiifmjgkgnk 
  1
 kqinhikojlojlnhojk mlqlklmgkikojgojfj nqomohiljhomjljhl:roni nqkghkligilmknolmm 
  1
 nqinhikojlojlnikj mkqkiflhgmgooonhgg nqnnommlomkimjnjij:roni nqojnhhiifmjgkgnkf 
  1
 o 
  1
 1*33@,*-9><: 
  1
 1*33@,*-9><: 
  1
 1*33=, 
  1
 1*33=, 
  1
 V V 
  1
 o 
  1
 o 
  1
 o 
  1
 Y n Y o " V V |
  1
/:-,*=:1+r><>;L036;W6,+0-&r>++-6= {rn {rn {njo {nmi n m nm o |
  1
2>+:-6>3r>;:,4r>++-6= {rn {mmk {rn {njn lhi o |
  1
9><: {mmj {mmi {mmh {m {rn {mmg 90-(>-; ,6183: |
  1
300/ {rn {mmf {mlo {njn |
  1
+0-*,r,*-9><: {rn kqinhikojlojlnikgi moqhggloigfiomkmi rl nqglifhonfghmnomfh:roni n o mqoogllkmimjnjojik oqinkgilhfonnlgggol o o n 90-(>-;@) V V V V |
  1
300/ {rn {rn {nfo {nmi |
  1
<0:;8: {rn {ngf {ngf {mln {mlm -:):-,:; {njm {rn |
  1
<0:;8: {rn {nfo {nfo {njj {nfn 90-(>-; {ngg {rn |
  1
:;8: {rn {mll {mll {nfo {mlk 90-(>-; |
  1
):-+:' {rn {njh {mlj |
  1
:336/,:r<*-): {rn kqinhikojlojlnikgi nfqkoioohihkighjfh rl nqglifhonfghmnomfh:roni n o mqglfofnmijjngnfmn rjqmnjlmiokimoioflm:roni o n V V |
  1
/061+ {rn hqmkoklfhnfnhmgmij ngqhghkingfkhmfmlh rl |
  1
<0:;8: {rn {nfj {nfj {nin {nfi -:):-,:; {mli {rn |
  1
:;8: {rn {mlh {mlh {nin {mlg 90-(>-; |
  1
/:-,*=:1+r><>;L036;W6,+0-&r>++-6= {rn {rn {nim {nlh n m ko o |
  1
/:-,*=:1+r><>;L036;W6,+0-&r>++-6= {rn {rn {nij {nkn n n m o |
  1
2>+:-6>3r>;:,4r>++-6= {rn {mlf {rn {nii lhi o |
  1
9><: {mko {rn {mkn {m {rn {mkm -:):-,:; ,6183: |
  1
300/ {rn {rn {mkl {nii |
  1
/3>1:r,*-9><: {rn hqinhikojlojlnijjh mgqffffffflgjhhonm o nqglifhonfghmnomfh:roni n o o o n 90-(>-;@) V V V V |
  1
<0:;8: {rn {nhi {mkk {nhg {mnf -:):-,:; {nih {rn |
  1
<0:;8: {rn {mok {mok {nif {moj 90-(>-; {mkj {rn |
  1
:;8: {rn {mki {mki {nif {mkh 90-(>-; |
  1
<0:;8: {rn {nhn {nho {mkg {mkf -:):-,:; {nmn {rn |
  1
<0:;8: {rn {mjo {mjn {nho {mog -:):-,:; {mkn {rn |
  1
:;8: {rn {mno {mjm {nho {mjl 90-(>-; |
  1
<0:;8: {rn {nhm {nhg {mjo {mjk 90-(>-; {nhf {rn |
  1
):-+:' {rn {mog {mjj |
  1
61+<*-):r<*-): {rn 90-(>-; $ :'><+<*- 1*-=, m 0/:1 m 
  1
 oqlijkfjonhhnflnlln m iqgimmmfihmikknjfm m 
  1
 hqinhikojlojlnijjh mkqkiflhgmgooonhgk riqooooooooooooooof nqojnhhiifmjgkgnkm 
  1
 hqinhikojlojlnijfm mlqlklmgkikojgojfm rlqooooooooooooojll nqkghkligilmknommm 
  1
 hqinhikojlojlnijjh mkqkiflhgmgooonhgk nqojkhnnghllflgfgh:ronj nqojnhhiifmjgkgnkm 
  1
 o 
  1
 1*33@,*-9><: 
  1
 1*33@,*-9><: 
  1
 1*33=, 
  1
 1*33=, 
  1
 V V 
  1
 o 
  1
 o 
  1
 o 
  1
 Y n Y o " V V |
  1
<0:;8: {rn {mkg {mji {nhk {mnl -:):-,:; {mon {rn |
  1
:;8: {rn {mnk {mnh {mnm {mjh 90-(>-; |
  1
):-+:' {rn {mnl {mjg |
  1
,+->687+r<*-): {rn hqinhikojlojlniknj riqnkmmfghjgjokifk:roog o jqjnmnfnmkjhjioloi:roni n o V V |
  1
<0:;8: {rn {mkk {nhi {mji {mjf 90-(>-; {nih {rn |
  1
):-+:' {rn {mnl {mio |
  1
,+->687+r<*-): {rn nqinhikojlojlnikj mgqffffffflgjhhoni o rnqglifhonfghmnomfh:roni rn o V V |
  1
:;8: {rn {ngn {min {mol {mim 90-(>-; |
  1
300/ {rn {rn {mil {mmn |
  1
9><: {mik {mij {nhf {m {rn {mii 90-(>-; ,6183: |
  1
/061+ {rn hqinhikojlojlnijjh mkqkiflhgmgooonhgk nqojkhnnghllflgfgh:ronj |
  1
/061+ {rn nqinhikojlojlnikj mkqkiflhgmgooonhgg nqnnommlomkimjnjij:roni |
  1
/:-,*=:1+r><>;L036;W6,+0-&r>++-6= {rn {rn {ngk {njn n m nl o |
  1
2>+:-6>3r>;:,4r>++-6= {rn {mih {rn {ngj lhi o |
  1
9><: {mig {mif {mho {m {rn {mhn 90-(>-; ,6183: |
  1
300/ {rn {mhm {mhl {ngj |
  1
<01:r,*-9><: {rn kqinhikojlojlnikgi mnqlgjnkgigmijnoi rl nqglifhonfghmnomfh:roni n o mqmjoijlnlkhjnflji rkqnlklgmhlinfhlhni:roni o n V V o n mqmjoijlnlkhjnflji 90-(>-; V V V V |
  1
300/ {rn {rn {mln {njn |
  1
<0:;8: {rn {mlo {mlo {mhk {mhj -:):-,:; {ngi {rn |
  1
<0:;8: {rn {mln {mln {ngf {mlm 90-(>-; {mmf {rn |
  1
:;8: {rn {mhi {mhi {mln {mhh 90-(>-; |
  1
):-+:' {rn {nfn {mhg |
  1
:336/,:r<*-): {rn kqinhikojlojlnikgi moqnfnfokimkmljonn rl nqglifhonfghmnomfh:roni n o mqglfofnmijjngnfmn rjqmnjlmiokimoioflm:roni o n V V |
  1
/061+ {rn hqkjihlnhfiokfgkoh nfqkoioohihkighjfh rl |
  1
300/ {rn {mhf {nfj {mgo |
  1
):-+:' {rn {nfi {mgn |
  1
:336/,:r<*-): {rn kqinhikojlojlnikj jqnomhlggolmolinkl rl nqglifhonfghmnomfh:roni n o nqlgogfhofnijghnhn rmqjliiiigokghhiojl:roni o n V V |
  1
/:-,*=:1+r><>;L036;W6,+0-&r>++-6= {rn {rn {nff {nii m n n o m mm o |
  1
2>+:-6>3r>;:,4r>++-6= {rn {mgm {rn {moo lhi o |
  1
300/ {rn {rn {mjo {moo |
  1
/3>1:r,*-9><: {rn kqinhikojlojlnikj nkqkfffffflgjhhoml ri o o n rnqglifhonfghmnomfh:roni rn o 90-(>-;@) V V V V |
  1
<0:;8: {rn {mji {mkg {mjn {mgl 90-(>-; {mon {rn |
  1
<0:;8: {rn {mol {mni {mgk {mgj 90-(>-; {nih {rn |
  1
300/ {rn {rn {mok {mij |
  1
):-+:' {rn {moj {mgi |
  1
:336/,:r<*-): {rn kqinhikojlojlnikj riqnkmmfghjgjokifk:roog rl nqglifhonfghmnomfh:roni n o nqoooooooooooooonl rnqglifhonfghmnolnf:roni o n V V |
  1
<0:;8: {rn {mkl {mnm {moi {mkf 90-(>-; {mon {rn |
  1
:;8: {rn {mnk {mjm {mkg {mgh 90-(>-; |
  1
<0:;8: {rn {mgk {moh {mof {mjk -:):-,:; {mkn {rn |
  1
<0:;8: {rn {moh {mgk {mkl {mgl -:):-,:; {mkn {rn |
  1
):-+:' {rn {mkf {mgg |
  1
,+->687+r<*-): {rn hqinhikojlojlniknj riqnkmmfghjgjokifk:roog ri jqjnmnfnmkjhjioloi:roni n o V V |
  1
:;8: {rn {min {mno {mjo {mgf 90-(>-; |
  1
/061+ {rn hqinhikojlojlnijjh mkqkiflhgmgooonhgk riqooooooooooooooof |
  1
<0:;8: {rn {mnm {mkl {mni {mjf -:):-,:; {mon {rn |
  1
,+->687+r<*-): {rn hqinhikojlojlnijjh mgqffffffflgjhhonm o rn nqglifhonfghmnomfh:roni o V V |
  1
/061+ {rn hqinhikojlojlnijjh mgqffffffflgjhhonm o |
  1
:;8: {rn {mnh {mfo {mni {mfn 90-(>-; |
  1
/061+ {rn nqinhikojlojlnikj mgqffffffflgjhhoni o |
  1
):-+:' {rn {mjk {mfm |
  1
61+<*-):r<*-): {rn 90-(>-; $ :'><+<*- 1*-=, m 0/:1 m 
  1
 oqlijkfjonhhnflokfl m iqgimmmfihmikknkhi m 
  1
 nqinhikojlojlnikj mkqkiflhgmgooonhgg nqnnommlomkimjnjij:roni nqojnhhiifmjgkgnlj 
  1
 nqinhikojlojlniknj mlqlklmgkikojgojfj rmqfffffffffffffkhi nqkghkligilmknomim 
  1
 nqinhikojlojlnikj mkqkiflhgmgooonhgg ri nqojnhhiifmjgkgnlj 
  1
 o 
  1
 1*33@,*-9><: 
  1
 1*33@,*-9><: 
  1
 1*33=, 
  1
 1*33=, 
  1
 V V 
  1
 o 
  1
 o 
  1
 o 
  1
 Y n Y o " V V |
  1
<0:;8: {rn {mil {mil {mfl {mfk 90-(>-; {mmo {rn |
  1
2>+:-6>3r>;:,4r>++-6= {rn {mfj {rn {mmn lhi o |
  1
9><: {mfi {mfh {mfg {m {rn {mff 90-(>-; ,6183: |
  1
<01:r,*-9><: {rn kqinhikojlojlnikgi mkqnogogkjngogjfh rl nqglifhonfghmnomfh:roni n o lqjimokomikmhklhfg riqjkllingnmnniknil:roni o n V V oqgglmilijkhhgnighn oqkigghiijlkkhmhoh lqjimokomikmhklhfg 90-(>-; V V V V |
  1
/:-,*=:1+r><>;L036;W6,+0-&r>++-6= {rn {rn {mmj {ngj l m i o m g o m nk o |
  1
2>+:-6>3r>;:,4r>++-6= {rn {loo {rn {mmi lhi o |
  1
9><: {lon {lom {lol {m {rn {lok 90-(>-; ,6183: |
  1
300/ {rn {loj {loi {mmi |
  1
+0-*,r,*-9><: {rn kqinhikojlojlnikgi mnqfgfhgghfkhohnkj rl nqglifhonfghmnomfh:roni n o mqkmgnnomgiojjkhnn roqjffhjlhiiighhfnig o o n 90-(>-;@) V V V V |
  1
300/ {rn {rn {mhk {ngj |
  1
<0:;8: {rn {mhl {mhl {loh {log -:):-,:; {mmh {rn |
  1
<0:;8: {rn {mhk {mhk {mlo {mhj 90-(>-; {mhm {rn |
  1
:;8: {rn {lof {lof {mhk {lno 90-(>-; |
  1
):-+:' {rn {mlm {lnn |
  1
:336/,:r<*-): {rn kqinhikojlojlnikgi moqgnokjokoknfllig rl nqglifhonfghmnomfh:roni n o mqimmhffnggiknnhhf rkqgngoolfkihiljkom:roni o n V V |
  1
/061+ {rn hqkjihlnhfiokfgkoh moqnfnfokimkmljonn rl |
  1
300/ {rn {rn {lnm {mgo |
  1
9><: {lnl {nlh {mli {m {rn {lnk 90-(>-; ,6183: |
  1
/061+ {rn jqffgjlhimmnfolimn jqnomhlggolmoliohm rl |
  1
/:-,*=:1+r><>;L036;W6,+0-&r>++-6= {rn {rn {mko {moo n n nooooooooo m |
  1
:;8: {rn {mjm {mfo {mkl {lnj 90-(>-; |
  1
<0:;8: {rn {mjn {mjo {mkk {mgj -:):-,:; {mkn {rn |
  1
:;8: {rn {mfo {min {mkk {lni 90-(>-; |
  1
/061+ {rn jqinhikojlojlnikj riqnkmmfgokhfinfjgm:roog rl |
  1
,+->687+r<*-): {rn hqinhikojlojlnijjh mgqffffffflgjhhonm o o o rn V V |
  1
/061+ {rn hqinhikojlojlnijjh mgqffffffflgjhhonm ri |
  1
61+<*-):r<*-): {rn 90-(>-; $ :'><+<*- 1*-=, m 0/:1 m 
  1
 oqlijkfjonhhnfloknj m iqgimmmfihmikkniof m 
  1
 nqinhikojlojlnikj mkqkiflhgmgooonhgg ri nqojnhhiifmjgkgnk 
  1
 kqinhikojlojlnjfgg mlqlklmgkikojgojff ri nqkghkligilmknolmk 
  1
 hqinhikojlojlnijjh mkqkiflhgmgooonhgk riqooooooooooooooof nqojnhhiifmjgkgnlj 
  1
 o 
  1
 1*33@,*-9><: 
  1
 1*33@,*-9><: 
  1
 1*33=, 
  1
 1*33=, 
  1
 V V 
  1
 o 
  1
 o 
  1
 o 
  1
 Y n Y o " V V |
  1
):-+:' {rn {mjf {lnh |
  1
,+->687+r<*-): {rn nqinhikojlojlnikj mgqffffffflgjhhoni o o o rn V V |
  1
/061+ {rn nqinhikojlojlnikj mkqkiflhgmgooonhgg ri |
  1
<0:;8: {rn {mfl {mfl {mil {mfk -:):-,:; {lng {rn |
  1
:;8: {rn {lnf {lnf {mil {lmo 90-(>-; |
  1
/:-,*=:1+r><>;L036;W6,+0-&r>++-6= {rn {rn {mik {mmn n m mo o |
  1
2>+:-6>3r>;:,4r>++-6= {rn {lmn {rn {mij lhi o |
  1
9><: {lmm {lml {lmk {m {rn {lmj 90-(>-; ,6183: |
  1
300/ {rn {mkj {lmi {mij |
  1
<01:r,*-9><: {rn kqinhikojlojlnikj oqjfofokhfkonkojnoj rl nqglifhonfghmnomfh:roni n o nqoijmmloilmokgmjg rnqfjihglommofhjfmg:roni o n V V oqnofhnnfhjjmmkmjij oqfflfilkmnohogffhk nqoijmmloilmokgmjg 90-(>-; V V V V |
  1
/:-,*=:1+r><>;L036;W6,+0-&r>++-6= {rn {rn {mig {mmi n m nj o |
  1
2>+:-6>3r>;:,4r>++-6= {rn {lmh {rn {mif lhi o |
  1
9><: {lmg {lmf {llo {m {rn {lln 90-(>-; ,6183: |
  1
300/ {rn {llm {lll {mif |
  1
<01:r,*-9><: {rn kqinhikojlojlnikgi mmqimfgihinlfknjki rl nqglifhonfghmnomfh:roni n o mqlhmmkmmjnhnglijm rkqljhhlglmojjljogk:roni o n V V oqgglmilijkhhgngnol oqkigghiijlkkhmkhii mqlhmmkmmjnhnglijm 90-(>-; V V V V |
  1
300/ {rn {rn {loh {mmi |
  1
<0:;8: {rn {loi {loi {llk {llj -:):-,:; {mho {rn |
  1
<0:;8: {rn {loh {loh {mhl {log 90-(>-; {loj {rn |
  1
:;8: {rn {lli {lli {loh {llh 90-(>-; |
  1
):-+:' {rn {mhj {llg |
  1
:336/,:r<*-): {rn kqinhikojlojlnikgi mnqljlkohgnnlflknh rl nqglifhonfghmnomfh:roni n o mqmjoijlnlkhjnflfm rkqnlklgmhlinfhlhg:roni o n V V |
  1
/061+ {rn hqmkoklfhnfnhmgmij moqgnokjokoknfllig rl |
  1
<0:;8: {rn {lnm {lnm {llf {lko 90-(>-; {mhf {rn |
  1
2>+:-6>3r>;:,4r>++-6= {rn {lkn {rn {mgo lhi o |
  1
<01:r,*-9><: {rn kqinhikojlojlnikj jqohhhlggolmolinjh rl nqglifhonfghmnomfh:roni n o nqlgogfhofnijghnhn rmqjliiiigokghhiojl:roni o n V V o n nqlgogfhofnijghnhn 90-(>-; V V V V |
  1
,+->687+r<*-): {rn hqinhikojlojlnijjh mgqffffffflgjhhonm ri rn nqglifhonfghmnomfh:roni o V V |
  1
,+->687+r<*-): {rn nqinhikojlojlnikj mgqffffffflgjhhoni ri rnqglifhonfghmnomfh:roni rn o V V |
  1
/061+ {rn nqinhikojlojlnikj mgqffffffflgjhhoni ri |
  1
300/ {rn {lkm {mfl {lkl |
  1
):-+:' {rn {mfk {lkk |
  1
:336/,:r<*-): {rn kqinhikojlojlnikgi mlqjkhhmlijkkmjkng rl nqglifhonfghmnomfh:roni n o mqjoiklfginohnmjhl rkqiokmjjlmfihklhhk:roni o n V V |
  1
/:-,*=:1+r><>;L036;W6,+0-&r>++-6= {rn {rn {mfi {mij n m mj o |
  1
2>+:-6>3r>;:,4r>++-6= {rn {lkj {rn {mfh lhi o |
  1
9><: {lki {lkh {lkg {m {rn {lkf 90-(>-; ,6183: |
  1
300/ {rn {ljo {ljn {mfh |
  1
<01:r,*-9><: {rn kqinhikojlojlnikj nqnfllfkokloknmiim rl nqglifhonfghmnomfh:roni n o nqnjmmigijkmkkmjmg rmqnniiglnhghihohgi:roni o n V V oqgglmilijkhhgnllim oqkigghiijlkkhllign nqnjmmigijkmkkmjmg 90-(>-; V V V V |
  1
<0:;8: {rn {lmi {lmi {ljm {ljl -:):-,:; {mfg {rn |
  1
/:-,*=:1+r><>;L036;W6,+0-&r>++-6= {rn {rn {lon {mif n m ni o |
  1
2>+:-6>3r>;:,4r>++-6= {rn {ljk {rn {lom lhi o |
  1
9><: {ljj {lkl {lji {m {rn {ljh 90-(>-; ,6183: |
  1
300/ {rn {ljg {ljf {lom |
  1
<01:r,*-9><: {rn kqinhikojlojlnikgi mmqhmkfihhollmgfgm rl nqglifhonfghmnomfh:roni n o mqjoiklfgihhjkmkmn rkqiokmjjlknfjogmnn:roni o n V V o n mqjoiklfgihhjkmkmn 90-(>-; V V V V |
  1
300/ {rn {rn {llk {mif |
  1
<0:;8: {rn {lll {lll {lio {lin -:):-,:; {lol {rn |
  1
<0:;8: {rn {llk {llk {loi {llj 90-(>-; {llm {rn |
  1
:;8: {rn {lim {lim {llk {lil 90-(>-; |
  1
):-+:' {rn {log {lik |
  1
:336/,:r<*-): {rn kqinhikojlojlnikgi mnqkniggfjjlfoghoh rl nqglifhonfghmnomfh:roni n o mqmjoijlnlkhjnflji rkqnlklgmhlinfhlhni:roni o n V V |
  1
/061+ {rn iqgigmfliijmgljghg mnqljlkohgnnlflknh rl |
  1
<0:;8: {rn {llf {llf {lnm {lko -:):-,:; {lij {rn |
  1
:;8: {rn {lii {lii {lnm {lih 90-(>-; |
  1
/:-,*=:1+r><>;L036;W6,+0-&r>++-6= {rn {rn {lnl {mgo n m lf o |
  1
300/ {rn {rn {lig {lkl |
  1
9><: {lif {mmn {lng {m {rn {lho 90-(>-; ,6183: |
  1
/061+ {rn hqnmkogolfniomfojg mlqjkhhmlijkkmjkng rl |
  1
/:-,*=:1+r><>;L036;W6,+0-&r>++-6= {rn {rn {lmm {mfh n m mi o |
  1
2>+:-6>3r>;:,4r>++-6= {rn {lhn {rn {lml lhi o |
  1
9><: {lhm {lhl {lhk {m {rn {lhj 90-(>-; ,6183: |
  1
300/ {rn {lhi {lhh {lml |
  1
<01:r,*-9><: {rn kqinhikojlojlnikj nqmmooolnmfmhfnilj rl nqglifhonfghmnomfh:roni n o nqnhkofnngmohggjhj rmqnjihhojnmoiooohi:roni o n V V o n nqnhkofnngmohggjhj 90-(>-; V V V V |
  1
300/ {rn {rn {ljm {mfh |
  1
<0:;8: {rn {ljn {ljn {lhg {lhf -:):-,:; {lmk {rn |
  1
<0:;8: {rn {ljm {ljm {lmi {ljl 90-(>-; {ljo {rn |
  1
:;8: {rn {lgo {lgo {ljm {lgn 90-(>-; |
  1
/:-,*=:1+r><>;L036;W6,+0-&r>++-6= {rn {rn {lmg {lom m m nh o m nf o |
  1
2>+:-6>3r>;:,4r>++-6= {rn {lgm {rn {lmf lhi o |
  1
300/ {rn {lgl {lgk {lmf |
  1
+0-*,r,*-9><: {rn kqinhikojlojlnikgi mlqnmkknkhjikihloi rl nqglifhonfghmnomfh:roni n o mqllgilnglfhngoonl oqknnligniomgnffhfn o o n 90-(>-;@) V V V V |
  1
300/ {rn {rn {lio {lom |
  1
<0:;8: {rn {ljf {ljf {lgj {lgi -:):-,:; {llo {rn |
  1
<0:;8: {rn {lio {lio {lll {lin 90-(>-; {ljg {rn |
  1
:;8: {rn {lgh {lgh {lio {lgg 90-(>-; |
  1
):-+:' {rn {llj {lgf |
  1
:336/,:r<*-): {rn kqinhikojlojlnikgi mmqjjgimflfjjgmhmk rl nqglifhonfghmnomfh:roni n o mqmlgokkiljigmkggl rkqnnnmmnmffnjinfjm:roni o n V V |
  1
/061+ {rn iqgigmfliijmgljgkm mnqkniggfjjlfoghoh rl |
  1
300/ {rn {lfo {llf {lfn |
  1
):-+:' {rn {lko {lfm |
  1
:336/,:r<*-): {rn kqinhikojlojlnikj jqojmhlggolmolinhn rl nqglifhonfghmnomfh:roni n o nqlgogfhofnijghnhn rmqjliiiigokghhiojl:roni o n V V |
  1
<0:;8: {rn {lig {lig {lgk {lfl 90-(>-; {lkm {rn |
  1
2>+:-6>3r>;:,4r>++-6= {rn {lfk {rn {lkl lhi o |
  1
<01:r,*-9><: {rn kqinhikojlojlnikgi mlqjmlginhfijonmnf rl nqglifhonfghmnomfh:roni n o mqjoiklfgikknmhjnj rkqiokmjjlljgnmiomh:roni o n V V o n mqjoiklfgikknmhjnj 90-(>-; V V V V |
  1
/:-,*=:1+r><>;L036;W6,+0-&r>++-6= {rn {rn {lki {lml n m mh o |
  1
2>+:-6>3r>;:,4r>++-6= {rn {lfj {rn {lkh lhi o |
  1
9><: {lfi {lfh {lfg {m {rn {lff 90-(>-; ,6183: |
  1
300/ {rn {koo {kon {lkh |
  1
+0-*,r,*-9><: {rn kqinhikojlojlnikj nqijmjmhngmhjkjnnm rl nqglifhonfghmnomfh:roni n o oqffminjikjligonjhm oqkjjmljnffllhimmjg o o n 90-(>-;@) V V V V |
  1
300/ {rn {rn {lhg {lml |
  1
<0:;8: {rn {lhh {lhh {kom {kol -:):-,:; {lkg {rn |
  1
<0:;8: {rn {lhg {lhg {ljn {lhf 90-(>-; {lhi {rn |
  1
:;8: {rn {kok {kok {lhg {koj 90-(>-; |
  1
):-+:' {rn {ljl {koi |
  1
:336/,:r<*-): {rn kqinhikojlojlnikj nqngngofikfkjnogfh rl nqglifhonfghmnomfh:roni n o nqnlokkinmikofikgn rmqohijfjgkjkhknkfj:roni o n V V |
  1
/:-,*=:1+r><>;L036;W6,+0-&r>++-6= {rn {rn {ljj {lmf n m ng o |
  1
300/ {rn {rn {lgj {lmf |
  1
<0:;8: {rn {lgk {lgk {lig {lfl -:):-,:; {lji {rn |
  1
<0:;8: {rn {lgj {lgj {ljf {lgi 90-(>-; {lgl {rn |
  1
:;8: {rn {koh {koh {lgj {kog 90-(>-; |
  1
):-+:' {rn {lin {kof |
  1
:336/,:r<*-): {rn kqinhikojlojlnikgi mmqhonnojglmloolhn rl nqglifhonfghmnomfh:roni n o mqjoiklfgihhjkmkmn rkqiokmjjlknfjogmnn:roni o n V V |
  1
/061+ {rn iqgjjigjniimnknlif mmqjjgimflfjjgmhmk rl |
  1
300/ {rn {rn {kno {lfn |
  1
9><: {knn {mgo {lij {m {rn {knm 90-(>-; ,6183: |
  1
/061+ {rn jqffgjlhimmnfolimn jqojmhlggolmolin rl |
  1
:;8: {rn {knl {knl {lig {knk 90-(>-; |
  1
/:-,*=:1+r><>;L036;W6,+0-&r>++-6= {rn {rn {lif {lkl m m nh o m nf o |
  1
/:-,*=:1+r><>;L036;W6,+0-&r>++-6= {rn {rn {lhm {lkh n m mg o |
  1
2>+:-6>3r>;:,4r>++-6= {rn {knj {rn {lhl lhi o |
  1
9><: {kni {knh {kng {m {rn {knf 90-(>-; ,6183: |
  1
300/ {rn {kmo {kmn {lhl |
  1
<01:r,*-9><: {rn kqinhikojlojlnikj mqoiihjfojlmninkjj rl nqglifhonfghmnomfh:roni n o nqmnnknlffoikfmfkk rmqmmjllnlffnlikhon:roni o n V V o n nqmnnknlffoikfmfkk 90-(>-; V V V V |
  1
300/ {rn {rn {kom {lkh |
  1
<0:;8: {rn {kon {kon {kmm {kml -:):-,:; {lhk {rn |
  1
<0:;8: {rn {kom {kom {lhh {kol 90-(>-; {koo {rn |
  1
:;8: {rn {kmk {kmk {kom {kmj 90-(>-; |
  1
):-+:' {rn {lhf {kmi |
  1
:336/,:r<*-): {rn kqinhikojlojlnikj nqmokfhgkliilnkkfg rl nqglifhonfghmnomfh:roni n o nqnhkofnngmohggjhj rmqnjihhojnmoiooohi:roni o n V V |
  1
/061+ {rn jqhkgogiijifknmflm nqngngofikfkjnogfh rl |
  1
):-+:' {rn {lgi {kmh |
  1
:336/,:r<*-): {rn kqinhikojlojlnikgi mmqhkggmfjhkljhjfh rl nqglifhonfghmnomfh:roni n o mqjoiklfgihhjkmkmn rkqiokmjjlknfjogmnn:roni o n V V |
  1
/061+ {rn hqnmkogolfgmgjgfoh mmqhonnojglmloolhn rl |
  1
<0:;8: {rn {kno {kno {kmg {kmf 90-(>-; {lfo {rn |
  1
2>+:-6>3r>;:,4r>++-6= {rn {klo {rn {lfn lhi o |
  1
<01:r,*-9><: {rn kqinhikojlojlnikj jqoknnjkkofinlkkoi rl nqglifhonfghmnomfh:roni n o nqkomhnfinfkfllmng rmqjhihjknlgnhojlkk:roni o n V V roqgglmilijkhhgnllim oqkigghiijlkkhllign nqkomhnfinfkfllmng 90-(>-; V V V V |
  1
):-+:' {rn {lfl {kln |
  1
:336/,:r<*-): {rn kqinhikojlojlnikgi mlqkfffffflgjhhoni rl nqglifhonfghmnomfh:roni n o mqjoiklfgihhjkmkjh rkqiokmjjlknfjogmg:roni o n V V |
  1
/:-,*=:1+r><>;L036;W6,+0-&r>++-6= {rn {rn {lfi {lhl n m mf o |
  1
2>+:-6>3r>;:,4r>++-6= {rn {klm {rn {lfh lhi o |
  1
9><: {kll {klk {klj {m {rn {kli 90-(>-; ,6183: |
  1
300/ {rn {klh {klg {lfh |
  1
<01:r,*-9><: {rn kqinhikojlojlnikj mqofllignlfkjkokmf rl nqglifhonfghmnomfh:roni n o nqngfjfnkimgnkigfh rmqngjmkkoijgkljkn:roni o n V V roqgglmilijkhhgnllim oqkigghiijlkkhllign nqngfjfnkimgnkigfh 90-(>-; V V V V |
  1
300/ {rn {rn {kmm {lhl |
  1
<0:;8: {rn {kmn {kmn {klf {kko -:):-,:; {lfg {rn |
  1
<0:;8: {rn {kmm {kmm {kon {kml 90-(>-; {kmo {rn |
  1
:;8: {rn {kkn {kkn {kmm {kkm 90-(>-; |
  1
):-+:' {rn {kol {kkl |
  1
:336/,:r<*-): {rn kqinhikojlojlnikj nqmljomhgmnfmiggkk rl nqglifhonfghmnomfh:roni n o nqnhkofnngmohggjhj rmqnjihhojnmoiooohi:roni o n V V |
  1
/061+ {rn jqhfnhlnhnminojomi nqmokfhgkliilnkkfg rl |
  1
/061+ {rn hqnmkogolfgmgjgfoh mmqhkggmfjhkljhjfh rl |
  1
<0:;8: {rn {kmg {kmg {kno {kmf -:):-,:; {kkk {rn |
  1
:;8: {rn {kkj {kkj {kno {kki 90-(>-; |
  1
/:-,*=:1+r><>;L036;W6,+0-&r>++-6= {rn {rn {knn {lfn n m lg o |
  1
/061+ {rn hqnmkogolfgmgjgfkm mlqkfffffflgjhhoni rl |
  1
/:-,*=:1+r><>;L036;W6,+0-&r>++-6= {rn {rn {kni {lfh n m lo o |
  1
2>+:-6>3r>;:,4r>++-6= {rn {kkh {rn {knh lhi o |
  1
9><: {kkg {kkf {kjo {m {rn {kjn 90-(>-; ,6183: |
  1
300/ {rn {kjm {kjl {knh |
  1
<01:r,*-9><: {rn kqinhikojlojlnikj mqnmffjmjllokkmnhf rl nqglifhonfghmnomfh:roni n o nqnihhigflkfgoogj rmqnkjnjihlmjjoinm:roni o n V V o n nqnihhigflkfgoogj 90-(>-; V V V V |
  1
300/ {rn {rn {klf {lfh |
  1
<0:;8: {rn {klg {klg {kjk {kjj -:):-,:; {kng {rn |
  1
<0:;8: {rn {klf {klf {kmn {kko 90-(>-; {klh {rn |
  1
:;8: {rn {kji {kji {klf {kjh 90-(>-; |
  1
):-+:' {rn {kml {kjg |
  1
:336/,:r<*-): {rn kqinhikojlojlnikj mqojnhlkliojigkmki rl nqglifhonfghmnomfh:roni n o nqmnnknlffoikfmfkk rmqmmjllnlffnlikhon:roni o n V V |
  1
/061+ {rn jqhfnhlnhnminojomi nqmljomhgmnfmiggkk rl |
  1
300/ {rn {kjf {kmg {kio |
  1
):-+:' {rn {kmf {kin |
  1
:336/,:r<*-): {rn kqinhikojlojlnikj jqomfjhooniomlmjh rl nqglifhonfghmnomfh:roni n o nqkmkjkmnkhlmhfmij rmqinigknkhnkilkilj:roni o n V V |
  1
/:-,*=:1+r><>;L036;W6,+0-&r>++-6= {rn {rn {kll {knh n m ln o |
  1
2>+:-6>3r>;:,4r>++-6= {rn {kim {rn {klk lhi o |
  1
9><: {kil {kik {kij {m {rn {kii 90-(>-; ,6183: |
  1
300/ {rn {kih {kig {klk |
  1
+0-*,r,*-9><: {rn kqinhikojlojlnikj mqllkimhnnlokihfmi rl nqglifhonfghmnomfh:roni n o nqnnfnokmgnhjgkiom oqnginkgllikhkijfih o o n 90-(>-;@) V V V V |
  1
300/ {rn {rn {kjk {knh |
  1
<0:;8: {rn {kjl {kjl {kif {kho -:):-,:; {klj {rn |
  1
<0:;8: {rn {kjk {kjk {klg {kjj 90-(>-; {kjm {rn |
  1
:;8: {rn {khn {khn {kjk {khm 90-(>-; |
  1
):-+:' {rn {kko {khl |
  1
:336/,:r<*-): {rn kqinhikojlojlnikj mqognhglhkjgilgjfl rl nqglifhonfghmnomfh:roni n o nqmnnknlffoikfmfkk rmqmmjllnlffnlikhon:roni o n V V |
  1
/061+ {rn jqgmfojkjmnngoflfj mqojnhlkliojigkmki rl |
  1
300/ {rn {rn {khk {kio |
  1
9><: {khj {lfn {kkk {m {rn {khi 90-(>-; ,6183: |
  1
/061+ {rn iqokmngmihhgjfjhnj jqomfjhooniomlmkff rl |
  1
/:-,*=:1+r><>;L036;W6,+0-&r>++-6= {rn {rn {kkg {klk n m lm o |
  1
2>+:-6>3r>;:,4r>++-6= {rn {khh {rn {kkf lhi o |
  1
9><: {khg {khf {kgo {m {rn {kgn 90-(>-; ,6183: |
  1
300/ {rn {kgm {kgl {kkf |
  1
<01:r,*-9><: {rn kqinhikojlojlnikj lqlnimgfkogglnkjgh rl nqglifhonfghmnomfh:roni n o nqmiihjfohikohgnji rmqlmiffgihmlmojllm:roni o n V V oqogfkjoonlfhlgglfig oqffjffnlnmhnlnjknn nqmiihjfohikohgnji 90-(>-; V V V V |
  1
300/ {rn {rn {kif {klk |
  1
<0:;8: {rn {kig {kig {kgk {kgj -:):-,:; {kjo {rn |
  1
<0:;8: {rn {kif {kif {kjl {kho 90-(>-; {kih {rn |
  1
:;8: {rn {kgi {kgi {kif {kgh 90-(>-; |
  1
):-+:' {rn {kjj {kgg |
  1
:336/,:r<*-): {rn kqinhikojlojlnikj mqnokfjmjllokkmnfk rl nqglifhonfghmnomfh:roni n o nqnihhigflkfgoogj rmqnkjnjihlmjjoinm:roni o n V V |
  1
/061+ {rn jqgmfojkjmnngoflfj mqognhglhkjgilgjfl rl |
  1
<0:;8: {rn {khk {khk {kgf {kfo 90-(>-; {kjf {rn |
  1
2>+:-6>3r>;:,4r>++-6= {rn {kfn {rn {kio lhi o |
  1
<01:r,*-9><: {rn kqinhikojlojlnikj jqonkjkjlmllhjjkll rl nqglifhonfghmnomfh:roni n o nqkmkjkmnkhlmhfmij rmqinigknkhnkilkilj:roni o n V V o n nqkmkjkmnkhlmhfmij 90-(>-; V V V V |
  1
/:-,*=:1+r><>;L036;W6,+0-&r>++-6= {rn {rn {kil {kkf n m ll o |
  1
2>+:-6>3r>;:,4r>++-6= {rn {kfm {rn {kik lhi o |
  1
9><: {kfl {kfk {kfj {m {rn {kfi 90-(>-; ,6183: |
  1
300/ {rn {kfh {kfg {kik |
  1
<01:r,*-9><: {rn kqinhikojlojlnikj kqnkonmgfglgokhhnh rl nqglifhonfghmnomfh:roni n o nqlilknillokhjojog rmqjokjjjnihjlmmjnm:roni o n V V oqgglmilijkhhgnkllf oqkigghiijlkkhlngkf nqlilknillokhjojog 90-(>-; V V V V |
  1
300/ {rn {rn {kgk {kkf |
  1
<0:;8: {rn {kgl {kgl {kff {joo -:):-,:; {kij {rn |
  1
<0:;8: {rn {kgk {kgk {kig {kgj 90-(>-; {kgm {rn |
  1
:;8: {rn {jon {jon {kgk {jom 90-(>-; |
  1
):-+:' {rn {kho {jol |
  1
:336/,:r<*-): {rn kqinhikojlojlnikj mqnjkfjmjllokkmnij rl nqglifhonfghmnomfh:roni n o nqnihhigflkfgoogj rmqnkjnjihlmjjoinm:roni o n V V |
  1
/061+ {rn jqhgjkofkijjnnhlon mqnokfjmjllokkmnfk rl |
  1
<0:;8: {rn {kgf {kgf {khk {kfo -:):-,:; {jok {rn |
  1
:;8: {rn {joj {joj {khk {joi 90-(>-; |
  1
/:-,*=:1+r><>;L036;W6,+0-&r>++-6= {rn {rn {khj {kio n m lh o |
  1
/:-,*=:1+r><>;L036;W6,+0-&r>++-6= {rn {rn {khg {kik n m lk o |
  1
2>+:-6>3r>;:,4r>++-6= {rn {joh {rn {khf lhi o |
  1
9><: {jog {kio {jok {m {rn {jof 90-(>-; ,6183: |
  1
300/ {rn {jno {jnn {khf |
  1
<01:r,*-9><: {rn kqinhikojlojlnikj kqnihhgflffklgjinl rl nqglifhonfghmnomfh:roni n o nqlghmnfllghjhkgfi rmqjkgmgojgklghoon:roni o n V V o n nqlghmnfllghjhkgfi 90-(>-; V V V V |
  1
300/ {rn {rn {kff {kik |
  1
<0:;8: {rn {kfg {kfg {jnm {jnl -:):-,:; {kgo {rn |
  1
<0:;8: {rn {kff {kff {kgl {joo 90-(>-; {kfh {rn |
  1
:;8: {rn {jnk {jnk {kff {jnj 90-(>-; |
  1
):-+:' {rn {kgj {jni |
  1
:336/,:r<*-): {rn kqinhikojlojlnikj mqjojogjjjigkkmmgh rl nqglifhonfghmnomfh:roni n o nqnflfokgloimlonfn rmqnflnihjflfiljiki:roni o n V V |
  1
/061+ {rn jqhgjkofkijjnnhlon mqnjkfjmjllokkmnij rl |
  1
300/ {rn {jnh {kgf {kfk |
  1
):-+:' {rn {kfo {jng |
  1
:336/,:r<*-): {rn kqinhikojlojlnikj kqfffjmoilohmhgmmk rl nqglifhonfghmnomfh:roni n o nqkmkjkmnkhlmhfmij rmqinigknkhnkilkilj:roni o n V V |
  1
/:-,*=:1+r><>;L036;W6,+0-&r>++-6= {rn {rn {kfl {khf n m lj o |
  1
2>+:-6>3r>;:,4r>++-6= {rn {jnf {rn {kfk lhi o |
  1
+0-*,r,*-9><: {rn kqinhikojlojlnikj kqioolnlkjmfnlfogf rl nqglifhonfghmnomfh:roni n o nqmojhklgomokiikhg oqkjjmljnffllhimmjg o o n 90-(>-;@) V V V V |
  1
300/ {rn {rn {jnm {khf |
  1
<0:;8: {rn {jnn {jnn {jmo {jmn -:):-,:; {kfj {rn |
  1
<0:;8: {rn {jnm {jnm {kfg {jnl 90-(>-; {jno {rn |
  1
:;8: {rn {jmm {jmm {jnm {jml 90-(>-; |
  1
):-+:' {rn {joo {jmk |
  1
:336/,:r<*-): {rn kqinhikojlojlnikj kqnmhkflmiogngiggh rl nqglifhonfghmnomfh:roni n o nqllfinllmmnfminmn rmqkiogmfhjoihhjonk:roni o n V V |
  1
/061+ {rn jqgnnjkjlinnjkiikn mqjojogjjjigkkmmgh rl |
  1
300/ {rn {rn {jmo {kfk |
  1
/061+ {rn iqokmngmihhgjfjhnj kqfffjmoilohmhgnjl rl |
  1
/:-,*=:1+r><>;L036;W6,+0-&r>++-6= {rn {rn {jog {kfk n m li o |
  1
<0:;8: {rn {jmo {jmo {jnn {jmn 90-(>-; {jnh {rn |
  1
:;8: {rn {jmj {jmj {jmo {jmi 90-(>-; |
  1
):-+:' {rn {jnl {jmh |
  1
:336/,:r<*-): {rn kqinhikojlojlnikj kqnjmhikhoihfogkhj rl nqglifhonfghmnomfh:roni n o nqlghmnfllghjhkgfi rmqjkgmgojgklghoon:roni o n V V |
  1
/061+ {rn jqfjhmjlgjmhmkmjhn kqnmhkflmiogngiggh rl |
  1
):-+:' {rn {jmn {jmg |
  1
:336/,:r<*-): {rn kqinhikojlojlnikj kqngmgnkofmogimgmm rl nqglifhonfghmnomfh:roni n o nqlghmnfllghjhkgfi rmqjkgmgojgklghoon:roni o n V V |
  1
/061+ {rn iqookgjfgifmgfnlki kqnjmhikhoihfogkok rl |
  1
/061+ {rn iqookgjfgifmgfnlki kqngmgnkofmogimhjn rl |
  0
ENDBLK
  5
1F8
330
1F0
100
AcDbEntity
  8
0
100
AcDbBlockEnd
  0
BLOCK
  5
227
330
21F
100
AcDbEntity
  8
0
100
AcDbBlockBegin
  2
A$C067A29E2
 70
     0
 10
0.0
 20
0.0
 30
0.0
  3
A$C067A29E2
  1

  0
LINE
  5
220
330
21F
100
AcDbEntity
  8
0
100
AcDbLine
 10
0.2500001443107749
 20
34.50000011755245
 30
0.0
 11
0.2500001443107749
 21
4.000000117552445
 31
0.0
  0
LINE
  5
221
330
21F
100
AcDbEntity
  8
0
100
AcDbLine
 10
0.2500001443107749
 20
4.000000117552445
 30
0.0
 11
3.750000144310773
 21
4.000000117552445
 31
0.0
  0
LINE
  5
222
330
21F
100
AcDbEntity
  8
0
100
AcDbLine
 10
3.750000144310773
 20
4.000000117552445
 30
0.0
 11
3.750000144310773
 21
34.50000011755245
 31
0.0
  0
LINE
  5
223
330
21F
100
AcDbEntity
  8
0
100
AcDbLine
 10
3.750000144310773
 20
34.50000011755245
 30
0.0
 11
0.2500001443107749
 21
34.50000011755245
 31
0.0
  0
CIRCLE
  5
224
330
21F
100
AcDbEntity
  8
0
100
AcDbCircle
 10
2.000000144310773
 20
2.000000117552445
 30
0.0
 40
2.0
  0
ENDBLK
  5
228
330
21F
100
AcDbEntity
  8
0
100
AcDbBlockEnd
  0
BLOCK
  5
2FF
330
2F7
100
AcDbEntity
  8
0
100
AcDbBlockBegin
  2
A$C3170048A
 70
     0
 10
0.0
 20
0.0
 30
0.0
  3
A$C3170048A
  1

  0
LINE
  5
2F8
330
2F7
100
AcDbEntity
  8
0
100
AcDbLine
 10
0.1249998673825701
 20
34.50000011755245
 30
0.0
 11
0.1249998673825701
 21
3.000000117552445
 31
0.0
  0
LINE
  5
2F9
330
2F7
100
AcDbEntity
  8
0
100
AcDbLine
 10
0.1249998673825701
 20
3.000000117552445
 30
0.0
 11
2.87499986738257
 21
3.000000117552445
 31
0.0
  0
LINE
  5
2FA
330
2F7
100
AcDbEntity
  8
0
100
AcDbLine
 10
2.87499986738257
 20
3.000000117552445
 30
0.0
 11
2.874999867382598
 21
34.50000011755245
 31
0.0
  0
LINE
  5
2FB
330
2F7
100
AcDbEntity
  8
0
100
AcDbLine
 10
2.87499986738257
 20
34.50000011755245
 30
0.0
 11
0.1249998673825416
 21
34.50000011755245
 31
0.0
  0
CIRCLE
  5
2FC
330
2F7
100
AcDbEntity
  8
0
100
AcDbCircle
 10
1.49999986738257
 20
1.500000117552444
 30
0.0
 40
1.5
  0
ENDBLK
  5
300
330
2F7
100
AcDbEntity
  8
0
100
AcDbBlockEnd
  0
ENDSEC
  0
SECTION
  2
ENTITIES
  0
3DSOLID
  5
308
330
1F
100
AcDbEntity
  8
0
100
AcDbModelerGeometry
 70
     1
  1
koo nmk n o         
  1
ni ^ *+0;:,4 ^ *+0\^ [ nf ^ LR mnhqoqoqkjol QK o  
  1
mjqlffffffffffffff fqfffffffffffffffj:rooh n:rono 
  1
=0;& {n {m {rn {rn |
  1
-:9@)+r:&:r>++-6= {rn {rn {rn {o {l {k |
  1
3*2/ {j {rn {i {o |
  1
:&:@-:961:2:1+ {rn j 8-6;  n l +-6 n k ,*-9 o l >;5 o k 8->; o f /0,+<7:<4 o k ,+03 oqolfhohnmhfjgjlinkg k 1+03 lo k ;,63 o g 93>+1:,, o h /6'>-:> o k 72>' o i 8-6;>- o j 28-6; looo j *8-6; o j )8-6; o no :1;@96:3;, |
  1
):-+:'@+:2/3>+: {rn l o n g |
  1
-:9@)+r:&:r>++-6= {rn {rn {rn {m {l {k |
  1
,7:33 {h {rn {rn {g {rn {m |
  1
-:9@)+r:&:r>++-6= {rn {rn {rn {i {l {k |
  1
9><: {f {no {nn {i {rn {nm 90-(>-; ,6183: |
  1
/:-,*=:1+r><>;L036;W6,+0-&r>++-6= {rn {rn {rn {g n j n o |
  1
9><: {nl {nk {nj {i {rn {ni 90-(>-; ,6183: |
  1
300/ {rn {rn {nh {g |
  1
/3>1:r,*-9><: {rn rnqlhj rnqlhjoooooooooomgk ljqj o o n n o o 90-(>-;@) V V V V |
  1
92:,7r:&:r>++-6= {rn {ng {rn {no |
  1
9><: {nf {mo {mn {i {rn {mm 90-(>-; ,6183: |
  1
300/ {rn {rn {ml {no |
  1
,/7:-:r,*-9><: {rn o o nqj nqj o rn o n o o 90-(>-;@) V V V V |
  1
<0:;8: {rn {mk {mj {mi {mh -:):-,:; {nn {rn |
  1
-:9@)+r:&:r>++-6= {rn {mg {nl {no {l {k |
  1
92:,7r:&:r>++-6= {rn {mf {rn {nk |
  1
9><: {lo {ln {lm {i {rn {ll 90-(>-; ,6183: |
  1
300/ {rn {rn {lk {nk |
  1
/3>1:r,*-9><: {rn rnqlhj nqlhj lkqj o n rfqommhikgfgjkofjkm:roni o fqommhikgfgjkofjkm:roni n 90-(>-;@) V V V V |
  1
<0:;8: {rn {ml {ml {rn {lj 90-(>-; {nj {rn |
  1
<0:;8: {rn {li {nh {lh {lg -:):-,:; {nn {rn |
  1
<0:;8: {rn {nh {li {lf {ko -:):-,:; {nn {rn |
  1
<0:;8: {rn {kn {km {nh {mh 90-(>-; {kl {rn |
  1
:;8: {rn {kk {kj {mi {ki 90-(>-; |
  1
/:-,*=:1+r><>;L036;W6,+0-&r>++-6= {rn {rn {ng {no n i m o |
  1
-:9@)+r:&:r>++-6= {rn {kh {nf {nk {l {k |
  1
92:,7r:&:r>++-6= {rn {kg {rn {mo |
  1
9><: {kf {jo {kl {i {rn {jn 90-(>-; ,6183: |
  1
300/ {rn {jm {jl {mo |
  1
/3>1:r,*-9><: {rn rnqlhj nqlhj l o o rn rn o o 90-(>-;@) V V V V |
  1
<0:;8: {rn {jk {jj {ji {jh 90-(>-; {mn {rn |
  1
:;8: {rn {jg {jg {ml {rn 90-(>-; |
  1
<0:;8: {rn {mj {mk {jj {jf -:):-,:; {nn {rn |
  1
<0:;8: {rn {io {ji {mk {lg 90-(>-; {in {rn |
  1
:;8: {rn {im {kk {lh {il 90-(>-; |
  1
<0:;8: {rn {ik {ij {mj {ko 90-(>-; {ii {rn |
  1
:;8: {rn {kj {ih {lf {ig 90-(>-; |
  1
<0:;8: {rn {if {mi {ij {ho -:):-,:; {kl {rn |
  1
<0:;8: {rn {mi {if {io {hn 90-(>-; {kl {rn |
  1
300/ {rn {rn {km {ln |
  1
):-+:' {rn {hn {hm |
  1
):-+:' {rn {ho {hl |
  1
,+->687+r<*-): {rn rnqlhj rnqlhjoooooooooomgk ljqj rn ro ro V V |
  1
/:-,*=:1+r><>;L036;W6,+0-&r>++-6= {rn {rn {mf {nk n j k o |
  1
-:9@)+r:&:r>++-6= {rn {hk {lo {mo {l {k |
  1
92:,7r:&:r>++-6= {rn {hj {rn {ln |
  1
9><: {hi {hh {in {i {rn {hg 90-(>-; ,6183: |
  1
/3>1:r,*-9><: {rn rnqlhj rnqlhj l o rn o o o rn 90-(>-;@) V V V V |
  1
300/ {rn {rn {hf {mo |
  1
<0:;8: {rn {jl {jl {rn {go 90-(>-; {lm {rn |
  1
<0:;8: {rn {gn {lk {gm {gl -:):-,:; {mn {rn |
  1
<0:;8: {rn {lk {gn {li {jf 90-(>-; {mn {rn |
  1
<0:;8: {rn {lh {gk {lk {jh -:):-,:; {in {rn |
  1
:;8: {rn {im {gj {lk {gi 90-(>-; |
  1
):-+:' {gh {rn {gg |
  1
:;8: {rn {ih {im {jj {gf 90-(>-; |
  1
<0:;8: {rn {gk {lh {km {hn -:):-,:; {in {rn |
  1
300/ {rn {rn {ji {jo |
  1
):-+:' {rn {jh {fo |
  1
,+->687+r<*-): {rn nqlhj nqlhj ljqj ro rn ro V V |
  1
<0:;8: {rn {fn {lf {gn {fm -:):-,:; {ii {rn |
  1
<0:;8: {rn {lf {fn {kn {ho 90-(>-; {ii {rn |
  1
300/ {rn {rn {ik {hh |
  1
):-+:' {rn {fm {fl |
  1
,+->687+r<*-): {rn rnqlhj nqlhj ljqj o n o V V |
  1
<0:;8: {rn {km {kn {fk {fj 90-(>-; {kl {rn |
  1
:;8: {rn {fi {kj {ij {fh 90-(>-; |
  1
:;8: {rn {fg {kk {km {ff 90-(>-; |
  1
/061+ {rn nqlhj rnqlhjoooooooooomgk ljqj |
  1
/061+ {rn rnqlhj rnqlhjoooooooooomgk ljqj |
  1
/:-,*=:1+r><>;L036;W6,+0-&r>++-6= {rn {rn {kg {mo n j l o |
  1
-:9@)+r:&:r>++-6= {rn {noo {kf {ln {l {k |
  1
92:,7r:&:r>++-6= {rn {non {rn {jo |
  1
9><: {nom {rn {ii {i {rn {nol -:):-,:; ,6183: |
  1
/3>1:r,*-9><: {rn nqlhj iqmnhmkgflhfooghii:ronj ngqhjooooooooooooh n o o o o rn 90-(>-;@) V V V V |
  1
<0:;8: {rn {fk {gm {gk {nok 90-(>-; {jm {rn |
  1
:;8: {rn {jg {jg {jl {rn 90-(>-; |
  1
<0:;8: {rn {jj {jk {ik {fm 90-(>-; {mn {rn |
  1
<0:;8: {rn {hf {noj {jk {gl 90-(>-; {jm {rn |
  1
:;8: {noi {noh {gj {gm {nog 90-(>-; |
  1
<0:;8: {rn {ji {io {hf {nok -:):-,:; {in {rn |
  1
):-+:' {rn {gl {nof |
  1
,+->687+r<*-): {rn nqlhj nqlhj l ro rfqommhikgfgjkofjkm:roni rn V V |
  1
):-+:;8:r,&,r>++-6= {rn {rn {rn {jg k {go {lj {rn {rn |
  1
/061+ {rn o o l |
  1
,+->687+r<*-): {rn rnqlhj nqlhj ljqj n o o V V |
  1
/061+ {rn nqlhj nqlhj ljqj |
  1
<0:;8: {rn {ij {ik {noj {nno -:):-,:; {ii {rn |
  1
:;8: {rn {noh {ih {gn {nnn 90-(>-; |
  1
/061+ {rn rnqlhj nqlhj ljqj |
  1
<0:;8: {rn {noj {hf {if {fj -:):-,:; {jm {rn |
  1
:;8: {nnm {fi {fg {if {nnl 90-(>-; |
  1
):-+:' {rn {ho {nnk |
  1
,+->687+r<*-): {rn rnqlhj rnqlhjoooooooooomgk lkqj o o n V V |
  1
):-+:' {rn {fj {nnj |
  1
,+->687+r<*-): {rn nqlhj rnqlhjoooooooooomgk lkqj o o n V V |
  1
/:-,*=:1+r><>;L036;W6,+0-&r>++-6= {rn {rn {hj {ln n j m o |
  1
-:9@)+r:&:r>++-6= {rn {nni {hi {jo {l {k |
  1
92:,7r:&:r>++-6= {rn {nnh {rn {hh |
  1
/3>1:r,*-9><: {rn rnqlhj iqmnhmkgflhfooghii:ronj ngqhjooooooooooooh n o o o o rn 90-(>-;@) V V V V |
  1
:;8: {nng {gj {fg {hf {nnf 90-(>-; |
  1
<0:;8: {rn {gm {fk {fn {nno 90-(>-; {jm {rn |
  1
/+36,+r:&:r>++-6= {rn {rn {rn {gl |
  1
):-+:' {rn {nno {nmo |
  1
,+->687+r<*-): {rn rnqlhj nqlhj l n o o V V |
  1
/061+ {rn nqlhj nqlhj l |
  1
:;8: {nmn {fi {noh {noj {nmm 90-(>-; |
  1
,+->687+r<*-): {rn rnqlhj nqlhj l o fqommhikgfgjkofjkm:roni n V V |
  1
/+36,+r:&:r>++-6= {rn {rn {rn {fj |
  1
,+->687+r<*-): {rn rnqlhj rnqlhj l n o o V V |
  1
/061+ {rn rnqlhj rnqlhj l |
  1
/061+ {rn nqlhj rnqlhj l |
  1
/:-,*=:1+r><>;L036;W6,+0-&r>++-6= {rn {rn {non {jo n j nooooooooo m |
  1
-:9@)+r:&:r>++-6= {rn {nml {nom {hh {l {k |
  1
/+36,+r:&:r>++-6= {rn {rn {rn {nok |
  1
,+->687+r<*-): {rn nqlhj rnqlhj l ro rn ro V V |
  1
/061+ {rn rnqlhj nqlhj l |
  1
/+36,+r:&:r>++-6= {rn {rn {rn {nno |
  1
,+->687+r<*-): {rn rnqlhj rnqlhj l o n o V V |
  1
/:-,*=:1+r><>;L036;W6,+0-&r>++-6= {rn {rn {nnh {hh n j nooooooooo n |
  0
LINE
  5
30C
330
1F
100
AcDbEntity
  8
0
100
AcDbLine
 10
-1.375
 20
-1.375
 30
3.0
 11
1.375
 21
1.375
 31
3.0
210
1.0
220
0.0
230
0.0
  0
ENDSEC
  0
SECTION
  2
OBJECTS
  0
DICTIONARY
  5
C
330
0
100
AcDbDictionary
281
     1
  3
ACAD_2007HEADERVARS_RT
350
360
  3
ACAD_ASSOCPERSSUBENTMANAGER
350
207
  3
ACAD_BACKGROUND
350
23B
  3
ACAD_CIP_PREVIOUS_PRODUCT_INFO
350
20A
  3
ACAD_COLOR
350
B5
  3
ACAD_GROUP
350
D
  3
ACAD_LAYOUT
350
1A
  3
ACAD_MATERIAL
350
B4
  3
ACAD_MLEADERSTYLE
350
1B3
  3
ACAD_MLINESTYLE
350
17
  3
ACAD_PERSUBENTMGR
350
1F9
  3
ACAD_PLOTSETTINGS
350
19
  3
ACAD_PLOTSTYLENAME
350
E
  3
ACAD_SCALELIST
350
191
  3
ACAD_TABLESTYLE
350
B6
  3
ACAD_VISUALSTYLE
350
180
  3
ACDB_RECOMPOSE_DATA
350
35E
  3
AcDbVariableDictionary
350
15F
  3
AEC_PROPERTY_SET_DEFS
350
218
  3
DWGPROPS
350
35F
  0
DICTIONARY
  5
20C
330
2
100
AcDbDictionary
280
     1
281
     1
  3
ACAD_LAYERSTATES
360
20D
  0
DICTIONARY
  5
240
330
10
100
AcDbDictionary
280
     1
281
     1
  3
ADSK_XREC_LAYER_RECONCILED
360
241
  0
DICTIONARY
  5
242
330
AB
100
AcDbDictionary
280
     1
281
     1
  3
ADSK_XREC_LAYER_RECONCILED
360
243
  0
DICTIONARY
  5
225
330
21F
100
AcDbDictionary
280
     1
281
     1
  3
ACAD_SORTENTS
360
226
  0
DICTIONARY
  5
2FD
330
2F7
100
AcDbDictionary
280
     1
281
     1
  3
ACAD_SORTENTS
360
2FE
  0
DICTIONARY
  5
360
102
{ACAD_REACTORS
330
C
102
}
330
C
100
AcDbDictionary
281
     1
  3
DIMFXL
350
361
  3
INTERFEREVPVS
350
362
  0
ACDBASSOCPERSSUBENTMANAGER
  5
207
102
{ACAD_REACTORS
330
C
102
}
330
C
100
AcDbAssocPersSubentManager
 90
        1
 90
        3
 90
        0
 90
        2
 90
        6
 90
        0
 90
        0
 90
        0
290
     0
  0
DICTIONARY
  5
23B
102
{ACAD_REACTORS
330
C
102
}
330
C
100
AcDbDictionary
281
     1
  0
XRECORD
  5
20A
102
{ACAD_REACTORS
330
C
102
}
330
C
100
AcDbXrecord
280
     1
300
ACD
300
2012
300
ACD_F_S
  0
DICTIONARY
  5
B5
102
{ACAD_REACTORS
330
C
102
}
330
C
100
AcDbDictionary
281
     1
  0
DICTIONARY
  5
D
102
{ACAD_REACTORS
330
C
102
}
330
C
100
AcDbDictionary
281
     1
  0
DICTIONARY
  5
1A
102
{ACAD_REACTORS
330
C
102
}
330
C
100
AcDbDictionary
281
     1
  3
Layout1
350
1E
  3
Layout2
350
26
  3
Model
350
22
  0
DICTIONARY
  5
B4
102
{ACAD_REACTORS
330
C
102
}
330
C
100
AcDbDictionary
281
     1
  3
ByBlock
350
170
  3
ByLayer
350
168
  3
Global
350
178
  0
DICTIONARY
  5
1B3
102
{ACAD_REACTORS
330
C
102
}
330
C
100
AcDbDictionary
281
     1
  3
Standard
350
1B4
  0
DICTIONARY
  5
17
102
{ACAD_REACTORS
330
C
102
}
330
C
100
AcDbDictionary
281
     1
  3
Standard
350
18
  0
ACDBPERSSUBENTMANAGER
  5
1F9
102
{ACAD_REACTORS
330
C
102
}
330
C
100
AcDbPersSubentManager
 90
        2
 90
        0
 90
        2
 90
        6
 90
        0
 90
        4
 90
        1
 90
        2
 90
        5
 90
        6
  0
DICTIONARY
  5
19
102
{ACAD_REACTORS
330
C
102
}
330
C
100
AcDbDictionary
281
     1
  0
ACDBDICTIONARYWDFLT
  5
E
102
{ACAD_REACTORS
330
C
102
}
330
C
100
AcDbDictionary
281
     1
  3
Normal
350
F
100
AcDbDictionaryWithDefault
340
F
  0
DICTIONARY
  5
191
102
{ACAD_REACTORS
330
C
102
}
330
C
100
AcDbDictionary
281
     1
  3
A0
350
192
  3
A1
350
193
  3
A2
350
194
  3
A3
350
195
  3
A4
350
196
  3
A5
350
197
  3
A6
350
198
  3
A7
350
199
  3
A8
350
19A
  3
A9
350
19B
  3
B0
350
19C
  3
B1
350
19D
  3
B2
350
19E
  3
B3
350
19F
  3
B4
350
1A0
  3
B5
350
1A1
  3
B6
350
1A2
  3
B7
350
1A3
  3
B8
350
1A4
  3
B9
350
1A5
  3
C0
350
1A6
  3
C1
350
1A7
  3
C2
350
1A8
  3
C3
350
1A9
  3
C4
350
1AA
  3
C5
350
1AB
  3
C6
350
1AC
  3
C7
350
1AD
  3
C8
350
1AE
  3
C9
350
1AF
  3
D0
350
1B0
  3
D1
350
1B1
  3
D2
350
1B2
  0
DICTIONARY
  5
B6
102
{ACAD_REACTORS
330
C
102
}
330
C
100
AcDbDictionary
281
     1
  3
Standard
350
B7
  0
DICTIONARY
  5
180
102
{ACAD_REACTORS
330
C
102
}
330
C
100
AcDbDictionary
281
     1
  3
2dWireframe
350
186
  3
3D Hidden
350
188
  3
3dWireframe
350
187
  3
Basic
350
185
  3
Brighten
350
18C
  3
ColorChange
350
190
  3
Conceptual
350
189
  3
Dim
350
18B
  3
EdgeColorOff
350
205
  3
Facepattern
350
18F
  3
Flat
350
181
  3
FlatWithEdges
350
182
  3
Gouraud
350
183
  3
GouraudWithEdges
350
184
  3
Hidden
350
1FD
  3
JitterOff
350
203
  3
Linepattern
350
18E
  3
OverhangOff
350
204
  3
Realistic
350
18A
  3
Shaded
350
202
  3
Shaded with edges
350
201
  3
Shades of Gray
350
1FE
  3
Sketchy
350
1FF
  3
Thicken
350
18D
  3
Wireframe
350
1FC
  3
X-Ray
350
200
  0
XRECORD
  5
35E
102
{ACAD_REACTORS
330
C
102
}
330
C
100
AcDbXrecord
280
     1
 90
        1
330
B7
  0
DICTIONARY
  5
15F
102
{ACAD_REACTORS
330
C
102
}
330
C
100
AcDbDictionary
281
     1
  3
CANNOSCALE
350
1E5
  3
CMLEADERSTYLE
350
1E3
  3
CTABLESTYLE
350
160
  3
DIMASSOC
350
247
  3
INDEXCTL
350
245
  3
LIGHTINGUNITS
350
1E6
  3
MSLTSCALE
350
1E4
  3
SOLIDHIST
350
248
  3
SORTENTS
350
244
  3
XCLIPFRAME
350
35A
  0
DICTIONARY
  5
218
102
{ACAD_REACTORS
330
C
102
}
330
C
100
AcDbDictionary
281
     1
  0
XRECORD
  5
35F
102
{ACAD_REACTORS
330
C
102
}
330
C
100
AcDbXrecord
280
     1
  1
DWGPROPS COOKIE
  2

  3

  4

  6

  7

  8
Haden
  9

300
=
301
=
302
=
303
=
304
=
305
=
306
=
307
=
308
=
309
=
 40
0.0050569675925926
 41
2456063.473566135
 42
2456064.561304664
  1

 90
        0
  0
DICTIONARY
  5
20D
102
{ACAD_REACTORS
330
20C
102
}
330
20C
100
AcDbDictionary
281
     1
  0
XRECORD
  5
241
102
{ACAD_REACTORS
330
240
102
}
330
240
100
AcDbXrecord
280
     1
290
     1
  0
XRECORD
  5
243
102
{ACAD_REACTORS
330
242
102
}
330
242
100
AcDbXrecord
280
     1
290
     1
  0
SORTENTSTABLE
  5
226
102
{ACAD_REACTORS
330
225
102
}
330
225
100
AcDbSortentsTable
330
21F
  0
SORTENTSTABLE
  5
2FE
102
{ACAD_REACTORS
330
2FD
102
}
330
2FD
100
AcDbSortentsTable
330
2F7
  0
XRECORD
  5
361
102
{ACAD_REACTORS
330
360
102
}
330
360
100
AcDbXrecord
280
     1
 40
0.18
  0
XRECORD
  5
362
102
{ACAD_REACTORS
330
360
102
}
330
360
100
AcDbXrecord
280
     1
340
187
  0
LAYOUT
  5
1E
102
{ACAD_XDICTIONARY
360
363
102
}
102
{ACAD_REACTORS
330
1A
102
}
330
1A
100
AcDbPlotSettings
  1

  2

  4

  6

 40
0.0
 41
0.0
 42
0.0
 43
0.0
 44
0.0
 45
0.0
 46
0.0
 47
0.0
 48
0.0
 49
0.0
140
0.0
141
0.0
142
1.0
143
1.0
 70
   688
 72
     0
 73
     0
 74
     5
  7

 75
    16
147
1.0
148
0.0
149
0.0
100
AcDbLayout
  1
Layout1
 70
     1
 71
     1
 10
0.0
 20
0.0
 11
12.0
 21
9.0
 12
0.0
 22
0.0
 32
0.0
 14
1.000000000000000E+20
 24
1.000000000000000E+20
 34
1.000000000000000E+20
 15
-1.000000000000000E+20
 25
-1.000000000000000E+20
 35
-1.000000000000000E+20
146
0.0
 13
0.0
 23
0.0
 33
0.0
 16
1.0
 26
0.0
 36
0.0
 17
0.0
 27
1.0
 37
0.0
 76
     0
330
1B
  0
LAYOUT
  5
26
102
{ACAD_XDICTIONARY
360
367
102
}
102
{ACAD_REACTORS
330
1A
102
}
330
1A
100
AcDbPlotSettings
  1

  2

  4

  6

 40
0.0
 41
0.0
 42
0.0
 43
0.0
 44
0.0
 45
0.0
 46
0.0
 47
0.0
 48
0.0
 49
0.0
140
0.0
141
0.0
142
1.0
143
1.0
 70
   688
 72
     0
 73
     0
 74
     5
  7

 75
    16
147
1.0
148
0.0
149
0.0
100
AcDbLayout
  1
Layout2
 70
     1
 71
     2
 10
0.0
 20
0.0
 11
12.0
 21
9.0
 12
0.0
 22
0.0
 32
0.0
 14
0.0
 24
0.0
 34
0.0
 15
0.0
 25
0.0
 35
0.0
146
0.0
 13
0.0
 23
0.0
 33
0.0
 16
1.0
 26
0.0
 36
0.0
 17
0.0
 27
1.0
 37
0.0
 76
     0
330
23
  0
LAYOUT
  5
22
102
{ACAD_XDICTIONARY
360
365
102
}
102
{ACAD_REACTORS
330
1A
102
}
330
1A
100
AcDbPlotSettings
  1

  2

  4

  6

 40
0.0
 41
0.0
 42
0.0
 43
0.0
 44
0.0
 45
0.0
 46
0.0
 47
0.0
 48
0.0
 49
0.0
140
0.0
141
0.0
142
1.0
143
1.0
 70
  1712
 72
     0
 73
     0
 74
     0
  7

 75
     0
147
1.0
148
0.0
149
0.0
100
AcDbLayout
  1
Model
 70
     1
 71
     0
 10
0.0
 20
0.0
 11
12.0
 21
9.0
 12
0.0
 22
0.0
 32
0.0
 14
0.0
 24
0.0
 34
0.0
 15
0.0
 25
0.0
 35
0.0
146
0.0
 13
0.0
 23
0.0
 33
0.0
 16
1.0
 26
0.0
 36
0.0
 17
0.0
 27
1.0
 37
0.0
 76
     0
330
1F
331
166
  0
MATERIAL
  5
170
102
{ACAD_XDICTIONARY
360
171
102
}
102
{ACAD_REACTORS
330
B4
102
}
330
B4
100
AcDbMaterial
  1
ByBlock
 72
     0
 43
0.0208333333333333
 43
0.0
 43
0.0
 43
0.0
 43
0.0
 43
0.0208333333333333
 43
0.0
 43
0.0
 43
0.0
 43
0.0
 43
1.0
 43
0.0
 43
0.0
 43
0.0
 43
0.0
 43
1.0
 77
     0
 47
0.0208333333333333
 47
0.0
 47
0.0
 47
0.0
 47
0.0
 47
0.0208333333333333
 47
0.0
 47
0.0
 47
0.0
 47
0.0
 47
1.0
 47
0.0
 47
0.0
 47
0.0
 47
0.0
 47
1.0
171
     0
 49
0.0208333333333333
 49
0.0
 49
0.0
 49
0.0
 49
0.0
 49
0.0208333333333333
 49
0.0
 49
0.0
 49
0.0
 49
0.0
 49
1.0
 49
0.0
 49
0.0
 49
0.0
 49
0.0
 49
1.0
175
     0
142
0.0208333333333333
142
0.0
142
0.0
142
0.0
142
0.0
142
0.0208333333333333
142
0.0
142
0.0
142
0.0
142
0.0
142
1.0
142
0.0
142
0.0
142
0.0
142
0.0
142
1.0
179
     0
144
0.0208333333333333
144
0.0
144
0.0
144
0.0
144
0.0
144
0.0208333333333333
144
0.0
144
0.0
144
0.0
144
0.0
144
1.0
144
0.0
144
0.0
144
0.0
144
0.0
144
1.0
147
0.0208333333333333
147
0.0
147
0.0
147
0.0
147
0.0
147
0.0208333333333333
147
0.0
147
0.0
147
0.0
147
0.0
147
1.0
147
0.0
147
0.0
147
0.0
147
0.0
147
1.0
  0
MATERIAL
  5
168
102
{ACAD_XDICTIONARY
360
169
102
}
102
{ACAD_REACTORS
330
B4
102
}
330
B4
100
AcDbMaterial
  1
ByLayer
 72
     0
 43
0.0208333333333333
 43
0.0
 43
0.0
 43
0.0
 43
0.0
 43
0.0208333333333333
 43
0.0
 43
0.0
 43
0.0
 43
0.0
 43
1.0
 43
0.0
 43
0.0
 43
0.0
 43
0.0
 43
1.0
 77
     0
 47
0.0208333333333333
 47
0.0
 47
0.0
 47
0.0
 47
0.0
 47
0.0208333333333333
 47
0.0
 47
0.0
 47
0.0
 47
0.0
 47
1.0
 47
0.0
 47
0.0
 47
0.0
 47
0.0
 47
1.0
171
     0
 49
0.0208333333333333
 49
0.0
 49
0.0
 49
0.0
 49
0.0
 49
0.0208333333333333
 49
0.0
 49
0.0
 49
0.0
 49
0.0
 49
1.0
 49
0.0
 49
0.0
 49
0.0
 49
0.0
 49
1.0
175
     0
142
0.0208333333333333
142
0.0
142
0.0
142
0.0
142
0.0
142
0.0208333333333333
142
0.0
142
0.0
142
0.0
142
0.0
142
1.0
142
0.0
142
0.0
142
0.0
142
0.0
142
1.0
179
     0
144
0.0208333333333333
144
0.0
144
0.0
144
0.0
144
0.0
144
0.0208333333333333
144
0.0
144
0.0
144
0.0
144
0.0
144
1.0
144
0.0
144
0.0
144
0.0
144
0.0
144
1.0
147
0.0208333333333333
147
0.0
147
0.0
147
0.0
147
0.0
147
0.0208333333333333
147
0.0
147
0.0
147
0.0
147
0.0
147
1.0
147
0.0
147
0.0
147
0.0
147
0.0
147
1.0
  0
MATERIAL
  5
178
102
{ACAD_XDICTIONARY
360
179
102
}
102
{ACAD_REACTORS
330
B4
102
}
330
B4
100
AcDbMaterial
  1
Global
 72
     0
 43
0.0208333333333333
 43
0.0
 43
0.0
 43
0.0
 43
0.0
 43
0.0208333333333333
 43
0.0
 43
0.0
 43
0.0
 43
0.0
 43
1.0
 43
0.0
 43
0.0
 43
0.0
 43
0.0
 43
1.0
 77
     0
 47
0.0208333333333333
 47
0.0
 47
0.0
 47
0.0
 47
0.0
 47
0.0208333333333333
 47
0.0
 47
0.0
 47
0.0
 47
0.0
 47
1.0
 47
0.0
 47
0.0
 47
0.0
 47
0.0
 47
1.0
171
     0
 49
0.0208333333333333
 49
0.0
 49
0.0
 49
0.0
 49
0.0
 49
0.0208333333333333
 49
0.0
 49
0.0
 49
0.0
 49
0.0
 49
1.0
 49
0.0
 49
0.0
 49
0.0
 49
0.0
 49
1.0
175
     0
142
0.0208333333333333
142
0.0
142
0.0
142
0.0
142
0.0
142
0.0208333333333333
142
0.0
142
0.0
142
0.0
142
0.0
142
1.0
142
0.0
142
0.0
142
0.0
142
0.0
142
1.0
179
     0
144
0.0208333333333333
144
0.0
144
0.0
144
0.0
144
0.0
144
0.0208333333333333
144
0.0
144
0.0
144
0.0
144
0.0
144
1.0
144
0.0
144
0.0
144
0.0
144
0.0
144
1.0
147
0.0208333333333333
147
0.0
147
0.0
147
0.0
147
0.0
147
0.0208333333333333
147
0.0
147
0.0
147
0.0
147
0.0
147
1.0
147
0.0
147
0.0
147
0.0
147
0.0
147
1.0
  0
MLEADERSTYLE
  5
1B4
102
{ACAD_XDICTIONARY
360
35C
102
}
102
{ACAD_REACTORS
330
1B3
102
}
330
1B3
100
AcDbMLeaderStyle
170
     2
171
     1
172
     0
 90
        2
 40
0.0
 41
0.0
173
     1
 91
-1056964608
340
14
 92
       -2
290
     1
 42
0.09
291
     1
 43
0.36
  3
Standard
 44
0.18
300

342
11
174
     1
178
     6
175
     1
176
     0
 93
-1056964608
 45
0.18
292
     0
297
     0
 46
0.18
 94
-1056964608
 47
1.0
 49
1.0
140
1.0
293
     1
141
0.0
294
     1
177
     0
142
1.0
295
     0
296
     0
143
0.125
1001
ACAD_MLEADERVER
1070
     2
  0
MLINESTYLE
  5
18
102
{ACAD_REACTORS
330
17
102
}
330
17
100
AcDbMlineStyle
  2
STANDARD
 70
     0
  3

 62
   256
 51
90.0
 52
90.0
 71
     2
 49
0.5
 62
   256
  6
BYLAYER
 49
-0.5
 62
   256
  6
BYLAYER
  0
ACDBPLACEHOLDER
  5
F
102
{ACAD_REACTORS
330
E
102
}
330
E
  0
SCALE
  5
192
102
{ACAD_REACTORS
330
191
102
}
330
191
100
AcDbScale
 70
     0
300
1:1
140
1.0
141
1.0
290
     1
  0
SCALE
  5
193
102
{ACAD_REACTORS
330
191
102
}
330
191
100
AcDbScale
 70
     0
300
1:2
140
1.0
141
2.0
290
     0
  0
SCALE
  5
194
102
{ACAD_REACTORS
330
191
102
}
330
191
100
AcDbScale
 70
     0
300
1:4
140
1.0
141
4.0
290
     0
  0
SCALE
  5
195
102
{ACAD_REACTORS
330
191
102
}
330
191
100
AcDbScale
 70
     0
300
1:5
140
1.0
141
5.0
290
     0
  0
SCALE
  5
196
102
{ACAD_REACTORS
330
191
102
}
330
191
100
AcDbScale
 70
     0
300
1:8
140
1.0
141
8.0
290
     0
  0
SCALE
  5
197
102
{ACAD_REACTORS
330
191
102
}
330
191
100
AcDbScale
 70
     0
300
1:10
140
1.0
141
10.0
290
     0
  0
SCALE
  5
198
102
{ACAD_REACTORS
330
191
102
}
330
191
100
AcDbScale
 70
     0
300
1:16
140
1.0
141
16.0
290
     0
  0
SCALE
  5
199
102
{ACAD_REACTORS
330
191
102
}
330
191
100
AcDbScale
 70
     0
300
1:20
140
1.0
141
20.0
290
     0
  0
SCALE
  5
19A
102
{ACAD_REACTORS
330
191
102
}
330
191
100
AcDbScale
 70
     0
300
1:30
140
1.0
141
30.0
290
     0
  0
SCALE
  5
19B
102
{ACAD_REACTORS
330
191
102
}
330
191
100
AcDbScale
 70
     0
300
1:40
140
1.0
141
40.0
290
     0
  0
SCALE
  5
19C
102
{ACAD_REACTORS
330
191
102
}
330
191
100
AcDbScale
 70
     0
300
1:50
140
1.0
141
50.0
290
     0
  0
SCALE
  5
19D
102
{ACAD_REACTORS
330
191
102
}
330
191
100
AcDbScale
 70
     0
300
1:100
140
1.0
141
100.0
290
     0
  0
SCALE
  5
19E
102
{ACAD_REACTORS
330
191
102
}
330
191
100
AcDbScale
 70
     0
300
2:1
140
2.0
141
1.0
290
     0
  0
SCALE
  5
19F
102
{ACAD_REACTORS
330
191
102
}
330
191
100
AcDbScale
 70
     0
300
4:1
140
4.0
141
1.0
290
     0
  0
SCALE
  5
1A0
102
{ACAD_REACTORS
330
191
102
}
330
191
100
AcDbScale
 70
     0
300
8:1
140
8.0
141
1.0
290
     0
  0
SCALE
  5
1A1
102
{ACAD_REACTORS
330
191
102
}
330
191
100
AcDbScale
 70
     0
300
10:1
140
10.0
141
1.0
290
     0
  0
SCALE
  5
1A2
102
{ACAD_REACTORS
330
191
102
}
330
191
100
AcDbScale
 70
     0
300
100:1
140
100.0
141
1.0
290
     0
  0
SCALE
  5
1A3
102
{ACAD_REACTORS
330
191
102
}
330
191
100
AcDbScale
 70
     0
300
1/128" = 1'-0"
140
0.0078125
141
12.0
290
     0
  0
SCALE
  5
1A4
102
{ACAD_REACTORS
330
191
102
}
330
191
100
AcDbScale
 70
     0
300
1/64" = 1'-0"
140
0.015625
141
12.0
290
     0
  0
SCALE
  5
1A5
102
{ACAD_REACTORS
330
191
102
}
330
191
100
AcDbScale
 70
     0
300
1/32" = 1'-0"
140
0.03125
141
12.0
290
     0
  0
SCALE
  5
1A6
102
{ACAD_REACTORS
330
191
102
}
330
191
100
AcDbScale
 70
     0
300
1/16" = 1'-0"
140
0.0625
141
12.0
290
     0
  0
SCALE
  5
1A7
102
{ACAD_REACTORS
330
191
102
}
330
191
100
AcDbScale
 70
     0
300
3/32" = 1'-0"
140
0.09375
141
12.0
290
     0
  0
SCALE
  5
1A8
102
{ACAD_REACTORS
330
191
102
}
330
191
100
AcDbScale
 70
     0
300
1/8" = 1'-0"
140
0.125
141
12.0
290
     0
  0
SCALE
  5
1A9
102
{ACAD_REACTORS
330
191
102
}
330
191
100
AcDbScale
 70
     0
300
3/16" = 1'-0"
140
0.1875
141
12.0
290
     0
  0
SCALE
  5
1AA
102
{ACAD_REACTORS
330
191
102
}
330
191
100
AcDbScale
 70
     0
300
1/4" = 1'-0"
140
0.25
141
12.0
290
     0
  0
SCALE
  5
1AB
102
{ACAD_REACTORS
330
191
102
}
330
191
100
AcDbScale
 70
     0
300
3/8" = 1'-0"
140
0.375
141
12.0
290
     0
  0
SCALE
  5
1AC
102
{ACAD_REACTORS
330
191
102
}
330
191
100
AcDbScale
 70
     0
300
1/2" = 1'-0"
140
0.5
141
12.0
290
     0
  0
SCALE
  5
1AD
102
{ACAD_REACTORS
330
191
102
}
330
191
100
AcDbScale
 70
     0
300
3/4" = 1'-0"
140
0.75
141
12.0
290
     0
  0
SCALE
  5
1AE
102
{ACAD_REACTORS
330
191
102
}
330
191
100
AcDbScale
 70
     0
300
1" = 1'-0"
140
1.0
141
12.0
290
     0
  0
SCALE
  5
1AF
102
{ACAD_REACTORS
330
191
102
}
330
191
100
AcDbScale
 70
     0
300
1-1/2" = 1'-0"
140
1.5
141
12.0
290
     0
  0
SCALE
  5
1B0
102
{ACAD_REACTORS
330
191
102
}
330
191
100
AcDbScale
 70
     0
300
3" = 1'-0"
140
3.0
141
12.0
290
     0
  0
SCALE
  5
1B1
102
{ACAD_REACTORS
330
191
102
}
330
191
100
AcDbScale
 70
     0
300
6" = 1'-0"
140
6.0
141
12.0
290
     0
  0
SCALE
  5
1B2
102
{ACAD_REACTORS
330
191
102
}
330
191
100
AcDbScale
 70
     0
300
1'-0" = 1'-0"
140
12.0
141
12.0
290
     0
  0
TABLESTYLE
  5
B7
102
{ACAD_XDICTIONARY
360
1E0
102
}
102
{ACAD_REACTORS
330
B6
102
}
330
B6
100
AcDbTableStyle
  3
Standard
 70
     0
 71
     0
 40
0.06
 41
0.06
280
     0
281
     0
  7
Standard
140
0.18
170
     2
 62
     0
 63
     7
283
     0
274
    -2
284
     1
 64
     0
275
    -2
285
     1
 65
     0
276
    -2
286
     1
 66
     0
277
    -2
287
     1
 67
     0
278
    -2
288
     1
 68
     0
279
    -2
289
     1
 69
     0
  7
Standard
140
0.25
170
     5
 62
     0
 63
     7
283
     0
274
    -2
284
     1
 64
     0
275
    -2
285
     1
 65
     0
276
    -2
286
     1
 66
     0
277
    -2
287
     1
 67
     0
278
    -2
288
     1
 68
     0
279
    -2
289
     1
 69
     0
  7
Standard
140
0.18
170
     5
 62
     0
 63
     7
283
     0
274
    -2
284
     1
 64
     0
275
    -2
285
     1
 65
     0
276
    -2
286
     1
 66
     0
277
    -2
287
     1
 67
     0
278
    -2
288
     1
 68
     0
279
    -2
289
     1
 69
     0
  0
VISUALSTYLE
  5
186
102
{ACAD_XDICTIONARY
360
374
102
}
102
{ACAD_REACTORS
330
180
102
}
330
180
100
AcDbVisualStyle
  2

 70
     4
 71
     0
 72
     2
 73
     0
 90
        0
 40
-0.6
 41
-30.0
 62
     5
 63
     7
 74
     1
 91
        4
 64
     7
 65
   257
 75
     1
175
     1
 42
1.0
 92
        0
 66
   257
 43
1.0
 76
     1
 77
     6
 78
     2
 67
     7
 79
     5
170
     0
171
     0
290
     0
174
     0
 93
        1
 44
0.0
173
     0
291
     0
 45
0.0
1001
ACAD
1000
AcDbSavedByObjectVersion
1070
     0
  0
VISUALSTYLE
  5
188
102
{ACAD_XDICTIONARY
360
378
102
}
102
{ACAD_REACTORS
330
180
102
}
330
180
100
AcDbVisualStyle
  2

 70
     6
 71
     1
 72
     2
 73
     2
 90
        0
 40
-0.6
 41
-30.0
 62
     5
 63
     7
 74
     2
 91
        2
 64
     7
 65
   257
 75
     2
175
     1
 42
40.0
 92
        0
 66
   257
 43
1.0
 76
     1
 77
     6
 78
     2
 67
     7
 79
     3
170
     0
171
     0
290
     0
174
     0
 93
        1
 44
0.0
173
     0
291
     0
 45
0.0
1001
ACAD
1000
AcDbSavedByObjectVersion
1070
     0
  0
VISUALSTYLE
  5
187
102
{ACAD_XDICTIONARY
360
376
102
}
102
{ACAD_REACTORS
330
180
102
}
330
180
100
AcDbVisualStyle
  2

 70
     5
 71
     0
 72
     2
 73
     0
 90
        0
 40
-0.6
 41
-30.0
 62
     5
 63
     7
 74
     1
 91
        4
 64
     7
 65
   257
 75
     1
175
     1
 42
1.0
 92
        0
 66
   257
 43
1.0
 76
     1
 77
     6
 78
     2
 67
     7
 79
     5
170
     0
171
     0
290
     0
174
     0
 93
        1
 44
0.0
173
     0
291
     0
 45
0.0
1001
ACAD
1000
AcDbSavedByObjectVersion
1070
     0
  0
VISUALSTYLE
  5
185
102
{ACAD_XDICTIONARY
360
372
102
}
102
{ACAD_REACTORS
330
180
102
}
330
180
100
AcDbVisualStyle
  2

 70
     7
 71
     1
 72
     0
 73
     1
 90
        0
 40
-0.6
 41
-30.0
 62
     5
 63
     7
 74
     0
 91
        4
 64
     7
 65
   257
 75
     1
175
     1
 42
1.0
 92
        8
 66
     7
 43
1.0
 76
     1
 77
     6
 78
     2
 67
     7
 79
     5
170
     0
171
     0
290
     0
174
     0
 93
        1
 44
0.0
173
     0
291
     1
 45
0.0
1001
ACAD
1000
AcDbSavedByObjectVersion
1070
     0
  0
VISUALSTYLE
  5
18C
102
{ACAD_XDICTIONARY
360
380
102
}
102
{ACAD_REACTORS
330
180
102
}
330
180
100
AcDbVisualStyle
  2

 70
    12
 71
     2
 72
     2
 73
     0
 90
        0
 40
-0.6
 41
-30.0
 62
     5
 63
     7
 74
     1
 91
        4
 64
     7
 65
   257
 75
     1
175
     1
 42
1.0
 92
        8
 66
     7
 43
1.0
 76
     1
 77
     6
 78
     2
 67
     7
 79
     5
170
     0
171
     0
290
     0
174
     0
 93
        1
 44
50.0
173
     0
291
     1
 45
0.0
1001
ACAD
1000
AcDbSavedByObjectVersion
1070
     0
  0
VISUALSTYLE
  5
190
102
{ACAD_XDICTIONARY
360
388
102
}
102
{ACAD_REACTORS
330
180
102
}
330
180
100
AcDbVisualStyle
  2

 70
    16
 71
     2
 72
     2
 73
     3
 90
        0
 40
-0.6
 41
-30.0
 62
     5
 63
     8
 74
     1
 91
        4
 64
     7
 65
   257
 75
     1
175
     1
 42
1.0
 92
        8
 66
     8
 43
1.0
 76
     1
 77
     6
 78
     2
 67
     7
 79
     5
170
     0
171
     0
290
     0
174
     0
 93
        1
 44
0.0
173
     0
291
     1
 45
0.0
1001
ACAD
1000
AcDbSavedByObjectVersion
1070
     0
  0
VISUALSTYLE
  5
189
102
{ACAD_XDICTIONARY
360
37A
102
}
102
{ACAD_REACTORS
330
180
102
}
330
180
100
AcDbVisualStyle
  2

 70
     9
 71
     3
 72
     2
 73
     0
 90
        0
 40
-0.6
 41
-30.0
 62
     5
 63
     7
 74
     2
 91
        2
 64
     7
 65
   257
 75
     1
175
     1
 42
40.0
 92
        8
 66
     7
 43
1.0
 76
     1
 77
     6
 78
     2
 67
     7
 79
     3
170
     0
171
     0
290
     0
174
     0
 93
        1
 44
0.0
173
     0
291
     0
 45
0.0
1001
ACAD
1000
AcDbSavedByObjectVersion
1070
     0
  0
VISUALSTYLE
  5
18B
102
{ACAD_XDICTIONARY
360
37E
102
}
102
{ACAD_REACTORS
330
180
102
}
330
180
100
AcDbVisualStyle
  2

 70
    11
 71
     2
 72
     2
 73
     0
 90
        0
 40
-0.6
 41
-30.0
 62
     5
 63
     7
 74
     1
 91
        4
 64
     7
 65
   257
 75
     1
175
     1
 42
1.0
 92
        8
 66
     7
 43
1.0
 76
     1
 77
     6
 78
     2
 67
     7
 79
     5
170
     0
171
     0
290
     0
174
     0
 93
        1
 44
-50.0
173
     0
291
     1
 45
0.0
1001
ACAD
1000
AcDbSavedByObjectVersion
1070
     0
  0
VISUALSTYLE
  5
205
102
{ACAD_XDICTIONARY
360
39C
102
}
102
{ACAD_REACTORS
330
180
102
}
330
180
100
AcDbVisualStyle
  2

 70
    22
 71
     2
 72
     2
 73
     0
 90
        0
 40
-0.6
 41
-30.0
 62
     5
 63
     7
 74
     1
 91
        4
 64
     7
 65
   257
 75
     1
175
     1
 42
1.0
 92
        8
 66
     7
 43
1.0
 76
     1
 77
     6
 78
     2
 67
     7
 79
     5
170
     0
171
     0
290
     0
174
     0
 93
        1
 44
0.0
173
     0
291
     1
 45
0.0
1001
ACAD
1000
AcDbSavedByObjectVersion
1070
     0
  0
VISUALSTYLE
  5
18F
102
{ACAD_XDICTIONARY
360
386
102
}
102
{ACAD_REACTORS
330
180
102
}
330
180
100
AcDbVisualStyle
  2

 70
    15
 71
     2
 72
     2
 73
     0
 90
        0
 40
-0.6
 41
-30.0
 62
     5
 63
     7
 74
     1
 91
        4
 64
     7
 65
   257
 75
     1
175
     1
 42
1.0
 92
        8
 66
     7
 43
1.0
 76
     1
 77
     6
 78
     2
 67
     7
 79
     5
170
     0
171
     0
290
     0
174
     0
 93
        1
 44
0.0
173
     0
291
     1
 45
0.0
1001
ACAD
1000
AcDbSavedByObjectVersion
1070
     0
  0
VISUALSTYLE
  5
181
102
{ACAD_XDICTIONARY
360
36A
102
}
102
{ACAD_REACTORS
330
180
102
}
330
180
100
AcDbVisualStyle
  2

 70
     0
 71
     2
 72
     1
 73
     1
 90
        2
 40
-0.6
 41
30.0
 62
     5
 63
     7
 74
     0
 91
        4
 64
     7
 65
   257
 75
     1
175
     1
 42
1.0
 92
        8
 66
     7
 43
1.0
 76
     1
 77
     6
 78
     2
 67
     7
 79
     5
170
     0
171
     0
290
     0
174
     0
 93
       13
 44
0.0
173
     0
291
     1
 45
0.0
1001
ACAD
1000
AcDbSavedByObjectVersion
1070
     0
  0
VISUALSTYLE
  5
182
102
{ACAD_XDICTIONARY
360
36C
102
}
102
{ACAD_REACTORS
330
180
102
}
330
180
100
AcDbVisualStyle
  2

 70
     1
 71
     2
 72
     1
 73
     1
 90
        2
 40
-0.6
 41
30.0
 62
     5
 63
     7
 74
     1
 91
        4
 64
     7
 65
   257
 75
     1
175
     1
 42
1.0
 92
        0
 66
   257
 43
1.0
 76
     1
 77
     6
 78
     2
 67
     7
 79
     5
170
     0
171
     0
290
     0
174
     0
 93
       13
 44
0.0
173
     0
291
     1
 45
0.0
1001
ACAD
1000
AcDbSavedByObjectVersion
1070
     0
  0
VISUALSTYLE
  5
183
102
{ACAD_XDICTIONARY
360
36E
102
}
102
{ACAD_REACTORS
330
180
102
}
330
180
100
AcDbVisualStyle
  2

 70
     2
 71
     2
 72
     2
 73
     1
 90
        2
 40
-0.6
 41
30.0
 62
     5
 63
     7
 74
     0
 91
        4
 64
     7
 65
   257
 75
     1
175
     1
 42
1.0
 92
        0
 66
     7
 43
1.0
 76
     1
 77
     6
 78
     2
 67
     7
 79
     5
170
     0
171
     0
290
     0
174
     0
 93
       13
 44
0.0
173
     0
291
     1
 45
0.0
1001
ACAD
1000
AcDbSavedByObjectVersion
1070
     0
  0
VISUALSTYLE
  5
184
102
{ACAD_XDICTIONARY
360
370
102
}
102
{ACAD_REACTORS
330
180
102
}
330
180
100
AcDbVisualStyle
  2

 70
     3
 71
     2
 72
     2
 73
     1
 90
        2
 40
-0.6
 41
30.0
 62
     5
 63
     7
 74
     1
 91
        4
 64
     7
 65
   257
 75
     1
175
     1
 42
1.0
 92
        0
 66
   257
 43
1.0
 76
     1
 77
     6
 78
     2
 67
     7
 79
     5
170
     0
171
     0
290
     0
174
     0
 93
       13
 44
0.0
173
     0
291
     1
 45
0.0
1001
ACAD
1000
AcDbSavedByObjectVersion
1070
     0
  0
VISUALSTYLE
  5
1FD
102
{ACAD_XDICTIONARY
360
38C
102
}
102
{ACAD_REACTORS
330
180
102
}
330
180
100
AcDbVisualStyle
  2

 70
     6
 71
     1
 72
     2
 73
     2
 90
        0
 40
-0.6
 41
-30.0
 62
     5
 63
     7
 74
     2
 91
        2
 64
     7
 65
   257
 75
     2
175
     1
 42
40.0
 92
        0
 66
   257
 43
1.0
 76
     1
 77
     6
 78
     2
 67
     7
 79
     3
170
     0
171
     0
290
     0
174
     0
 93
        1
 44
0.0
173
     0
291
     0
 45
0.0
1001
ACAD
1000
AcDbSavedByObjectVersion
1070
     0
  0
VISUALSTYLE
  5
203
102
{ACAD_XDICTIONARY
360
398
102
}
102
{ACAD_REACTORS
330
180
102
}
330
180
100
AcDbVisualStyle
  2

 70
    20
 71
     2
 72
     2
 73
     0
 90
        0
 40
-0.6
 41
-30.0
 62
     5
 63
     7
 74
     1
 91
        4
 64
     7
 65
   257
 75
     1
175
     1
 42
1.0
 92
       10
 66
     7
 43
1.0
 76
     1
 77
     6
 78
     2
 67
     7
 79
     5
170
     0
171
     0
290
     0
174
     0
 93
        1
 44
0.0
173
     0
291
     1
 45
0.0
1001
ACAD
1000
AcDbSavedByObjectVersion
1070
     0
  0
VISUALSTYLE
  5
18E
102
{ACAD_XDICTIONARY
360
384
102
}
102
{ACAD_REACTORS
330
180
102
}
330
180
100
AcDbVisualStyle
  2

 70
    14
 71
     2
 72
     2
 73
     0
 90
        0
 40
-0.6
 41
-30.0
 62
     5
 63
     7
 74
     1
 91
        4
 64
     7
 65
   257
 75
     7
175
     7
 42
1.0
 92
        8
 66
     7
 43
1.0
 76
     1
 77
     6
 78
     2
 67
     7
 79
     5
170
     0
171
     0
290
     0
174
     0
 93
        1
 44
0.0
173
     0
291
     1
 45
0.0
1001
ACAD
1000
AcDbSavedByObjectVersion
1070
     0
  0
VISUALSTYLE
  5
204
102
{ACAD_XDICTIONARY
360
39A
102
}
102
{ACAD_REACTORS
330
180
102
}
330
180
100
AcDbVisualStyle
  2

 70
    21
 71
     2
 72
     2
 73
     0
 90
        0
 40
-0.6
 41
-30.0
 62
     5
 63
     7
 74
     1
 91
        4
 64
     7
 65
   257
 75
     1
175
     1
 42
1.0
 92
        9
 66
     7
 43
1.0
 76
     1
 77
     6
 78
     2
 67
     7
 79
     5
170
     0
171
     0
290
     0
174
     0
 93
        1
 44
0.0
173
     0
291
     1
 45
0.0
1001
ACAD
1000
AcDbSavedByObjectVersion
1070
     0
  0
VISUALSTYLE
  5
18A
102
{ACAD_XDICTIONARY
360
37C
102
}
102
{ACAD_REACTORS
330
180
102
}
330
180
100
AcDbVisualStyle
  2

 70
     8
 71
     2
 72
     2
 73
     0
 90
        0
 40
-0.6
 41
-30.0
 62
     5
 63
     7
 74
     1
 91
        0
 64
     7
 65
   257
 75
     1
175
     1
 42
1.0
 92
        8
 66
     8
 43
1.0
 76
     1
 77
     6
 78
     2
 67
     7
 79
     5
170
     0
171
     0
290
     0
174
     0
 93
       13
 44
0.0
173
     0
291
     0
 45
0.0
1001
ACAD
1000
AcDbSavedByObjectVersion
1070
     0
  0
VISUALSTYLE
  5
202
102
{ACAD_XDICTIONARY
360
396
102
}
102
{ACAD_REACTORS
330
180
102
}
330
180
100
AcDbVisualStyle
  2

 70
    27
 71
     2
 72
     2
 73
     1
 90
        2
 40
-0.6
 41
30.0
 62
     5
 63
     7
 74
     0
 91
        4
 64
     7
 65
   257
 75
     1
175
     1
 42
1.0
 92
        8
 66
   257
 43
1.0
 76
     1
 77
     6
 78
     2
 67
     8
 79
     3
170
     0
171
     0
290
     0
174
     0
 93
        5
 44
0.0
173
     0
291
     0
 45
0.0
1001
ACAD
1000
AcDbSavedByObjectVersion
1070
     0
  0
VISUALSTYLE
  5
201
102
{ACAD_XDICTIONARY
360
394
102
}
102
{ACAD_REACTORS
330
180
102
}
330
180
100
AcDbVisualStyle
  2

 70
    26
 71
     2
 72
     2
 73
     1
 90
        2
 40
-0.6
 41
30.0
 62
     5
 63
     7
 74
     1
 91
       10
 64
     7
 65
   257
 75
     2
175
     1
 42
1.0
 92
        8
 66
   257
 43
1.0
 76
     1
 77
     6
 78
     2
 67
     7
 79
     3
170
     0
171
     0
290
     0
174
     0
 93
        5
 44
0.0
173
     0
291
     0
 45
0.0
1001
ACAD
1000
AcDbSavedByObjectVersion
1070
     0
  0
VISUALSTYLE
  5
1FE
102
{ACAD_XDICTIONARY
360
38E
102
}
102
{ACAD_REACTORS
330
180
102
}
330
180
100
AcDbVisualStyle
  2

 70
    23
 71
     2
 72
     2
 73
     3
 90
        0
 40
-0.6
 41
-30.0
 62
     5
 63
     7
 74
     2
 91
        2
 64
     7
 65
     7
 75
     1
175
     1
 42
40.0
 92
        8
 66
     7
 43
1.0
 76
     1
 77
     6
 78
     2
 67
     7
 79
     3
170
     0
171
     0
290
     0
174
     0
 93
        1
 44
0.0
173
     0
291
     0
 45
0.0
1001
ACAD
1000
AcDbSavedByObjectVersion
1070
     0
  0
VISUALSTYLE
  5
1FF
102
{ACAD_XDICTIONARY
360
390
102
}
102
{ACAD_REACTORS
330
180
102
}
330
180
100
AcDbVisualStyle
  2

 70
    24
 71
     1
 72
     2
 73
     2
 90
        0
 40
-0.6
 41
-30.0
 62
     5
 63
     7
 74
     2
 91
        2
 64
     7
 65
     7
 75
     1
175
     1
 42
40.0
 92
       11
 66
     7
 43
1.0
 76
     1
 77
     6
 78
     2
 67
     7
 79
     6
170
     0
171
     0
290
     0
174
     0
 93
        1
 44
0.0
173
     0
291
     0
 45
0.0
1001
ACAD
1000
AcDbSavedByObjectVersion
1070
     0
  0
VISUALSTYLE
  5
18D
102
{ACAD_XDICTIONARY
360
382
102
}
102
{ACAD_REACTORS
330
180
102
}
330
180
100
AcDbVisualStyle
  2

 70
    13
 71
     2
 72
     2
 73
     0
 90
        0
 40
-0.6
 41
-30.0
 62
     5
 63
     7
 74
     1
 91
        4
 64
     7
 65
   257
 75
     1
175
     1
 42
1.0
 92
       12
 66
     7
 43
1.0
 76
     1
 77
     6
 78
     2
 67
     7
 79
     5
170
     0
171
     0
290
     0
174
     0
 93
        1
 44
0.0
173
     0
291
     1
 45
0.0
1001
ACAD
1000
AcDbSavedByObjectVersion
1070
     0
  0
VISUALSTYLE
  5
1FC
102
{ACAD_XDICTIONARY
360
38A
102
}
102
{ACAD_REACTORS
330
180
102
}
330
180
100
AcDbVisualStyle
  2

 70
     5
 71
     0
 72
     2
 73
     0
 90
        0
 40
-0.6
 41
-30.0
 62
     5
 63
     7
 74
     1
 91
        4
 64
     7
 65
   257
 75
     1
175
     1
 42
1.0
 92
        0
 66
   257
 43
1.0
 76
     1
 77
     6
 78
     2
 67
     7
 79
     3
170
     0
171
     0
290
     0
174
     0
 93
        1
 44
0.0
173
     0
291
     0
 45
0.0
1001
ACAD
1000
AcDbSavedByObjectVersion
1070
     0
  0
VISUALSTYLE
  5
200
102
{ACAD_XDICTIONARY
360
392
102
}
102
{ACAD_REACTORS
330
180
102
}
330
180
100
AcDbVisualStyle
  2

 70
    25
 71
     2
 72
     2
 73
     1
 90
        1
 40
0.5
 41
-30.0
 62
     5
 63
     7
 74
     1
 91
        0
 64
     7
 65
   257
 75
     1
175
     1
 42
1.0
 92
        8
 66
     7
 43
1.0
 76
     1
 77
     6
 78
     2
 67
     7
 79
     3
170
     0
171
     0
290
     0
174
     0
 93
       13
 44
0.0
173
     0
291
     0
 45
0.0
1001
ACAD
1000
AcDbSavedByObjectVersion
1070
     0
  0
DICTIONARYVAR
  5
1E5
102
{ACAD_REACTORS
330
15F
102
}
330
15F
100
DictionaryVariables
280
     0
  1
1:1
  0
DICTIONARYVAR
  5
1E3
102
{ACAD_REACTORS
330
15F
102
}
330
15F
100
DictionaryVariables
280
     0
  1
STANDARD
  0
DICTIONARYVAR
  5
160
102
{ACAD_REACTORS
330
15F
102
}
330
15F
100
DictionaryVariables
280
     0
  1
STANDARD
  0
DICTIONARYVAR
  5
247
102
{ACAD_REACTORS
330
15F
102
}
330
15F
100
DictionaryVariables
280
     0
  1
1
  0
DICTIONARYVAR
  5
245
102
{ACAD_REACTORS
330
15F
102
}
330
15F
100
DictionaryVariables
280
     0
  1
0
  0
DICTIONARYVAR
  5
1E6
102
{ACAD_REACTORS
330
15F
102
}
330
15F
100
DictionaryVariables
280
     0
  1
0
  0
DICTIONARYVAR
  5
1E4
102
{ACAD_REACTORS
330
15F
102
}
330
15F
100
DictionaryVariables
280
     0
  1
0
  0
DICTIONARYVAR
  5
248
102
{ACAD_REACTORS
330
15F
102
}
330
15F
100
DictionaryVariables
280
     0
  1
1
  0
DICTIONARYVAR
  5
244
102
{ACAD_REACTORS
330
15F
102
}
330
15F
100
DictionaryVariables
280
     0
  1
127
  0
DICTIONARYVAR
  5
35A
102
{ACAD_REACTORS
330
15F
102
}
330
15F
100
DictionaryVariables
280
     0
  1
2
  0
DICTIONARY
  5
363
330
1E
100
AcDbDictionary
280
     1
281
     1
  3
ACAD_XREC_ROUNDTRIP
360
364
  0
DICTIONARY
  5
367
330
26
100
AcDbDictionary
280
     1
281
     1
  3
ACAD_XREC_ROUNDTRIP
360
368
  0
DICTIONARY
  5
365
330
22
100
AcDbDictionary
280
     1
281
     1
  3
ACAD_XREC_ROUNDTRIP
360
366
  0
DICTIONARY
  5
171
330
170
100
AcDbDictionary
280
     1
281
     1
  3
ACAD_XREC_ROUNDTRIP
360
31E
  3
BUMPTILE
360
173
  3
DIFFUSETILE
360
172
  3
OPACITYTILE
360
176
  3
REFLECTIONTILE
360
175
  3
REFRACTIONTILE
360
177
  3
SPECULARTILE
360
174
  0
DICTIONARY
  5
169
330
168
100
AcDbDictionary
280
     1
281
     1
  3
ACAD_XREC_ROUNDTRIP
360
31D
  3
BUMPTILE
360
16B
  3
DIFFUSETILE
360
16A
  3
OPACITYTILE
360
16E
  3
REFLECTIONTILE
360
16D
  3
REFRACTIONTILE
360
16F
  3
SPECULARTILE
360
16C
  0
DICTIONARY
  5
179
330
178
100
AcDbDictionary
280
     1
281
     1
  3
ACAD_XREC_ROUNDTRIP
360
31F
  3
BUMPTILE
360
17B
  3
DIFFUSETILE
360
17A
  3
OPACITYTILE
360
17E
  3
REFLECTIONTILE
360
17D
  3
REFRACTIONTILE
360
17F
  3
SPECULARTILE
360
17C
  0
DICTIONARY
  5
35C
330
1B4
100
AcDbDictionary
280
     1
281
     1
  3
ACAD_XREC_ROUNDTRIP
360
35D
  0
DICTIONARY
  5
1E0
330
B7
100
AcDbDictionary
280
     1
281
     1
  3
ACAD_ROUNDTRIP_2008_TABLESTYLE_CELLSTYLEMAP
360
35B
  3
ACAD_XREC_ROUNDTRIP
360
369
  0
DICTIONARY
  5
374
330
186
100
AcDbDictionary
280
     1
281
     1
  3
ACAD_XREC_ROUNDTRIP
360
375
  0
DICTIONARY
  5
378
330
188
100
AcDbDictionary
280
     1
281
     1
  3
ACAD_XREC_ROUNDTRIP
360
379
  0
DICTIONARY
  5
376
330
187
100
AcDbDictionary
280
     1
281
     1
  3
ACAD_XREC_ROUNDTRIP
360
377
  0
DICTIONARY
  5
372
330
185
100
AcDbDictionary
280
     1
281
     1
  3
ACAD_XREC_ROUNDTRIP
360
373
  0
DICTIONARY
  5
380
330
18C
100
AcDbDictionary
280
     1
281
     1
  3
ACAD_XREC_ROUNDTRIP
360
381
  0
DICTIONARY
  5
388
330
190
100
AcDbDictionary
280
     1
281
     1
  3
ACAD_XREC_ROUNDTRIP
360
389
  0
DICTIONARY
  5
37A
330
189
100
AcDbDictionary
280
     1
281
     1
  3
ACAD_XREC_ROUNDTRIP
360
37B
  0
DICTIONARY
  5
37E
330
18B
100
AcDbDictionary
280
     1
281
     1
  3
ACAD_XREC_ROUNDTRIP
360
37F
  0
DICTIONARY
  5
39C
330
205
100
AcDbDictionary
280
     1
281
     1
  3
ACAD_XREC_ROUNDTRIP
360
39D
  0
DICTIONARY
  5
386
330
18F
100
AcDbDictionary
280
     1
281
     1
  3
ACAD_XREC_ROUNDTRIP
360
387
  0
DICTIONARY
  5
36A
330
181
100
AcDbDictionary
280
     1
281
     1
  3
ACAD_XREC_ROUNDTRIP
360
36B
  0
DICTIONARY
  5
36C
330
182
100
AcDbDictionary
280
     1
281
     1
  3
ACAD_XREC_ROUNDTRIP
360
36D
  0
DICTIONARY
  5
36E
330
183
100
AcDbDictionary
280
     1
281
     1
  3
ACAD_XREC_ROUNDTRIP
360
36F
  0
DICTIONARY
  5
370
330
184
100
AcDbDictionary
280
     1
281
     1
  3
ACAD_XREC_ROUNDTRIP
360
371
  0
DICTIONARY
  5
38C
330
1FD
100
AcDbDictionary
280
     1
281
     1
  3
ACAD_XREC_ROUNDTRIP
360
38D
  0
DICTIONARY
  5
398
330
203
100
AcDbDictionary
280
     1
281
     1
  3
ACAD_XREC_ROUNDTRIP
360
399
  0
DICTIONARY
  5
384
330
18E
100
AcDbDictionary
280
     1
281
     1
  3
ACAD_XREC_ROUNDTRIP
360
385
  0
DICTIONARY
  5
39A
330
204
100
AcDbDictionary
280
     1
281
     1
  3
ACAD_XREC_ROUNDTRIP
360
39B
  0
DICTIONARY
  5
37C
330
18A
100
AcDbDictionary
280
     1
281
     1
  3
ACAD_XREC_ROUNDTRIP
360
37D
  0
DICTIONARY
  5
396
330
202
100
AcDbDictionary
280
     1
281
     1
  3
ACAD_XREC_ROUNDTRIP
360
397
  0
DICTIONARY
  5
394
330
201
100
AcDbDictionary
280
     1
281
     1
  3
ACAD_XREC_ROUNDTRIP
360
395
  0
DICTIONARY
  5
38E
330
1FE
100
AcDbDictionary
280
     1
281
     1
  3
ACAD_XREC_ROUNDTRIP
360
38F
  0
DICTIONARY
  5
390
330
1FF
100
AcDbDictionary
280
     1
281
     1
  3
ACAD_XREC_ROUNDTRIP
360
391
  0
DICTIONARY
  5
382
330
18D
100
AcDbDictionary
280
     1
281
     1
  3
ACAD_XREC_ROUNDTRIP
360
383
  0
DICTIONARY
  5
38A
330
1FC
100
AcDbDictionary
280
     1
281
     1
  3
ACAD_XREC_ROUNDTRIP
360
38B
  0
DICTIONARY
  5
392
330
200
100
AcDbDictionary
280
     1
281
     1
  3
ACAD_XREC_ROUNDTRIP
360
393
  0
XRECORD
  5
364
102
{ACAD_REACTORS
330
363
102
}
330
363
100
AcDbXrecord
280
     1
102
SHADEPLOT
 70
     0
102
SHADEPLOTRESLEVEL
 70
     2
102
SHADEPLOTCUSTOMDPI
 70
   300
  0
XRECORD
  5
368
102
{ACAD_REACTORS
330
367
102
}
330
367
100
AcDbXrecord
280
     1
102
SHADEPLOT
 70
     0
102
SHADEPLOTRESLEVEL
 70
     2
102
SHADEPLOTCUSTOMDPI
 70
   300
  0
XRECORD
  5
366
102
{ACAD_REACTORS
330
365
102
}
330
365
100
AcDbXrecord
280
     1
102
SHADEPLOT
 70
     0
102
SHADEPLOTRESLEVEL
 70
     2
102
SHADEPLOTCUSTOMDPI
 70
   300
  0
XRECORD
  5
31E
102
{ACAD_REACTORS
330
171
102
}
330
171
100
AcDbXrecord
280
     1
102
MATERIAL
148
0.0
149
0.0
149
0.0
 93
        0
 94
      127
282
     0
 72
     0
 77
     0
171
     0
175
     0
179
     0
273
     0
  0
XRECORD
  5
173
102
{ACAD_REACTORS
330
171
102
}
330
171
100
AcDbXrecord
280
     1
270
     1
271
     1
  0
XRECORD
  5
172
102
{ACAD_REACTORS
330
171
102
}
330
171
100
AcDbXrecord
280
     1
270
     1
271
     1
  0
XRECORD
  5
176
102
{ACAD_REACTORS
330
171
102
}
330
171
100
AcDbXrecord
280
     1
270
     1
271
     1
  0
XRECORD
  5
175
102
{ACAD_REACTORS
330
171
102
}
330
171
100
AcDbXrecord
280
     1
270
     1
271
     1
  0
XRECORD
  5
177
102
{ACAD_REACTORS
330
171
102
}
330
171
100
AcDbXrecord
280
     1
270
     1
271
     1
  0
XRECORD
  5
174
102
{ACAD_REACTORS
330
171
102
}
330
171
100
AcDbXrecord
280
     1
270
     1
271
     1
  0
XRECORD
  5
31D
102
{ACAD_REACTORS
330
169
102
}
330
169
100
AcDbXrecord
280
     1
102
MATERIAL
148
0.0
149
0.0
149
0.0
 93
        0
 94
      127
282
     0
 72
     0
 77
     0
171
     0
175
     0
179
     0
273
     0
  0
XRECORD
  5
16B
102
{ACAD_REACTORS
330
169
102
}
330
169
100
AcDbXrecord
280
     1
270
     1
271
     1
  0
XRECORD
  5
16A
102
{ACAD_REACTORS
330
169
102
}
330
169
100
AcDbXrecord
280
     1
270
     1
271
     1
  0
XRECORD
  5
16E
102
{ACAD_REACTORS
330
169
102
}
330
169
100
AcDbXrecord
280
     1
270
     1
271
     1
  0
XRECORD
  5
16D
102
{ACAD_REACTORS
330
169
102
}
330
169
100
AcDbXrecord
280
     1
270
     1
271
     1
  0
XRECORD
  5
16F
102
{ACAD_REACTORS
330
169
102
}
330
169
100
AcDbXrecord
280
     1
270
     1
271
     1
  0
XRECORD
  5
16C
102
{ACAD_REACTORS
330
169
102
}
330
169
100
AcDbXrecord
280
     1
270
     1
271
     1
  0
XRECORD
  5
31F
102
{ACAD_REACTORS
330
179
102
}
330
179
100
AcDbXrecord
280
     1
102
MATERIAL
148
0.0
149
0.0
149
0.0
 93
        0
 94
      127
282
     0
 72
     0
 77
     0
171
     0
175
     0
179
     0
273
     0
  0
XRECORD
  5
17B
102
{ACAD_REACTORS
330
179
102
}
330
179
100
AcDbXrecord
280
     1
270
     1
271
     1
  0
XRECORD
  5
17A
102
{ACAD_REACTORS
330
179
102
}
330
179
100
AcDbXrecord
280
     1
270
     1
271
     1
  0
XRECORD
  5
17E
102
{ACAD_REACTORS
330
179
102
}
330
179
100
AcDbXrecord
280
     1
270
     1
271
     1
  0
XRECORD
  5
17D
102
{ACAD_REACTORS
330
179
102
}
330
179
100
AcDbXrecord
280
     1
270
     1
271
     1
  0
XRECORD
  5
17F
102
{ACAD_REACTORS
330
179
102
}
330
179
100
AcDbXrecord
280
     1
270
     1
271
     1
  0
XRECORD
  5
17C
102
{ACAD_REACTORS
330
179
102
}
330
179
100
AcDbXrecord
280
     1
270
     1
271
     1
  0
XRECORD
  5
35D
102
{ACAD_REACTORS
330
35C
102
}
330
35C
100
AcDbXrecord
280
     1
102
ACAD_ROUNDTRIP_2012_MLEADER_STYLE
298
     1
  0
CELLSTYLEMAP
  5
35B
102
{ACAD_REACTORS
330
1E0
102
}
330
1E0
100
AcDbCellStyleMap
 90
        3
300
CELLSTYLE
  1
TABLEFORMAT_BEGIN
 90
        5
170
     1
 91
        0
 92
    32768
 62
   257
 93
        1
300
CONTENTFORMAT
  1
CONTENTFORMAT_BEGIN
 90
        0
 91
        0
 92
        4
 93
        0
300

 40
0.0
140
1.0
 94
        5
 62
     0
340
11
144
0.25
309
CONTENTFORMAT_END
171
     1
301
MARGIN
  1
CELLMARGIN_BEGIN
 40
0.06
 40
0.06
 40
0.06
 40
0.06
 40
0.18
 40
0.18
309
CELLMARGIN_END
 94
        6
 95
        1
302
GRIDFORMAT
  1
GRIDFORMAT_BEGIN
 90
        0
 91
        1
 62
     0
 92
       -2
340
0
 93
        0
 40
0.045
309
GRIDFORMAT_END
 95
        2
302
GRIDFORMAT
  1
GRIDFORMAT_BEGIN
 90
        0
 91
        1
 62
     0
 92
       -2
340
0
 93
        0
 40
0.045
309
GRIDFORMAT_END
 95
        4
302
GRIDFORMAT
  1
GRIDFORMAT_BEGIN
 90
        0
 91
        1
 62
     0
 92
       -2
340
0
 93
        0
 40
0.045
309
GRIDFORMAT_END
 95
        8
302
GRIDFORMAT
  1
GRIDFORMAT_BEGIN
 90
        0
 91
        1
 62
     0
 92
       -2
340
0
 93
        0
 40
0.045
309
GRIDFORMAT_END
 95
       16
302
GRIDFORMAT
  1
GRIDFORMAT_BEGIN
 90
        0
 91
        1
 62
     0
 92
       -2
340
0
 93
        0
 40
0.045
309
GRIDFORMAT_END
 95
       32
302
GRIDFORMAT
  1
GRIDFORMAT_BEGIN
 90
        0
 91
        1
 62
     0
 92
       -2
340
0
 93
        0
 40
0.045
309
GRIDFORMAT_END
309
TABLEFORMAT_END
  1
CELLSTYLE_BEGIN
 90
        1
 91
        1
300
_TITLE
309
CELLSTYLE_END
300
CELLSTYLE
  1
TABLEFORMAT_BEGIN
 90
        5
170
     1
 91
        0
 92
        0
 62
   257
 93
        1
300
CONTENTFORMAT
  1
CONTENTFORMAT_BEGIN
 90
        0
 91
        0
 92
        4
 93
        0
300

 40
0.0
140
1.0
 94
        5
 62
     0
340
11
144
0.18
309
CONTENTFORMAT_END
171
     1
301
MARGIN
  1
CELLMARGIN_BEGIN
 40
0.06
 40
0.06
 40
0.06
 40
0.06
 40
0.18
 40
0.18
309
CELLMARGIN_END
 94
        6
 95
        1
302
GRIDFORMAT
  1
GRIDFORMAT_BEGIN
 90
        0
 91
        1
 62
     0
 92
       -2
340
0
 93
        0
 40
0.045
309
GRIDFORMAT_END
 95
        2
302
GRIDFORMAT
  1
GRIDFORMAT_BEGIN
 90
        0
 91
        1
 62
     0
 92
       -2
340
0
 93
        0
 40
0.045
309
GRIDFORMAT_END
 95
        4
302
GRIDFORMAT
  1
GRIDFORMAT_BEGIN
 90
        0
 91
        1
 62
     0
 92
       -2
340
0
 93
        0
 40
0.045
309
GRIDFORMAT_END
 95
        8
302
GRIDFORMAT
  1
GRIDFORMAT_BEGIN
 90
        0
 91
        1
 62
     0
 92
       -2
340
0
 93
        0
 40
0.045
309
GRIDFORMAT_END
 95
       16
302
GRIDFORMAT
  1
GRIDFORMAT_BEGIN
 90
        0
 91
        1
 62
     0
 92
       -2
340
0
 93
        0
 40
0.045
309
GRIDFORMAT_END
 95
       32
302
GRIDFORMAT
  1
GRIDFORMAT_BEGIN
 90
        0
 91
        1
 62
     0
 92
       -2
340
0
 93
        0
 40
0.045
309
GRIDFORMAT_END
309
TABLEFORMAT_END
  1
CELLSTYLE_BEGIN
 90
        2
 91
        1
300
_HEADER
309
CELLSTYLE_END
300
CELLSTYLE
  1
TABLEFORMAT_BEGIN
 90
        5
170
     1
 91
        0
 92
        0
 62
   257
 93
        1
300
CONTENTFORMAT
  1
CONTENTFORMAT_BEGIN
 90
        0
 91
        0
 92
        4
 93
        0
300

 40
0.0
140
1.0
 94
        2
 62
     0
340
11
144
0.18
309
CONTENTFORMAT_END
171
     1
301
MARGIN
  1
CELLMARGIN_BEGIN
 40
0.06
 40
0.06
 40
0.06
 40
0.06
 40
0.18
 40
0.18
309
CELLMARGIN_END
 94
        6
 95
        1
302
GRIDFORMAT
  1
GRIDFORMAT_BEGIN
 90
        0
 91
        1
 62
     0
 92
       -2
340
0
 93
        0
 40
0.045
309
GRIDFORMAT_END
 95
        2
302
GRIDFORMAT
  1
GRIDFORMAT_BEGIN
 90
        0
 91
        1
 62
     0
 92
       -2
340
0
 93
        0
 40
0.045
309
GRIDFORMAT_END
 95
        4
302
GRIDFORMAT
  1
GRIDFORMAT_BEGIN
 90
        0
 91
        1
 62
     0
 92
       -2
340
0
 93
        0
 40
0.045
309
GRIDFORMAT_END
 95
        8
302
GRIDFORMAT
  1
GRIDFORMAT_BEGIN
 90
        0
 91
        1
 62
     0
 92
       -2
340
0
 93
        0
 40
0.045
309
GRIDFORMAT_END
 95
       16
302
GRIDFORMAT
  1
GRIDFORMAT_BEGIN
 90
        0
 91
        1
 62
     0
 92
       -2
340
0
 93
        0
 40
0.045
309
GRIDFORMAT_END
 95
       32
302
GRIDFORMAT
  1
GRIDFORMAT_BEGIN
 90
        0
 91
        1
 62
     0
 92
       -2
340
0
 93
        0
 40
0.045
309
GRIDFORMAT_END
309
TABLEFORMAT_END
  1
CELLSTYLE_BEGIN
 90
        3
 91
        2
300
_DATA
309
CELLSTYLE_END
  0
XRECORD
  5
369
102
{ACAD_REACTORS
330
1E0
102
}
330
1E0
100
AcDbXrecord
280
     1
102
ACAD_ROUNDTRIP_PRE2007_TABLESTYLE
 90
        4
 91
        0
  1

 92
        4
 93
        0
  2

 94
        4
 95
        0
  3

  0
XRECORD
  5
375
102
{ACAD_REACTORS
330
374
102
}
330
374
100
AcDbXrecord
280
     1
102
RTVSPropertyOp0
 70
     1
102
RTVSPropertyOp1
 70
     1
102
RTVSPropertyOp2
 70
     1
102
RTVSPropertyOp3
 70
     1
102
RTVSPropertyOp4
 70
     1
102
RTVSPropertyOp5
 70
     1
102
RTVSPropertyOp6
 70
     1
102
RTVSPropertyOp7
 70
     1
102
RTVSPropertyOp8
 70
     1
102
RTVSPropertyOp9
 70
     1
102
RTVSPropertyOp10
 70
     1
102
RTVSPropertyOp11
 70
     1
102
RTVSPropertyOp12
 70
     1
102
RTVSPropertyOp13
 70
     1
102
RTVSPropertyOp14
 70
     1
102
RTVSPropertyOp15
 70
     1
102
RTVSPropertyOp16
 70
     1
102
RTVSPropertyOp17
 70
     1
102
RTVSPropertyOp18
 70
     1
102
RTVSPropertyOp19
 70
     1
102
RTVSPropertyOp20
 70
     1
102
RTVSPropertyOp21
 70
     1
102
RTVSPropertyOp22
 70
     1
102
RTVSPropertyOp23
 70
     1
102
RTVSPropertyOp24
 70
     1
102
RTVSPropertyOp25
 70
     1
102
RTVSPropertyOp26
 70
     1
102
RTVSPropertyOp27
 70
     1
102
RTVSPropertyOp28
 70
     1
102
RTVSPropertyOp29
 70
     1
102
RTVSPropertyOp30
 70
     1
102
RTVSPropertyOp31
 70
     1
102
RTVSPropertyOp32
 70
     1
  0
XRECORD
  5
379
102
{ACAD_REACTORS
330
378
102
}
330
378
100
AcDbXrecord
280
     1
102
RTVSPropertyOp0
 70
     1
102
RTVSPropertyOp1
 70
     1
102
RTVSPropertyOp2
 70
     1
102
RTVSPropertyOp3
 70
     1
102
RTVSPropertyOp4
 70
     1
102
RTVSPropertyOp5
 70
     1
102
RTVSPropertyOp6
 70
     1
102
RTVSPropertyOp7
 70
     1
102
RTVSPropertyOp8
 70
     1
102
RTVSPropertyOp9
 70
     1
102
RTVSPropertyOp10
 70
     1
102
RTVSPropertyOp11
 70
     1
102
RTVSPropertyOp12
 70
     1
102
RTVSPropertyOp13
 70
     1
102
RTVSPropertyOp14
 70
     1
102
RTVSPropertyOp15
 70
     1
102
RTVSPropertyOp16
 70
     1
102
RTVSPropertyOp17
 70
     1
102
RTVSPropertyOp18
 70
     1
102
RTVSPropertyOp19
 70
     1
102
RTVSPropertyOp20
 70
     1
102
RTVSPropertyOp21
 70
     1
102
RTVSPropertyOp22
 70
     1
102
RTVSPropertyOp23
 70
     1
102
RTVSPropertyOp24
 70
     1
102
RTVSPropertyOp25
 70
     1
102
RTVSPropertyOp26
 70
     1
102
RTVSPropertyOp27
 70
     1
102
RTVSPropertyOp28
 70
     1
102
RTVSPropertyOp29
 70
     1
102
RTVSPropertyOp30
 70
     1
102
RTVSPropertyOp31
 70
     1
102
RTVSPropertyOp32
 70
     1
  0
XRECORD
  5
377
102
{ACAD_REACTORS
330
376
102
}
330
376
100
AcDbXrecord
280
     1
102
RTVSPropertyOp0
 70
     1
102
RTVSPropertyOp1
 70
     1
102
RTVSPropertyOp2
 70
     1
102
RTVSPropertyOp3
 70
     1
102
RTVSPropertyOp4
 70
     1
102
RTVSPropertyOp5
 70
     1
102
RTVSPropertyOp6
 70
     1
102
RTVSPropertyOp7
 70
     1
102
RTVSPropertyOp8
 70
     1
102
RTVSPropertyOp9
 70
     1
102
RTVSPropertyOp10
 70
     1
102
RTVSPropertyOp11
 70
     1
102
RTVSPropertyOp12
 70
     1
102
RTVSPropertyOp13
 70
     1
102
RTVSPropertyOp14
 70
     1
102
RTVSPropertyOp15
 70
     1
102
RTVSPropertyOp16
 70
     1
102
RTVSPropertyOp17
 70
     1
102
RTVSPropertyOp18
 70
     1
102
RTVSPropertyOp19
 70
     1
102
RTVSPropertyOp20
 70
     1
102
RTVSPropertyOp21
 70
     1
102
RTVSPropertyOp22
 70
     1
102
RTVSPropertyOp23
 70
     1
102
RTVSPropertyOp24
 70
     1
102
RTVSPropertyOp25
 70
     1
102
RTVSPropertyOp26
 70
     1
102
RTVSPropertyOp27
 70
     1
102
RTVSPropertyOp28
 70
     1
102
RTVSPropertyOp29
 70
     1
102
RTVSPropertyOp30
 70
     1
102
RTVSPropertyOp31
 70
     1
102
RTVSPropertyOp32
 70
     1
  0
XRECORD
  5
373
102
{ACAD_REACTORS
330
372
102
}
330
372
100
AcDbXrecord
280
     1
102
RTVSPropertyOp0
 70
     1
102
RTVSPropertyOp1
 70
     1
102
RTVSPropertyOp2
 70
     1
102
RTVSPropertyOp3
 70
     1
102
RTVSPropertyOp4
 70
     1
102
RTVSPropertyOp5
 70
     1
102
RTVSPropertyOp6
 70
     1
102
RTVSPropertyOp7
 70
     1
102
RTVSPropertyOp8
 70
     1
102
RTVSPropertyOp9
 70
     1
102
RTVSPropertyOp10
 70
     1
102
RTVSPropertyOp11
 70
     1
102
RTVSPropertyOp12
 70
     1
102
RTVSPropertyOp13
 70
     1
102
RTVSPropertyOp14
 70
     1
102
RTVSPropertyOp15
 70
     1
102
RTVSPropertyOp16
 70
     1
102
RTVSPropertyOp17
 70
     1
102
RTVSPropertyOp18
 70
     1
102
RTVSPropertyOp19
 70
     1
102
RTVSPropertyOp20
 70
     1
102
RTVSPropertyOp21
 70
     1
102
RTVSPropertyOp22
 70
     1
102
RTVSPropertyOp23
 70
     1
102
RTVSPropertyOp24
 70
     1
102
RTVSPropertyOp25
 70
     1
102
RTVSPropertyOp26
 70
     1
102
RTVSPropertyOp27
 70
     1
102
RTVSPropertyOp28
 70
     1
102
RTVSPropertyOp29
 70
     1
102
RTVSPropertyOp30
 70
     1
102
RTVSPropertyOp31
 70
     1
102
RTVSPropertyOp32
 70
     1
  0
XRECORD
  5
381
102
{ACAD_REACTORS
330
380
102
}
330
380
100
AcDbXrecord
280
     1
102
RTVSPropertyOp0
 70
     1
102
RTVSPropertyOp1
 70
     1
102
RTVSPropertyOp2
 70
     1
102
RTVSPropertyOp3
 70
     1
102
RTVSPropertyOp4
 70
     1
102
RTVSPropertyOp5
 70
     1
102
RTVSPropertyOp6
 70
     1
102
RTVSPropertyOp7
 70
     1
102
RTVSPropertyOp8
 70
     1
102
RTVSPropertyOp9
 70
     1
102
RTVSPropertyOp10
 70
     1
102
RTVSPropertyOp11
 70
     1
102
RTVSPropertyOp12
 70
     1
102
RTVSPropertyOp13
 70
     1
102
RTVSPropertyOp14
 70
     1
102
RTVSPropertyOp15
 70
     1
102
RTVSPropertyOp16
 70
     1
102
RTVSPropertyOp17
 70
     1
102
RTVSPropertyOp18
 70
     1
102
RTVSPropertyOp19
 70
     1
102
RTVSPropertyOp20
 70
     1
102
RTVSPropertyOp21
 70
     1
102
RTVSPropertyOp22
 70
     1
102
RTVSPropertyOp23
 70
     1
102
RTVSPropertyOp24
 70
     1
102
RTVSPropertyOp25
 70
     1
102
RTVSPropertyOp26
 70
     1
102
RTVSPropertyOp27
 70
     1
102
RTVSPropertyOp28
 70
     1
102
RTVSPropertyOp29
 70
     1
102
RTVSPropertyOp30
 70
     1
102
RTVSPropertyOp31
 70
     1
102
RTVSPropertyOp32
 70
     1
  0
XRECORD
  5
389
102
{ACAD_REACTORS
330
388
102
}
330
388
100
AcDbXrecord
280
     1
102
RTVSPropertyOp0
 70
     1
102
RTVSPropertyOp1
 70
     1
102
RTVSPropertyOp2
 70
     1
102
RTVSPropertyOp3
 70
     1
102
RTVSPropertyOp4
 70
     1
102
RTVSPropertyOp5
 70
     1
102
RTVSPropertyOp6
 70
     1
102
RTVSPropertyOp7
 70
     1
102
RTVSPropertyOp8
 70
     1
102
RTVSPropertyOp9
 70
     1
102
RTVSPropertyOp10
 70
     1
102
RTVSPropertyOp11
 70
     1
102
RTVSPropertyOp12
 70
     1
102
RTVSPropertyOp13
 70
     1
102
RTVSPropertyOp14
 70
     1
102
RTVSPropertyOp15
 70
     1
102
RTVSPropertyOp16
 70
     1
102
RTVSPropertyOp17
 70
     1
102
RTVSPropertyOp18
 70
     1
102
RTVSPropertyOp19
 70
     1
102
RTVSPropertyOp20
 70
     1
102
RTVSPropertyOp21
 70
     1
102
RTVSPropertyOp22
 70
     1
102
RTVSPropertyOp23
 70
     1
102
RTVSPropertyOp24
 70
     1
102
RTVSPropertyOp25
 70
     1
102
RTVSPropertyOp26
 70
     1
102
RTVSPropertyOp27
 70
     1
102
RTVSPropertyOp28
 70
     1
102
RTVSPropertyOp29
 70
     1
102
RTVSPropertyOp30
 70
     1
102
RTVSPropertyOp31
 70
     1
102
RTVSPropertyOp32
 70
     1
  0
XRECORD
  5
37B
102
{ACAD_REACTORS
330
37A
102
}
330
37A
100
AcDbXrecord
280
     1
102
RTVSPropertyOp0
 70
     1
102
RTVSPropertyOp1
 70
     1
102
RTVSPropertyOp2
 70
     1
102
RTVSPropertyOp3
 70
     1
102
RTVSPropertyOp4
 70
     1
102
RTVSPropertyOp5
 70
     1
102
RTVSPropertyOp6
 70
     1
102
RTVSPropertyOp7
 70
     1
102
RTVSPropertyOp8
 70
     1
102
RTVSPropertyOp9
 70
     1
102
RTVSPropertyOp10
 70
     1
102
RTVSPropertyOp11
 70
     1
102
RTVSPropertyOp12
 70
     1
102
RTVSPropertyOp13
 70
     1
102
RTVSPropertyOp14
 70
     1
102
RTVSPropertyOp15
 70
     1
102
RTVSPropertyOp16
 70
     1
102
RTVSPropertyOp17
 70
     1
102
RTVSPropertyOp18
 70
     1
102
RTVSPropertyOp19
 70
     1
102
RTVSPropertyOp20
 70
     1
102
RTVSPropertyOp21
 70
     1
102
RTVSPropertyOp22
 70
     1
102
RTVSPropertyOp23
 70
     1
102
RTVSPropertyOp24
 70
     1
102
RTVSPropertyOp25
 70
     1
102
RTVSPropertyOp26
 70
     1
102
RTVSPropertyOp27
 70
     1
102
RTVSPropertyOp28
 70
     1
102
RTVSPropertyOp29
 70
     1
102
RTVSPropertyOp30
 70
     1
102
RTVSPropertyOp31
 70
     1
102
RTVSPropertyOp32
 70
     1
  0
XRECORD
  5
37F
102
{ACAD_REACTORS
330
37E
102
}
330
37E
100
AcDbXrecord
280
     1
102
RTVSPropertyOp0
 70
     1
102
RTVSPropertyOp1
 70
     1
102
RTVSPropertyOp2
 70
     1
102
RTVSPropertyOp3
 70
     1
102
RTVSPropertyOp4
 70
     1
102
RTVSPropertyOp5
 70
     1
102
RTVSPropertyOp6
 70
     1
102
RTVSPropertyOp7
 70
     1
102
RTVSPropertyOp8
 70
     1
102
RTVSPropertyOp9
 70
     1
102
RTVSPropertyOp10
 70
     1
102
RTVSPropertyOp11
 70
     1
102
RTVSPropertyOp12
 70
     1
102
RTVSPropertyOp13
 70
     1
102
RTVSPropertyOp14
 70
     1
102
RTVSPropertyOp15
 70
     1
102
RTVSPropertyOp16
 70
     1
102
RTVSPropertyOp17
 70
     1
102
RTVSPropertyOp18
 70
     1
102
RTVSPropertyOp19
 70
     1
102
RTVSPropertyOp20
 70
     1
102
RTVSPropertyOp21
 70
     1
102
RTVSPropertyOp22
 70
     1
102
RTVSPropertyOp23
 70
     1
102
RTVSPropertyOp24
 70
     1
102
RTVSPropertyOp25
 70
     1
102
RTVSPropertyOp26
 70
     1
102
RTVSPropertyOp27
 70
     1
102
RTVSPropertyOp28
 70
     1
102
RTVSPropertyOp29
 70
     1
102
RTVSPropertyOp30
 70
     1
102
RTVSPropertyOp31
 70
     1
102
RTVSPropertyOp32
 70
     1
  0
XRECORD
  5
39D
102
{ACAD_REACTORS
330
39C
102
}
330
39C
100
AcDbXrecord
280
     1
102
RTVSPropertyOp0
 70
     0
102
RTVSPropertyOp1
 70
     0
102
RTVSPropertyOp2
 70
     0
102
RTVSPropertyOp3
 70
     0
102
RTVSPropertyOp4
 70
     0
102
RTVSPropertyOp5
 70
     0
102
RTVSPropertyOp6
 70
     0
102
RTVSPropertyOp7
 70
     0
102
RTVSPropertyOp8
 70
     0
102
RTVSPropertyOp9
 70
     0
102
RTVSPropertyOp10
 70
     0
102
RTVSPropertyOp11
 70
     0
102
RTVSPropertyOp12
 70
     0
102
RTVSPropertyOp13
 70
     0
102
RTVSPropertyOp14
 70
     2
102
RTVSPropertyOp15
 70
     0
102
RTVSPropertyOp16
 70
     0
102
RTVSPropertyOp17
 70
     0
102
RTVSPropertyOp18
 70
     0
102
RTVSPropertyOp19
 70
     0
102
RTVSPropertyOp20
 70
     0
102
RTVSPropertyOp21
 70
     0
102
RTVSPropertyOp22
 70
     0
102
RTVSPropertyOp23
 70
     0
102
RTVSPropertyOp24
 70
     0
102
RTVSPropertyOp25
 70
     0
102
RTVSPropertyOp26
 70
     0
102
RTVSPropertyOp27
 70
     0
102
RTVSPropertyOp28
 70
     0
102
RTVSPropertyOp29
 70
     0
102
RTVSPropertyOp30
 70
     0
102
RTVSPropertyOp31
 70
     0
102
RTVSPropertyOp32
 70
     0
  0
XRECORD
  5
387
102
{ACAD_REACTORS
330
386
102
}
330
386
100
AcDbXrecord
280
     1
102
RTVSPropertyOp0
 70
     1
102
RTVSPropertyOp1
 70
     1
102
RTVSPropertyOp2
 70
     1
102
RTVSPropertyOp3
 70
     1
102
RTVSPropertyOp4
 70
     1
102
RTVSPropertyOp5
 70
     1
102
RTVSPropertyOp6
 70
     1
102
RTVSPropertyOp7
 70
     1
102
RTVSPropertyOp8
 70
     1
102
RTVSPropertyOp9
 70
     1
102
RTVSPropertyOp10
 70
     1
102
RTVSPropertyOp11
 70
     1
102
RTVSPropertyOp12
 70
     1
102
RTVSPropertyOp13
 70
     1
102
RTVSPropertyOp14
 70
     1
102
RTVSPropertyOp15
 70
     1
102
RTVSPropertyOp16
 70
     1
102
RTVSPropertyOp17
 70
     1
102
RTVSPropertyOp18
 70
     1
102
RTVSPropertyOp19
 70
     1
102
RTVSPropertyOp20
 70
     1
102
RTVSPropertyOp21
 70
     1
102
RTVSPropertyOp22
 70
     1
102
RTVSPropertyOp23
 70
     1
102
RTVSPropertyOp24
 70
     1
102
RTVSPropertyOp25
 70
     1
102
RTVSPropertyOp26
 70
     1
102
RTVSPropertyOp27
 70
     1
102
RTVSPropertyOp28
 70
     1
102
RTVSPropertyOp29
 70
     1
102
RTVSPropertyOp30
 70
     1
102
RTVSPropertyOp31
 70
     1
102
RTVSPropertyOp32
 70
     1
  0
XRECORD
  5
36B
102
{ACAD_REACTORS
330
36A
102
}
330
36A
100
AcDbXrecord
280
     1
102
RTVSPropertyOp0
 70
     1
102
RTVSPropertyOp1
 70
     1
102
RTVSPropertyOp2
 70
     1
102
RTVSPropertyOp3
 70
     1
102
RTVSPropertyOp4
 70
     1
102
RTVSPropertyOp5
 70
     1
102
RTVSPropertyOp6
 70
     1
102
RTVSPropertyOp7
 70
     1
102
RTVSPropertyOp8
 70
     1
102
RTVSPropertyOp9
 70
     1
102
RTVSPropertyOp10
 70
     1
102
RTVSPropertyOp11
 70
     1
102
RTVSPropertyOp12
 70
     1
102
RTVSPropertyOp13
 70
     1
102
RTVSPropertyOp14
 70
     1
102
RTVSPropertyOp15
 70
     1
102
RTVSPropertyOp16
 70
     1
102
RTVSPropertyOp17
 70
     1
102
RTVSPropertyOp18
 70
     1
102
RTVSPropertyOp19
 70
     1
102
RTVSPropertyOp20
 70
     1
102
RTVSPropertyOp21
 70
     1
102
RTVSPropertyOp22
 70
     1
102
RTVSPropertyOp23
 70
     1
102
RTVSPropertyOp24
 70
     1
102
RTVSPropertyOp25
 70
     1
102
RTVSPropertyOp26
 70
     1
102
RTVSPropertyOp27
 70
     1
102
RTVSPropertyOp28
 70
     1
102
RTVSPropertyOp29
 70
     1
102
RTVSPropertyOp30
 70
     1
102
RTVSPropertyOp31
 70
     1
102
RTVSPropertyOp32
 70
     1
  0
XRECORD
  5
36D
102
{ACAD_REACTORS
330
36C
102
}
330
36C
100
AcDbXrecord
280
     1
102
RTVSPropertyOp0
 70
     1
102
RTVSPropertyOp1
 70
     1
102
RTVSPropertyOp2
 70
     1
102
RTVSPropertyOp3
 70
     1
102
RTVSPropertyOp4
 70
     1
102
RTVSPropertyOp5
 70
     1
102
RTVSPropertyOp6
 70
     1
102
RTVSPropertyOp7
 70
     1
102
RTVSPropertyOp8
 70
     1
102
RTVSPropertyOp9
 70
     1
102
RTVSPropertyOp10
 70
     1
102
RTVSPropertyOp11
 70
     1
102
RTVSPropertyOp12
 70
     1
102
RTVSPropertyOp13
 70
     1
102
RTVSPropertyOp14
 70
     1
102
RTVSPropertyOp15
 70
     1
102
RTVSPropertyOp16
 70
     1
102
RTVSPropertyOp17
 70
     1
102
RTVSPropertyOp18
 70
     1
102
RTVSPropertyOp19
 70
     1
102
RTVSPropertyOp20
 70
     1
102
RTVSPropertyOp21
 70
     1
102
RTVSPropertyOp22
 70
     1
102
RTVSPropertyOp23
 70
     1
102
RTVSPropertyOp24
 70
     1
102
RTVSPropertyOp25
 70
     1
102
RTVSPropertyOp26
 70
     1
102
RTVSPropertyOp27
 70
     1
102
RTVSPropertyOp28
 70
     1
102
RTVSPropertyOp29
 70
     1
102
RTVSPropertyOp30
 70
     1
102
RTVSPropertyOp31
 70
     1
102
RTVSPropertyOp32
 70
     1
  0
XRECORD
  5
36F
102
{ACAD_REACTORS
330
36E
102
}
330
36E
100
AcDbXrecord
280
     1
102
RTVSPropertyOp0
 70
     1
102
RTVSPropertyOp1
 70
     1
102
RTVSPropertyOp2
 70
     1
102
RTVSPropertyOp3
 70
     1
102
RTVSPropertyOp4
 70
     1
102
RTVSPropertyOp5
 70
     1
102
RTVSPropertyOp6
 70
     1
102
RTVSPropertyOp7
 70
     1
102
RTVSPropertyOp8
 70
     1
102
RTVSPropertyOp9
 70
     1
102
RTVSPropertyOp10
 70
     1
102
RTVSPropertyOp11
 70
     1
102
RTVSPropertyOp12
 70
     1
102
RTVSPropertyOp13
 70
     1
102
RTVSPropertyOp14
 70
     1
102
RTVSPropertyOp15
 70
     1
102
RTVSPropertyOp16
 70
     1
102
RTVSPropertyOp17
 70
     1
102
RTVSPropertyOp18
 70
     1
102
RTVSPropertyOp19
 70
     1
102
RTVSPropertyOp20
 70
     1
102
RTVSPropertyOp21
 70
     1
102
RTVSPropertyOp22
 70
     1
102
RTVSPropertyOp23
 70
     1
102
RTVSPropertyOp24
 70
     1
102
RTVSPropertyOp25
 70
     1
102
RTVSPropertyOp26
 70
     1
102
RTVSPropertyOp27
 70
     1
102
RTVSPropertyOp28
 70
     1
102
RTVSPropertyOp29
 70
     1
102
RTVSPropertyOp30
 70
     1
102
RTVSPropertyOp31
 70
     1
102
RTVSPropertyOp32
 70
     1
  0
XRECORD
  5
371
102
{ACAD_REACTORS
330
370
102
}
330
370
100
AcDbXrecord
280
     1
102
RTVSPropertyOp0
 70
     1
102
RTVSPropertyOp1
 70
     1
102
RTVSPropertyOp2
 70
     1
102
RTVSPropertyOp3
 70
     1
102
RTVSPropertyOp4
 70
     1
102
RTVSPropertyOp5
 70
     1
102
RTVSPropertyOp6
 70
     1
102
RTVSPropertyOp7
 70
     1
102
RTVSPropertyOp8
 70
     1
102
RTVSPropertyOp9
 70
     1
102
RTVSPropertyOp10
 70
     1
102
RTVSPropertyOp11
 70
     1
102
RTVSPropertyOp12
 70
     1
102
RTVSPropertyOp13
 70
     1
102
RTVSPropertyOp14
 70
     1
102
RTVSPropertyOp15
 70
     1
102
RTVSPropertyOp16
 70
     1
102
RTVSPropertyOp17
 70
     1
102
RTVSPropertyOp18
 70
     1
102
RTVSPropertyOp19
 70
     1
102
RTVSPropertyOp20
 70
     1
102
RTVSPropertyOp21
 70
     1
102
RTVSPropertyOp22
 70
     1
102
RTVSPropertyOp23
 70
     1
102
RTVSPropertyOp24
 70
     1
102
RTVSPropertyOp25
 70
     1
102
RTVSPropertyOp26
 70
     1
102
RTVSPropertyOp27
 70
     1
102
RTVSPropertyOp28
 70
     1
102
RTVSPropertyOp29
 70
     1
102
RTVSPropertyOp30
 70
     1
102
RTVSPropertyOp31
 70
     1
102
RTVSPropertyOp32
 70
     1
  0
XRECORD
  5
38D
102
{ACAD_REACTORS
330
38C
102
}
330
38C
100
AcDbXrecord
280
     1
102
RTVSPropertyOp0
 70
     1
102
RTVSPropertyOp1
 70
     1
102
RTVSPropertyOp2
 70
     1
102
RTVSPropertyOp3
 70
     1
102
RTVSPropertyOp4
 70
     1
102
RTVSPropertyOp5
 70
     1
102
RTVSPropertyOp6
 70
     1
102
RTVSPropertyOp7
 70
     1
102
RTVSPropertyOp8
 70
     1
102
RTVSPropertyOp9
 70
     1
102
RTVSPropertyOp10
 70
     1
102
RTVSPropertyOp11
 70
     1
102
RTVSPropertyOp12
 70
     1
102
RTVSPropertyOp13
 70
     1
102
RTVSPropertyOp14
 70
     1
102
RTVSPropertyOp15
 70
     1
102
RTVSPropertyOp16
 70
     1
102
RTVSPropertyOp17
 70
     1
102
RTVSPropertyOp18
 70
     1
102
RTVSPropertyOp19
 70
     1
102
RTVSPropertyOp20
 70
     1
102
RTVSPropertyOp21
 70
     1
102
RTVSPropertyOp22
 70
     1
102
RTVSPropertyOp23
 70
     1
102
RTVSPropertyOp24
 70
     1
102
RTVSPropertyOp25
 70
     1
102
RTVSPropertyOp26
 70
     1
102
RTVSPropertyOp27
 70
     1
102
RTVSPropertyOp28
 70
     1
102
RTVSPropertyOp29
 70
     1
102
RTVSPropertyOp30
 70
     1
102
RTVSPropertyOp31
 70
     1
102
RTVSPropertyOp32
 70
     1
  0
XRECORD
  5
399
102
{ACAD_REACTORS
330
398
102
}
330
398
100
AcDbXrecord
280
     1
102
RTVSPropertyOp0
 70
     0
102
RTVSPropertyOp1
 70
     0
102
RTVSPropertyOp2
 70
     0
102
RTVSPropertyOp3
 70
     0
102
RTVSPropertyOp4
 70
     0
102
RTVSPropertyOp5
 70
     0
102
RTVSPropertyOp6
 70
     0
102
RTVSPropertyOp7
 70
     0
102
RTVSPropertyOp8
 70
     0
102
RTVSPropertyOp9
 70
     0
102
RTVSPropertyOp10
 70
     0
102
RTVSPropertyOp11
 70
     0
102
RTVSPropertyOp12
 70
     0
102
RTVSPropertyOp13
 70
     0
102
RTVSPropertyOp14
 70
     2
102
RTVSPropertyOp15
 70
     0
102
RTVSPropertyOp16
 70
     0
102
RTVSPropertyOp17
 70
     0
102
RTVSPropertyOp18
 70
     0
102
RTVSPropertyOp19
 70
     0
102
RTVSPropertyOp20
 70
     0
102
RTVSPropertyOp21
 70
     0
102
RTVSPropertyOp22
 70
     0
102
RTVSPropertyOp23
 70
     0
102
RTVSPropertyOp24
 70
     0
102
RTVSPropertyOp25
 70
     0
102
RTVSPropertyOp26
 70
     0
102
RTVSPropertyOp27
 70
     0
102
RTVSPropertyOp28
 70
     0
102
RTVSPropertyOp29
 70
     0
102
RTVSPropertyOp30
 70
     0
102
RTVSPropertyOp31
 70
     0
102
RTVSPropertyOp32
 70
     0
  0
XRECORD
  5
385
102
{ACAD_REACTORS
330
384
102
}
330
384
100
AcDbXrecord
280
     1
102
RTVSPropertyOp0
 70
     1
102
RTVSPropertyOp1
 70
     1
102
RTVSPropertyOp2
 70
     1
102
RTVSPropertyOp3
 70
     1
102
RTVSPropertyOp4
 70
     1
102
RTVSPropertyOp5
 70
     1
102
RTVSPropertyOp6
 70
     1
102
RTVSPropertyOp7
 70
     1
102
RTVSPropertyOp8
 70
     1
102
RTVSPropertyOp9
 70
     1
102
RTVSPropertyOp10
 70
     1
102
RTVSPropertyOp11
 70
     1
102
RTVSPropertyOp12
 70
     1
102
RTVSPropertyOp13
 70
     1
102
RTVSPropertyOp14
 70
     1
102
RTVSPropertyOp15
 70
     1
102
RTVSPropertyOp16
 70
     1
102
RTVSPropertyOp17
 70
     1
102
RTVSPropertyOp18
 70
     1
102
RTVSPropertyOp19
 70
     1
102
RTVSPropertyOp20
 70
     1
102
RTVSPropertyOp21
 70
     1
102
RTVSPropertyOp22
 70
     1
102
RTVSPropertyOp23
 70
     1
102
RTVSPropertyOp24
 70
     1
102
RTVSPropertyOp25
 70
     1
102
RTVSPropertyOp26
 70
     1
102
RTVSPropertyOp27
 70
     1
102
RTVSPropertyOp28
 70
     1
102
RTVSPropertyOp29
 70
     1
102
RTVSPropertyOp30
 70
     1
102
RTVSPropertyOp31
 70
     1
102
RTVSPropertyOp32
 70
     1
  0
XRECORD
  5
39B
102
{ACAD_REACTORS
330
39A
102
}
330
39A
100
AcDbXrecord
280
     1
102
RTVSPropertyOp0
 70
     0
102
RTVSPropertyOp1
 70
     0
102
RTVSPropertyOp2
 70
     0
102
RTVSPropertyOp3
 70
     0
102
RTVSPropertyOp4
 70
     0
102
RTVSPropertyOp5
 70
     0
102
RTVSPropertyOp6
 70
     0
102
RTVSPropertyOp7
 70
     0
102
RTVSPropertyOp8
 70
     0
102
RTVSPropertyOp9
 70
     0
102
RTVSPropertyOp10
 70
     0
102
RTVSPropertyOp11
 70
     0
102
RTVSPropertyOp12
 70
     0
102
RTVSPropertyOp13
 70
     0
102
RTVSPropertyOp14
 70
     2
102
RTVSPropertyOp15
 70
     0
102
RTVSPropertyOp16
 70
     0
102
RTVSPropertyOp17
 70
     0
102
RTVSPropertyOp18
 70
     0
102
RTVSPropertyOp19
 70
     0
102
RTVSPropertyOp20
 70
     0
102
RTVSPropertyOp21
 70
     0
102
RTVSPropertyOp22
 70
     0
102
RTVSPropertyOp23
 70
     0
102
RTVSPropertyOp24
 70
     0
102
RTVSPropertyOp25
 70
     0
102
RTVSPropertyOp26
 70
     0
102
RTVSPropertyOp27
 70
     0
102
RTVSPropertyOp28
 70
     0
102
RTVSPropertyOp29
 70
     0
102
RTVSPropertyOp30
 70
     0
102
RTVSPropertyOp31
 70
     0
102
RTVSPropertyOp32
 70
     0
  0
XRECORD
  5
37D
102
{ACAD_REACTORS
330
37C
102
}
330
37C
100
AcDbXrecord
280
     1
102
RTVSPropertyOp0
 70
     1
102
RTVSPropertyOp1
 70
     1
102
RTVSPropertyOp2
 70
     1
102
RTVSPropertyOp3
 70
     1
102
RTVSPropertyOp4
 70
     1
102
RTVSPropertyOp5
 70
     1
102
RTVSPropertyOp6
 70
     1
102
RTVSPropertyOp7
 70
     1
102
RTVSPropertyOp8
 70
     1
102
RTVSPropertyOp9
 70
     1
102
RTVSPropertyOp10
 70
     1
102
RTVSPropertyOp11
 70
     1
102
RTVSPropertyOp12
 70
     1
102
RTVSPropertyOp13
 70
     1
102
RTVSPropertyOp14
 70
     1
102
RTVSPropertyOp15
 70
     1
102
RTVSPropertyOp16
 70
     1
102
RTVSPropertyOp17
 70
     1
102
RTVSPropertyOp18
 70
     1
102
RTVSPropertyOp19
 70
     1
102
RTVSPropertyOp20
 70
     1
102
RTVSPropertyOp21
 70
     1
102
RTVSPropertyOp22
 70
     1
102
RTVSPropertyOp23
 70
     1
102
RTVSPropertyOp24
 70
     1
102
RTVSPropertyOp25
 70
     1
102
RTVSPropertyOp26
 70
     1
102
RTVSPropertyOp27
 70
     1
102
RTVSPropertyOp28
 70
     1
102
RTVSPropertyOp29
 70
     1
102
RTVSPropertyOp30
 70
     1
102
RTVSPropertyOp31
 70
     1
102
RTVSPropertyOp32
 70
     1
  0
XRECORD
  5
397
102
{ACAD_REACTORS
330
396
102
}
330
396
100
AcDbXrecord
280
     1
102
RTVSPropertyOp0
 70
     1
102
RTVSPropertyOp1
 70
     1
102
RTVSPropertyOp2
 70
     1
102
RTVSPropertyOp3
 70
     1
102
RTVSPropertyOp4
 70
     1
102
RTVSPropertyOp5
 70
     1
102
RTVSPropertyOp6
 70
     1
102
RTVSPropertyOp7
 70
     1
102
RTVSPropertyOp8
 70
     1
102
RTVSPropertyOp9
 70
     1
102
RTVSPropertyOp10
 70
     1
102
RTVSPropertyOp11
 70
     1
102
RTVSPropertyOp12
 70
     1
102
RTVSPropertyOp13
 70
     1
102
RTVSPropertyOp14
 70
     1
102
RTVSPropertyOp15
 70
     1
102
RTVSPropertyOp16
 70
     1
102
RTVSPropertyOp17
 70
     1
102
RTVSPropertyOp18
 70
     1
102
RTVSPropertyOp19
 70
     1
102
RTVSPropertyOp20
 70
     1
102
RTVSPropertyOp21
 70
     1
102
RTVSPropertyOp22
 70
     1
102
RTVSPropertyOp23
 70
     1
102
RTVSPropertyOp24
 70
     1
102
RTVSPropertyOp25
 70
     1
102
RTVSPropertyOp26
 70
     1
102
RTVSPropertyOp27
 70
     1
102
RTVSPropertyOp28
 70
     1
102
RTVSPropertyOp29
 70
     1
102
RTVSPropertyOp30
 70
     1
102
RTVSPropertyOp31
 70
     1
102
RTVSPropertyOp32
 70
     1
  0
XRECORD
  5
395
102
{ACAD_REACTORS
330
394
102
}
330
394
100
AcDbXrecord
280
     1
102
RTVSPropertyOp0
 70
     1
102
RTVSPropertyOp1
 70
     1
102
RTVSPropertyOp2
 70
     1
102
RTVSPropertyOp3
 70
     1
102
RTVSPropertyOp4
 70
     1
102
RTVSPropertyOp5
 70
     1
102
RTVSPropertyOp6
 70
     1
102
RTVSPropertyOp7
 70
     1
102
RTVSPropertyOp8
 70
     1
102
RTVSPropertyOp9
 70
     1
102
RTVSPropertyOp10
 70
     1
102
RTVSPropertyOp11
 70
     1
102
RTVSPropertyOp12
 70
     1
102
RTVSPropertyOp13
 70
     1
102
RTVSPropertyOp14
 70
     1
102
RTVSPropertyOp15
 70
     1
102
RTVSPropertyOp16
 70
     1
102
RTVSPropertyOp17
 70
     1
102
RTVSPropertyOp18
 70
     1
102
RTVSPropertyOp19
 70
     1
102
RTVSPropertyOp20
 70
     1
102
RTVSPropertyOp21
 70
     1
102
RTVSPropertyOp22
 70
     1
102
RTVSPropertyOp23
 70
     1
102
RTVSPropertyOp24
 70
     1
102
RTVSPropertyOp25
 70
     1
102
RTVSPropertyOp26
 70
     1
102
RTVSPropertyOp27
 70
     1
102
RTVSPropertyOp28
 70
     1
102
RTVSPropertyOp29
 70
     1
102
RTVSPropertyOp30
 70
     1
102
RTVSPropertyOp31
 70
     1
102
RTVSPropertyOp32
 70
     1
  0
XRECORD
  5
38F
102
{ACAD_REACTORS
330
38E
102
}
330
38E
100
AcDbXrecord
280
     1
102
RTVSPropertyOp0
 70
     1
102
RTVSPropertyOp1
 70
     1
102
RTVSPropertyOp2
 70
     1
102
RTVSPropertyOp3
 70
     1
102
RTVSPropertyOp4
 70
     1
102
RTVSPropertyOp5
 70
     1
102
RTVSPropertyOp6
 70
     1
102
RTVSPropertyOp7
 70
     1
102
RTVSPropertyOp8
 70
     1
102
RTVSPropertyOp9
 70
     1
102
RTVSPropertyOp10
 70
     1
102
RTVSPropertyOp11
 70
     1
102
RTVSPropertyOp12
 70
     1
102
RTVSPropertyOp13
 70
     1
102
RTVSPropertyOp14
 70
     1
102
RTVSPropertyOp15
 70
     1
102
RTVSPropertyOp16
 70
     1
102
RTVSPropertyOp17
 70
     1
102
RTVSPropertyOp18
 70
     1
102
RTVSPropertyOp19
 70
     1
102
RTVSPropertyOp20
 70
     1
102
RTVSPropertyOp21
 70
     1
102
RTVSPropertyOp22
 70
     1
102
RTVSPropertyOp23
 70
     1
102
RTVSPropertyOp24
 70
     1
102
RTVSPropertyOp25
 70
     1
102
RTVSPropertyOp26
 70
     1
102
RTVSPropertyOp27
 70
     1
102
RTVSPropertyOp28
 70
     1
102
RTVSPropertyOp29
 70
     1
102
RTVSPropertyOp30
 70
     1
102
RTVSPropertyOp31
 70
     1
102
RTVSPropertyOp32
 70
     1
  0
XRECORD
  5
391
102
{ACAD_REACTORS
330
390
102
}
330
390
100
AcDbXrecord
280
     1
102
RTVSPropertyOp0
 70
     1
102
RTVSPropertyOp1
 70
     1
102
RTVSPropertyOp2
 70
     1
102
RTVSPropertyOp3
 70
     1
102
RTVSPropertyOp4
 70
     1
102
RTVSPropertyOp5
 70
     1
102
RTVSPropertyOp6
 70
     1
102
RTVSPropertyOp7
 70
     1
102
RTVSPropertyOp8
 70
     1
102
RTVSPropertyOp9
 70
     1
102
RTVSPropertyOp10
 70
     1
102
RTVSPropertyOp11
 70
     1
102
RTVSPropertyOp12
 70
     1
102
RTVSPropertyOp13
 70
     1
102
RTVSPropertyOp14
 70
     1
102
RTVSPropertyOp15
 70
     1
102
RTVSPropertyOp16
 70
     1
102
RTVSPropertyOp17
 70
     1
102
RTVSPropertyOp18
 70
     1
102
RTVSPropertyOp19
 70
     1
102
RTVSPropertyOp20
 70
     1
102
RTVSPropertyOp21
 70
     1
102
RTVSPropertyOp22
 70
     1
102
RTVSPropertyOp23
 70
     1
102
RTVSPropertyOp24
 70
     1
102
RTVSPropertyOp25
 70
     1
102
RTVSPropertyOp26
 70
     1
102
RTVSPropertyOp27
 70
     1
102
RTVSPropertyOp28
 70
     1
102
RTVSPropertyOp29
 70
     1
102
RTVSPropertyOp30
 70
     1
102
RTVSPropertyOp31
 70
     1
102
RTVSPropertyOp32
 70
     1
  0
XRECORD
  5
383
102
{ACAD_REACTORS
330
382
102
}
330
382
100
AcDbXrecord
280
     1
102
RTVSPropertyOp0
 70
     1
102
RTVSPropertyOp1
 70
     1
102
RTVSPropertyOp2
 70
     1
102
RTVSPropertyOp3
 70
     1
102
RTVSPropertyOp4
 70
     1
102
RTVSPropertyOp5
 70
     1
102
RTVSPropertyOp6
 70
     1
102
RTVSPropertyOp7
 70
     1
102
RTVSPropertyOp8
 70
     1
102
RTVSPropertyOp9
 70
     1
102
RTVSPropertyOp10
 70
     1
102
RTVSPropertyOp11
 70
     1
102
RTVSPropertyOp12
 70
     1
102
RTVSPropertyOp13
 70
     1
102
RTVSPropertyOp14
 70
     1
102
RTVSPropertyOp15
 70
     1
102
RTVSPropertyOp16
 70
     1
102
RTVSPropertyOp17
 70
     1
102
RTVSPropertyOp18
 70
     1
102
RTVSPropertyOp19
 70
     1
102
RTVSPropertyOp20
 70
     1
102
RTVSPropertyOp21
 70
     1
102
RTVSPropertyOp22
 70
     1
102
RTVSPropertyOp23
 70
     1
102
RTVSPropertyOp24
 70
     1
102
RTVSPropertyOp25
 70
     1
102
RTVSPropertyOp26
 70
     1
102
RTVSPropertyOp27
 70
     1
102
RTVSPropertyOp28
 70
     1
102
RTVSPropertyOp29
 70
     1
102
RTVSPropertyOp30
 70
     1
102
RTVSPropertyOp31
 70
     1
102
RTVSPropertyOp32
 70
     1
  0
XRECORD
  5
38B
102
{ACAD_REACTORS
330
38A
102
}
330
38A
100
AcDbXrecord
280
     1
102
RTVSPropertyOp0
 70
     1
102
RTVSPropertyOp1
 70
     1
102
RTVSPropertyOp2
 70
     1
102
RTVSPropertyOp3
 70
     1
102
RTVSPropertyOp4
 70
     1
102
RTVSPropertyOp5
 70
     1
102
RTVSPropertyOp6
 70
     1
102
RTVSPropertyOp7
 70
     1
102
RTVSPropertyOp8
 70
     1
102
RTVSPropertyOp9
 70
     1
102
RTVSPropertyOp10
 70
     1
102
RTVSPropertyOp11
 70
     1
102
RTVSPropertyOp12
 70
     1
102
RTVSPropertyOp13
 70
     1
102
RTVSPropertyOp14
 70
     1
102
RTVSPropertyOp15
 70
     1
102
RTVSPropertyOp16
 70
     1
102
RTVSPropertyOp17
 70
     1
102
RTVSPropertyOp18
 70
     1
102
RTVSPropertyOp19
 70
     1
102
RTVSPropertyOp20
 70
     1
102
RTVSPropertyOp21
 70
     1
102
RTVSPropertyOp22
 70
     1
102
RTVSPropertyOp23
 70
     1
102
RTVSPropertyOp24
 70
     1
102
RTVSPropertyOp25
 70
     1
102
RTVSPropertyOp26
 70
     1
102
RTVSPropertyOp27
 70
     1
102
RTVSPropertyOp28
 70
     1
102
RTVSPropertyOp29
 70
     1
102
RTVSPropertyOp30
 70
     1
102
RTVSPropertyOp31
 70
     1
102
RTVSPropertyOp32
 70
     1
  0
XRECORD
  5
393
102
{ACAD_REACTORS
330
392
102
}
330
392
100
AcDbXrecord
280
     1
102
RTVSPropertyOp0
 70
     1
102
RTVSPropertyOp1
 70
     1
102
RTVSPropertyOp2
 70
     1
102
RTVSPropertyOp3
 70
     1
102
RTVSPropertyOp4
 70
     1
102
RTVSPropertyOp5
 70
     1
102
RTVSPropertyOp6
 70
     1
102
RTVSPropertyOp7
 70
     1
102
RTVSPropertyOp8
 70
     1
102
RTVSPropertyOp9
 70
     1
102
RTVSPropertyOp10
 70
     1
102
RTVSPropertyOp11
 70
     1
102
RTVSPropertyOp12
 70
     1
102
RTVSPropertyOp13
 70
     1
102
RTVSPropertyOp14
 70
     1
102
RTVSPropertyOp15
 70
     1
102
RTVSPropertyOp16
 70
     1
102
RTVSPropertyOp17
 70
     1
102
RTVSPropertyOp18
 70
     1
102
RTVSPropertyOp19
 70
     1
102
RTVSPropertyOp20
 70
     1
102
RTVSPropertyOp21
 70
     1
102
RTVSPropertyOp22
 70
     1
102
RTVSPropertyOp23
 70
     1
102
RTVSPropertyOp24
 70
     1
102
RTVSPropertyOp25
 70
     1
102
RTVSPropertyOp26
 70
     1
102
RTVSPropertyOp27
 70
     1
102
RTVSPropertyOp28
 70
     1
102
RTVSPropertyOp29
 70
     1
102
RTVSPropertyOp30
 70
     1
102
RTVSPropertyOp31
 70
     1
102
RTVSPropertyOp32
 70
     1
  0
ENDSEC
  0
EOF
