  0
SECTION
  2
HEADER
  9
$ACADVER
  1
AC1015
  9
$ACADMAINTVER
 70
    20
  9
$DWGCODEPAGE
  3
ANSI_1252
  9
$INSBASE
 10
0.0
 20
0.0
 30
0.0
  9
$EXTMIN
 10
-0.8254186808712193
 20
-1.750000000000032
 30
-0.0000000000000076
  9
$EXTMAX
 10
2.674581319128839
 20
1.750000000000035
 30
35.50000000000001
  9
$LIMMIN
 10
0.0
 20
0.0
  9
$LIMMAX
 10
12.0
 20
9.0
  9
$ORTHOMODE
 70
     0
  9
$REGENMODE
 70
     1
  9
$FILLMODE
 70
     1
  9
$QTEXTMODE
 70
     0
  9
$MIRRTEXT
 70
     0
  9
$LTSCALE
 40
1.0
  9
$ATTMODE
 70
     1
  9
$TEXTSIZE
 40
0.2
  9
$TRACEWID
 40
0.05
  9
$TEXTSTYLE
  7
Standard
  9
$CLAYER
  8
0
  9
$CELTYPE
  6
ByLayer
  9
$CECOLOR
 62
   256
  9
$CELTSCALE
 40
1.0
  9
$DISPSILH
 70
     0
  9
$DIMSCALE
 40
1.0
  9
$DIMASZ
 40
0.5
  9
$DIMEXO
 40
0.25
  9
$DIMDLI
 40
0.38
  9
$DIMRND
 40
0.0625
  9
$DIMDLE
 40
0.0
  9
$DIMEXE
 40
0.25
  9
$DIMTP
 40
0.0
  9
$DIMTM
 40
0.0
  9
$DIMTXT
 40
0.7
  9
$DIMCEN
 40
0.0
  9
$DIMTSZ
 40
0.0
  9
$DIMTOL
 70
     0
  9
$DIMLIM
 70
     0
  9
$DIMTIH
 70
     1
  9
$DIMTOH
 70
     1
  9
$DIMSE1
 70
     0
  9
$DIMSE2
 70
     0
  9
$DIMTAD
 70
     0
  9
$DIMZIN
 70
     0
  9
$DIMBLK
  1

  9
$DIMASO
 70
     1
  9
$DIMSHO
 70
     1
  9
$DIMPOST
  1

  9
$DIMAPOST
  1

  9
$DIMALT
 70
     0
  9
$DIMALTD
 70
     2
  9
$DIMALTF
 40
25.4
  9
$DIMLFAC
 40
1.0
  9
$DIMTOFL
 70
     0
  9
$DIMTVP
 40
0.0
  9
$DIMTIX
 70
     0
  9
$DIMSOXD
 70
     0
  9
$DIMSAH
 70
     0
  9
$DIMBLK1
  1

  9
$DIMBLK2
  1

  9
$DIMSTYLE
  2
New OWP
  9
$DIMCLRD
 70
     0
  9
$DIMCLRE
 70
     0
  9
$DIMCLRT
 70
     0
  9
$DIMTFAC
 40
1.0
  9
$DIMGAP
 40
0.09
  9
$DIMJUST
 70
     0
  9
$DIMSD1
 70
     0
  9
$DIMSD2
 70
     0
  9
$DIMTOLJ
 70
     1
  9
$DIMTZIN
 70
     0
  9
$DIMALTZ
 70
     0
  9
$DIMALTTZ
 70
     0
  9
$DIMUPT
 70
     0
  9
$DIMDEC
 70
     4
  9
$DIMTDEC
 70
     4
  9
$DIMALTU
 70
     2
  9
$DIMALTTD
 70
     2
  9
$DIMTXSTY
  7
Standard
  9
$DIMAUNIT
 70
     0
  9
$DIMADEC
 70
     0
  9
$DIMALTRND
 40
0.0
  9
$DIMAZIN
 70
     0
  9
$DIMDSEP
 70
    46
  9
$DIMATFIT
 70
     3
  9
$DIMFRAC
 70
     1
  9
$DIMLDRBLK
  1

  9
$DIMLUNIT
 70
     5
  9
$DIMLWD
 70
    -2
  9
$DIMLWE
 70
    -2
  9
$DIMTMOVE
 70
     0
  9
$LUNITS
 70
     2
  9
$LUPREC
 70
     4
  9
$SKETCHINC
 40
0.1
  9
$FILLETRAD
 40
0.0
  9
$AUNITS
 70
     0
  9
$AUPREC
 70
     0
  9
$MENU
  1
.
  9
$ELEVATION
 40
0.0
  9
$PELEVATION
 40
0.0
  9
$THICKNESS
 40
0.0
  9
$LIMCHECK
 70
     0
  9
$CHAMFERA
 40
0.0
  9
$CHAMFERB
 40
0.0
  9
$CHAMFERC
 40
0.0
  9
$CHAMFERD
 40
0.0
  9
$SKPOLY
 70
     0
  9
$TDCREATE
 40
2456048.482104005
  9
$TDUCREATE
 40
2456048.648770671
  9
$TDUPDATE
 40
2456064.562496679
  9
$TDUUPDATE
 40
2456064.729163345
  9
$TDINDWG
 40
0.0108523032
  9
$TDUSRTIMER
 40
0.0108520255
  9
$USRTIMER
 70
     1
  9
$ANGBASE
 50
0.0
  9
$ANGDIR
 70
     0
  9
$PDMODE
 70
     0
  9
$PDSIZE
 40
0.0
  9
$PLINEWID
 40
0.0
  9
$SPLFRAME
 70
     0
  9
$SPLINETYPE
 70
     6
  9
$SPLINESEGS
 70
     8
  9
$HANDSEED
  5
743
  9
$SURFTAB1
 70
     6
  9
$SURFTAB2
 70
     6
  9
$SURFTYPE
 70
     6
  9
$SURFU
 70
     6
  9
$SURFV
 70
     6
  9
$UCSBASE
  2

  9
$UCSNAME
  2

  9
$UCSORG
 10
0.0
 20
0.0
 30
0.0
  9
$UCSXDIR
 10
1.0
 20
0.0
 30
0.0
  9
$UCSYDIR
 10
0.0
 20
0.0
 30
1.0
  9
$UCSORTHOREF
  2

  9
$UCSORTHOVIEW
 70
     3
  9
$UCSORGTOP
 10
0.0
 20
0.0
 30
0.0
  9
$UCSORGBOTTOM
 10
0.0
 20
0.0
 30
0.0
  9
$UCSORGLEFT
 10
0.0
 20
0.0
 30
0.0
  9
$UCSORGRIGHT
 10
0.0
 20
0.0
 30
0.0
  9
$UCSORGFRONT
 10
0.0
 20
0.0
 30
0.0
  9
$UCSORGBACK
 10
0.0
 20
0.0
 30
0.0
  9
$PUCSBASE
  2

  9
$PUCSNAME
  2

  9
$PUCSORG
 10
0.0
 20
0.0
 30
0.0
  9
$PUCSXDIR
 10
1.0
 20
0.0
 30
0.0
  9
$PUCSYDIR
 10
0.0
 20
1.0
 30
0.0
  9
$PUCSORTHOREF
  2

  9
$PUCSORTHOVIEW
 70
     0
  9
$PUCSORGTOP
 10
0.0
 20
0.0
 30
0.0
  9
$PUCSORGBOTTOM
 10
0.0
 20
0.0
 30
0.0
  9
$PUCSORGLEFT
 10
0.0
 20
0.0
 30
0.0
  9
$PUCSORGRIGHT
 10
0.0
 20
0.0
 30
0.0
  9
$PUCSORGFRONT
 10
0.0
 20
0.0
 30
0.0
  9
$PUCSORGBACK
 10
0.0
 20
0.0
 30
0.0
  9
$USERI1
 70
     0
  9
$USERI2
 70
     0
  9
$USERI3
 70
     0
  9
$USERI4
 70
     0
  9
$USERI5
 70
     0
  9
$USERR1
 40
0.0
  9
$USERR2
 40
0.0
  9
$USERR3
 40
0.0
  9
$USERR4
 40
0.0
  9
$USERR5
 40
0.0
  9
$WORLDVIEW
 70
     1
  9
$SHADEDGE
 70
     3
  9
$SHADEDIF
 70
    70
  9
$TILEMODE
 70
     1
  9
$MAXACTVP
 70
    64
  9
$PINSBASE
 10
0.0
 20
0.0
 30
0.0
  9
$PLIMCHECK
 70
     0
  9
$PEXTMIN
 10
0.0
 20
0.0
 30
0.0
  9
$PEXTMAX
 10
0.0
 20
0.0
 30
0.0
  9
$PLIMMIN
 10
0.0
 20
0.0
  9
$PLIMMAX
 10
12.0
 20
9.0
  9
$UNITMODE
 70
     0
  9
$VISRETAIN
 70
     1
  9
$PLINEGEN
 70
     0
  9
$PSLTSCALE
 70
     1
  9
$TREEDEPTH
 70
  3020
  9
$CMLSTYLE
  2
Standard
  9
$CMLJUST
 70
     0
  9
$CMLSCALE
 40
1.0
  9
$PROXYGRAPHICS
 70
     1
  9
$MEASUREMENT
 70
     0
  9
$CELWEIGHT
370
    -1
  9
$ENDCAPS
280
     0
  9
$JOINSTYLE
280
     0
  9
$LWDISPLAY
290
     0
  9
$INSUNITS
 70
     1
  9
$HYPERLINKBASE
  1

  9
$STYLESHEET
  1

  9
$XEDIT
290
     1
  9
$CEPSNTYPE
380
     0
  9
$PSTYLEMODE
290
     1
  9
$FINGERPRINTGUID
  2
{F9D0464E-1523-4350-84E1-453D95B35FA7}
  9
$VERSIONGUID
  2
{36BB6BAD-330D-4789-A89C-F5797B65AA15}
  9
$EXTNAMES
290
     1
  9
$PSVPSCALE
 40
0.0
  9
$OLESTARTUP
290
     0
  0
ENDSEC
  0
SECTION
  2
CLASSES
  0
CLASS
  1
ACDBDICTIONARYWDFLT
  2
AcDbDictionaryWithDefault
  3
ObjectDBX Classes
 90
        0
280
     0
281
     0
  0
CLASS
  1
ACDBPLACEHOLDER
  2
AcDbPlaceHolder
  3
ObjectDBX Classes
 90
        0
280
     0
281
     0
  0
CLASS
  1
LAYOUT
  2
AcDbLayout
  3
ObjectDBX Classes
 90
        0
280
     0
281
     0
  0
CLASS
  1
DICTIONARYVAR
  2
AcDbDictionaryVar
  3
ObjectDBX Classes
 90
        0
280
     0
281
     0
  0
CLASS
  1
TABLESTYLE
  2
AcDbTableStyle
  3
ObjectDBX Classes
 90
     4095
280
     0
281
     0
  0
CLASS
  1
MATERIAL
  2
AcDbMaterial
  3
ObjectDBX Classes
 90
     1153
280
     0
281
     0
  0
CLASS
  1
VISUALSTYLE
  2
AcDbVisualStyle
  3
ObjectDBX Classes
 90
     4095
280
     0
281
     0
  0
CLASS
  1
SCALE
  2
AcDbScale
  3
ObjectDBX Classes
 90
     1153
280
     0
281
     0
  0
CLASS
  1
MLEADERSTYLE
  2
AcDbMLeaderStyle
  3
ACDB_MLEADERSTYLE_CLASS
 90
     4095
280
     0
281
     0
  0
CLASS
  1
CELLSTYLEMAP
  2
AcDbCellStyleMap
  3
ObjectDBX Classes
 90
     1152
280
     0
281
     0
  0
CLASS
  1
EXACXREFPANELOBJECT
  2
ExAcXREFPanelObject
  3
EXAC_ESW
 90
    33793
280
     0
281
     0
  0
CLASS
  1
NPOCOLLECTION
  2
AcDbImpNonPersistentObjectsCollection
  3
ObjectDBX Classes
 90
     1153
280
     0
281
     0
  0
CLASS
  1
LAYER_INDEX
  2
AcDbLayerIndex
  3
ObjectDBX Classes
 90
    32768
280
     0
281
     0
  0
CLASS
  1
SPATIAL_INDEX
  2
AcDbSpatialIndex
  3
ObjectDBX Classes
 90
    32768
280
     0
281
     0
  0
CLASS
  1
IDBUFFER
  2
AcDbIdBuffer
  3
ObjectDBX Classes
 90
    32768
280
     0
281
     0
  0
CLASS
  1
ACSH_REVOLVE_CLASS
  2
AcDbShRevolve
  3
ObjectDBX Classes
 90
    33921
280
     0
281
     0
  0
CLASS
  1
ACAD_EVALUATION_GRAPH
  2
AcDbEvalGraph
  3
ObjectDBX Classes
 90
    33921
280
     0
281
     0
  0
CLASS
  1
ACSH_HISTORY_CLASS
  2
AcDbShHistory
  3
ObjectDBX Classes
 90
    33921
280
     0
281
     0
  0
CLASS
  1
ACSH_EXTRUSION_CLASS
  2
AcDbShExtrusion
  3
ObjectDBX Classes
 90
    33921
280
     0
281
     0
  0
CLASS
  1
SOLID_BACKGROUND
  2
AcDbSolidBackground
  3
SCENEOE
 90
     4095
280
     0
281
     0
  0
CLASS
  1
ACDBASSOCPERSSUBENTMANAGER
  2
AcDbAssocPersSubentManager
  3
ObjectDBX Classes
 90
     1024
280
     0
281
     0
  0
CLASS
  1
ACDBPERSSUBENTMANAGER
  2
AcDbPersSubentManager
  3
AcDbPersSubentManager
 90
     1024
280
     0
281
     0
  0
CLASS
  1
ACSH_BOOLEAN_CLASS
  2
AcDbShBoolean
  3
ObjectDBX Classes
 90
    33921
280
     0
281
     0
  0
CLASS
  1
DIMASSOC
  2
AcDbDimAssoc
  3
"AcDbDimAssoc|Product Desc:     AcDim ARX App For Dimension|Company:          Autodesk, Inc.|WEB Address:      www.autodesk.com"
 90
    32768
280
     0
281
     0
  0
CLASS
  1
RASTERVARIABLES
  2
AcDbRasterVariables
  3
ISM
 90
        0
280
     0
281
     0
  0
CLASS
  1
IMAGEDEF
  2
AcDbRasterImageDef
  3
ISM
 90
        0
280
     0
281
     0
  0
CLASS
  1
IMAGEDEF_REACTOR
  2
AcDbRasterImageDefReactor
  3
ISM
 90
    32769
280
     0
281
     0
  0
CLASS
  1
IMAGE
  2
AcDbRasterImage
  3
ISM
 90
    34943
280
     0
281
     1
  0
CLASS
  1
SORTENTSTABLE
  2
AcDbSortentsTable
  3
ObjectDBX Classes
 90
        0
280
     0
281
     0
  0
ENDSEC
  0
SECTION
  2
TABLES
  0
TABLE
  2
VPORT
  5
8
330
0
100
AcDbSymbolTable
 70
     1
  0
VPORT
  5
94
330
8
100
AcDbSymbolTableRecord
100
AcDbViewportTableRecord
  2
*Active
 70
     0
 10
0.0
 20
0.0
 11
1.0
 21
1.0
 12
-7.792038250575615
 22
0.5438597560797796
 13
0.0
 23
0.0
 14
0.5
 24
0.5
 15
0.5
 25
0.5
 16
0.0
 26
-1.0
 36
0.0
 17
9.592134631259591
 27
10.51328167606121
 37
20.71478791553179
 40
57.16042625629756
 41
2.132516703786191
 42
50.0
 43
0.0
 44
0.0
 50
0.0
 51
0.0
 71
     0
 72
  1000
 73
     1
 74
     3
 75
     0
 76
     0
 77
     0
 78
     0
281
     0
 65
     1
110
0.0
120
0.0
130
0.0
111
1.0
121
0.0
131
0.0
112
0.0
122
0.0
132
1.0
 79
     0
146
0.0
1001
ACAD_NAV_VCDISPLAY
1070
     3
  0
ENDTAB
  0
TABLE
  2
LTYPE
  5
5
330
0
100
AcDbSymbolTable
 70
     1
  0
LTYPE
  5
14
330
5
100
AcDbSymbolTableRecord
100
AcDbLinetypeTableRecord
  2
ByBlock
 70
     0
  3

 72
    65
 73
     0
 40
0.0
  0
LTYPE
  5
15
330
5
100
AcDbSymbolTableRecord
100
AcDbLinetypeTableRecord
  2
ByLayer
 70
     0
  3

 72
    65
 73
     0
 40
0.0
  0
LTYPE
  5
16
330
5
100
AcDbSymbolTableRecord
100
AcDbLinetypeTableRecord
  2
Continuous
 70
     0
  3
Solid line
 72
    65
 73
     0
 40
0.0
  0
ENDTAB
  0
TABLE
  2
LAYER
  5
2
330
0
100
AcDbSymbolTable
 70
     3
  0
LAYER
  5
10
102
{ACAD_XDICTIONARY
360
E6
102
}
330
2
100
AcDbSymbolTableRecord
100
AcDbLayerTableRecord
  2
0
 70
     0
 62
     7
  6
Continuous
370
    -3
390
F
  0
LAYER
  5
1C1
330
2
100
AcDbSymbolTableRecord
100
AcDbLayerTableRecord
  2
Defpoints
 70
     0
 62
     7
  6
Continuous
290
     0
370
    -3
390
F
  0
LAYER
  5
33E
330
2
100
AcDbSymbolTableRecord
100
AcDbLayerTableRecord
  2
Layer1
 70
     0
 62
    10
  6
Continuous
370
    -3
390
F
1001
AcAecLayerStandard
1000

1000

1001
AcCmTransparency
1071
        0
  0
ENDTAB
  0
TABLE
  2
STYLE
  5
3
330
0
100
AcDbSymbolTable
 70
     2
  0
STYLE
  5
11
330
3
100
AcDbSymbolTableRecord
100
AcDbTextStyleTableRecord
  2
Standard
 70
     0
 40
0.0
 41
1.0
 50
0.0
 71
     0
 42
0.2
  3
ARIAL.TTF
  4

1001
ACAD
1000
Arial
1071
       34
  0
STYLE
  5
DC
330
3
100
AcDbSymbolTableRecord
100
AcDbTextStyleTableRecord
  2
Annotative
 70
     0
 40
0.0
 41
1.0
 50
0.0
 71
     0
 42
0.2
  3
ARIAL.TTF
  4

1001
AcadAnnotative
1000
AnnotativeData
1002
{
1070
     1
1070
     1
1002
}
1001
ACAD
1000
Arial
1071
       34
  0
ENDTAB
  0
TABLE
  2
VIEW
  5
6
330
0
100
AcDbSymbolTable
 70
     0
  0
ENDTAB
  0
TABLE
  2
UCS
  5
7
330
0
100
AcDbSymbolTable
 70
     0
  0
ENDTAB
  0
TABLE
  2
APPID
  5
9
330
0
100
AcDbSymbolTable
 70
    11
  0
APPID
  5
12
330
9
100
AcDbSymbolTableRecord
100
AcDbRegAppTableRecord
  2
ACAD
 70
     0
  0
APPID
  5
DD
330
9
100
AcDbSymbolTableRecord
100
AcDbRegAppTableRecord
  2
AcadAnnoPO
 70
     0
  0
APPID
  5
DE
330
9
100
AcDbSymbolTableRecord
100
AcDbRegAppTableRecord
  2
AcadAnnotative
 70
     0
  0
APPID
  5
DF
330
9
100
AcDbSymbolTableRecord
100
AcDbRegAppTableRecord
  2
ACAD_DSTYLE_DIMJAG
 70
     0
  0
APPID
  5
E0
330
9
100
AcDbSymbolTableRecord
100
AcDbRegAppTableRecord
  2
ACAD_DSTYLE_DIMTALN
 70
     0
  0
APPID
  5
107
330
9
100
AcDbSymbolTableRecord
100
AcDbRegAppTableRecord
  2
ACAD_MLEADERVER
 70
     0
  0
APPID
  5
189
330
9
100
AcDbSymbolTableRecord
100
AcDbRegAppTableRecord
  2
ACAD_DSTYLE_DIMBREAK
 70
     0
  0
APPID
  5
196
330
9
100
AcDbSymbolTableRecord
100
AcDbRegAppTableRecord
  2
ACAD_EXEMPT_FROM_CAD_STANDARDS
 70
     0
  0
APPID
  5
33F
330
9
100
AcDbSymbolTableRecord
100
AcDbRegAppTableRecord
  2
AcAecLayerStandard
 70
     0
  0
APPID
  5
340
330
9
100
AcDbSymbolTableRecord
100
AcDbRegAppTableRecord
  2
AcCmTransparency
 70
     0
  0
APPID
  5
3A1
330
9
100
AcDbSymbolTableRecord
100
AcDbRegAppTableRecord
  2
ACAD_NAV_VCDISPLAY
 70
     0
  0
ENDTAB
  0
TABLE
  2
DIMSTYLE
  5
A
330
0
100
AcDbSymbolTable
 70
     3
100
AcDbDimStyleTable
 71
     3
340
18A
340
27
340
E1
  0
DIMSTYLE
105
27
330
A
100
AcDbSymbolTableRecord
100
AcDbDimStyleTableRecord
  2
Standard
 70
     0
340
11
  0
DIMSTYLE
105
E1
330
A
100
AcDbSymbolTableRecord
100
AcDbDimStyleTableRecord
  2
Annotative
 70
     0
 40
0.0
340
11
1001
AcadAnnotative
1000
AnnotativeData
1002
{
1070
     1
1070
     1
1002
}
1001
ACAD_DSTYLE_DIMJAG
1070
   388
1040
1.5
1001
ACAD_DSTYLE_DIMTALN
1070
   392
1070
     0
  0
DIMSTYLE
105
18A
330
A
100
AcDbSymbolTableRecord
100
AcDbDimStyleTableRecord
  2
New OWP
 70
     0
 41
0.5
 42
0.25
 44
0.25
 45
0.0625
140
0.7
141
0.0
276
     1
277
     5
340
11
1001
ACAD_DSTYLE_DIMBREAK
1070
   391
1040
0.125
1001
ACAD_DSTYLE_DIMJAG
1070
   388
1040
1.5
1001
ACAD_DSTYLE_DIMTALN
1070
   392
1070
     0
  0
ENDTAB
  0
TABLE
  2
BLOCK_RECORD
  5
1
330
0
100
AcDbSymbolTable
 70
     9
  0
BLOCK_RECORD
  5
1F
102
{ACAD_XDICTIONARY
360
15D
102
}
330
1
100
AcDbSymbolTableRecord
100
AcDbBlockTableRecord
  2
*Model_Space
340
22
  0
BLOCK_RECORD
  5
58
330
1
100
AcDbSymbolTableRecord
100
AcDbBlockTableRecord
  2
*Paper_Space
340
59
  0
BLOCK_RECORD
  5
5D
330
1
100
AcDbSymbolTableRecord
100
AcDbBlockTableRecord
  2
*Paper_Space0
340
5E
  0
BLOCK_RECORD
  5
2B9
330
1
100
AcDbSymbolTableRecord
100
AcDbBlockTableRecord
  2
_None
340
0
  0
BLOCK_RECORD
  5
301
330
1
100
AcDbSymbolTableRecord
100
AcDbBlockTableRecord
  2
_Open
340
0
  0
BLOCK_RECORD
  5
31B
330
1
100
AcDbSymbolTableRecord
100
AcDbBlockTableRecord
  2
_Open90
340
0
  0
BLOCK_RECORD
  5
5E2
330
1
100
AcDbSymbolTableRecord
100
AcDbBlockTableRecord
  2
*D4
340
0
  0
BLOCK_RECORD
  5
5FC
330
1
100
AcDbSymbolTableRecord
100
AcDbBlockTableRecord
  2
*D5
340
0
  0
BLOCK_RECORD
  5
616
330
1
100
AcDbSymbolTableRecord
100
AcDbBlockTableRecord
  2
*D6
340
0
  0
BLOCK_RECORD
  5
630
330
1
100
AcDbSymbolTableRecord
100
AcDbBlockTableRecord
  2
*D7
340
0
  0
BLOCK_RECORD
  5
63E
330
1
100
AcDbSymbolTableRecord
100
AcDbBlockTableRecord
  2
*D8
340
0
  0
ENDTAB
  0
ENDSEC
  0
SECTION
  2
BLOCKS
  0
BLOCK
  5
20
330
1F
100
AcDbEntity
  8
0
100
AcDbBlockBegin
  2
*Model_Space
 70
     0
 10
0.0
 20
0.0
 30
0.0
  3
*Model_Space
  1

  0
ENDBLK
  5
21
330
1F
100
AcDbEntity
  8
0
100
AcDbBlockEnd
  0
BLOCK
  5
5A
330
58
100
AcDbEntity
 67
     1
  8
0
100
AcDbBlockBegin
  2
*Paper_Space
 70
     0
 10
0.0
 20
0.0
 30
0.0
  3
*Paper_Space
  1

  0
ENDBLK
  5
5B
330
58
100
AcDbEntity
 67
     1
  8
0
100
AcDbBlockEnd
  0
BLOCK
  5
5F
330
5D
100
AcDbEntity
 67
     1
  8
0
100
AcDbBlockBegin
  2
*Paper_Space0
 70
     0
 10
0.0
 20
0.0
 30
0.0
  3
*Paper_Space0
  1

  0
ENDBLK
  5
60
330
5D
100
AcDbEntity
 67
     1
  8
0
100
AcDbBlockEnd
  0
BLOCK
  5
2BA
330
2B9
100
AcDbEntity
  8
0
100
AcDbBlockBegin
  2
_None
 70
     0
 10
0.0
 20
0.0
 30
0.0
  3
_None
  1

  0
ENDBLK
  5
2BB
330
2B9
100
AcDbEntity
  8
0
100
AcDbBlockEnd
  0
BLOCK
  5
305
330
301
100
AcDbEntity
  8
0
100
AcDbBlockBegin
  2
_Open
 70
     0
 10
0.0
 20
0.0
 30
0.0
  3
_Open
  1

  0
LINE
  5
302
330
301
100
AcDbEntity
  8
0
  6
ByBlock
 62
     0
370
    -2
100
AcDbLine
 10
-1.0
 20
0.1666666666666666
 30
0.0
 11
0.0
 21
0.0
 31
0.0
  0
LINE
  5
303
330
301
100
AcDbEntity
  8
0
  6
ByBlock
 62
     0
370
    -2
100
AcDbLine
 10
-1.0
 20
-0.1666666666666666
 30
0.0
 11
0.0
 21
0.0
 31
0.0
  0
LINE
  5
304
330
301
100
AcDbEntity
  8
0
  6
ByBlock
 62
     0
370
    -2
100
AcDbLine
 10
0.0
 20
0.0
 30
0.0
 11
-1.0
 21
0.0
 31
0.0
  0
ENDBLK
  5
306
330
301
100
AcDbEntity
  8
0
100
AcDbBlockEnd
  0
BLOCK
  5
31F
330
31B
100
AcDbEntity
  8
0
100
AcDbBlockBegin
  2
_Open90
 70
     0
 10
0.0
 20
0.0
 30
0.0
  3
_Open90
  1

  0
LINE
  5
31C
330
31B
100
AcDbEntity
  8
0
  6
ByBlock
 62
     0
370
    -2
100
AcDbLine
 10
-0.5
 20
0.5
 30
0.0
 11
0.0
 21
0.0
 31
0.0
  0
LINE
  5
31D
330
31B
100
AcDbEntity
  8
0
  6
ByBlock
 62
     0
370
    -2
100
AcDbLine
 10
0.0
 20
0.0
 30
0.0
 11
-0.5
 21
-0.5
 31
0.0
  0
LINE
  5
31E
330
31B
100
AcDbEntity
  8
0
  6
ByBlock
 62
     0
370
    -2
100
AcDbLine
 10
0.0
 20
0.0
 30
0.0
 11
-1.0
 21
0.0
 31
0.0
  0
ENDBLK
  5
320
330
31B
100
AcDbEntity
  8
0
100
AcDbBlockEnd
  0
BLOCK
  5
5E3
330
5E2
100
AcDbEntity
  8
0
100
AcDbBlockBegin
  2
*D4
 70
     1
 10
0.0
 20
0.0
 30
0.0
  3
*D4
  1

  0
LINE
  5
5F0
330
5E2
100
AcDbEntity
  8
0
 62
     0
370
    -2
100
AcDbLine
 10
16.05886113351961
 20
93.17067109236472
 30
0.0
 11
16.05886113351961
 21
94.30206501374495
 31
0.0
  0
LINE
  5
5F1
330
5E2
100
AcDbEntity
  8
0
 62
     0
370
    -2
100
AcDbLine
 10
19.55886113351965
 20
93.17067109236472
 30
0.0
 11
19.55886113351965
 21
94.30206501374495
 31
0.0
  0
LINE
  5
5F2
330
5E2
100
AcDbEntity
  8
0
 62
     0
370
    -2
100
AcDbLine
 10
16.55886113351962
 20
94.05206501374495
 30
0.0
 11
16.99005258417903
 21
94.05206501374495
 31
0.0
  0
LINE
  5
5F3
330
5E2
100
AcDbEntity
  8
0
 62
     0
370
    -2
100
AcDbLine
 10
19.05886113351965
 20
94.05206501374495
 30
0.0
 11
18.62766968286025
 21
94.05206501374495
 31
0.0
  0
SOLID
  5
5F4
330
5E2
100
AcDbEntity
  8
0
 62
     0
100
AcDbTrace
 10
16.55886113351962
 20
94.13539834707831
 30
0.0
 11
16.55886113351962
 21
93.96873168041166
 31
0.0
 12
16.05886113351961
 22
94.05206501374495
 32
0.0
 13
16.05886113351961
 23
94.05206501374495
 33
0.0
  0
SOLID
  5
5F5
330
5E2
100
AcDbEntity
  8
0
 62
     0
100
AcDbTrace
 10
19.05886113351965
 20
94.13539834707831
 30
0.0
 11
19.05886113351965
 21
93.96873168041166
 31
0.0
 12
19.55886113351965
 22
94.05206501374495
 32
0.0
 13
19.55886113351965
 23
94.05206501374495
 33
0.0
  0
MTEXT
  5
5F6
102
{ACAD_XDICTIONARY
360
73B
102
}
330
5E2
100
AcDbEntity
  8
0
 62
     0
100
AcDbMText
 10
17.80886113351964
 20
94.05206501374495
 30
0.0
 40
0.7
 41
0.0
 71
     5
 72
     1
  1
\A1;3\S1/2;
 73
     1
 44
1.0
1001
ACAD
1000
MTEXTBEGIN
1070
    73
1070
     1
1070
    44
1040
1.0
1070
    74
1070
     0
1000
MTEXTEND
  0
POINT
  5
5F7
330
5E2
100
AcDbEntity
  8
Defpoints
 62
     0
100
AcDbPoint
 10
16.05886113351961
 20
92.92067109236469
 30
3.5
  0
POINT
  5
5F8
330
5E2
100
AcDbEntity
  8
Defpoints
 62
     0
100
AcDbPoint
 10
19.55886113351965
 20
92.92067109236469
 30
0.0
  0
POINT
  5
5F9
330
5E2
100
AcDbEntity
  8
Defpoints
 62
     0
100
AcDbPoint
 10
19.55886113351965
 20
94.05206501374495
 30
0.0
  0
ENDBLK
  5
5E4
330
5E2
100
AcDbEntity
  8
0
100
AcDbBlockEnd
  0
BLOCK
  5
5FD
330
5FC
100
AcDbEntity
  8
0
100
AcDbBlockBegin
  2
*D5
 70
     1
 10
0.0
 20
0.0
 30
0.0
  3
*D5
  1

  0
LINE
  5
60A
330
5FC
100
AcDbEntity
  8
0
 62
     0
370
    -2
100
AcDbLine
 10
19.80886113351965
 20
92.92067109236469
 30
0.0
 11
21.26174264939366
 21
92.92067109236469
 31
0.0
  0
LINE
  5
60B
330
5FC
100
AcDbEntity
  8
0
 62
     0
370
    -2
100
AcDbLine
 10
19.80886113351965
 20
81.42067109236469
 30
0.0
 11
21.26174264939365
 21
81.42067109236469
 31
0.0
  0
LINE
  5
60C
330
5FC
100
AcDbEntity
  8
0
 62
     0
370
    -2
100
AcDbLine
 10
21.01174264939366
 20
92.42067109236471
 30
0.0
 11
21.01174264939365
 21
87.96353603097314
 31
0.0
  0
LINE
  5
60D
330
5FC
100
AcDbEntity
  8
0
 62
     0
370
    -2
100
AcDbLine
 10
21.01174264939365
 20
81.92067109236468
 30
0.0
 11
21.01174264939365
 21
86.37780615375623
 31
0.0
  0
SOLID
  5
60E
330
5FC
100
AcDbEntity
  8
0
 62
     0
100
AcDbTrace
 10
20.92840931606033
 20
92.42067109236471
 30
0.0
 11
21.09507598272699
 21
92.42067109236471
 31
0.0
 12
21.01174264939366
 22
92.92067109236469
 32
0.0
 13
21.01174264939366
 23
92.92067109236469
 33
0.0
  0
SOLID
  5
60F
330
5FC
100
AcDbEntity
  8
0
 62
     0
100
AcDbTrace
 10
20.92840931606032
 20
81.92067109236468
 30
0.0
 11
21.09507598272699
 21
81.92067109236468
 31
0.0
 12
21.01174264939365
 22
81.42067109236469
 32
0.0
 13
21.01174264939365
 23
81.42067109236469
 33
0.0
  0
MTEXT
  5
610
102
{ACAD_XDICTIONARY
360
73D
102
}
330
5FC
100
AcDbEntity
  8
0
 62
     0
100
AcDbMText
 10
21.01174264939364
 20
87.17067109236472
 30
0.0
 40
0.7
 41
0.0
 71
     5
 72
     1
  1
\A1;11\S1/2;
 73
     1
 44
1.0
1001
ACAD
1000
MTEXTBEGIN
1070
    73
1070
     1
1070
    44
1040
1.0
1070
    74
1070
     0
1000
MTEXTEND
  0
POINT
  5
611
330
5FC
100
AcDbEntity
  8
Defpoints
 62
     0
100
AcDbPoint
 10
19.55886113351965
 20
92.92067109236469
 30
0.0
  0
POINT
  5
612
330
5FC
100
AcDbEntity
  8
Defpoints
 62
     0
100
AcDbPoint
 10
19.55886113351965
 20
81.42067109236469
 30
3.5
  0
POINT
  5
613
330
5FC
100
AcDbEntity
  8
Defpoints
 62
     0
100
AcDbPoint
 10
21.01174264939365
 20
81.42067109236469
 30
0.0
  0
ENDBLK
  5
5FE
330
5FC
100
AcDbEntity
  8
0
100
AcDbBlockEnd
  0
BLOCK
  5
617
330
616
100
AcDbEntity
  8
0
100
AcDbBlockBegin
  2
*D6
 70
     1
 10
0.0
 20
0.0
 30
0.0
  3
*D6
  1

  0
LINE
  5
624
330
616
100
AcDbEntity
  8
0
 62
     0
370
    -2
100
AcDbLine
 10
19.80886113351965
 20
81.42067109236469
 30
0.0
 11
21.26174264939365
 21
81.42067109236469
 31
0.0
  0
LINE
  5
625
330
616
100
AcDbEntity
  8
0
 62
     0
370
    -2
100
AcDbLine
 10
18.98344245264843
 20
58.42067109236467
 30
0.0
 11
21.26174264939365
 21
58.42067109236467
 31
0.0
  0
LINE
  5
626
330
616
100
AcDbEntity
  8
0
 62
     0
370
    -2
100
AcDbLine
 10
21.01174264939365
 20
80.92067109236468
 30
0.0
 11
21.01174264939365
 21
70.36831092865391
 31
0.0
  0
LINE
  5
627
330
616
100
AcDbEntity
  8
0
 62
     0
370
    -2
100
AcDbLine
 10
21.01174264939365
 20
58.92067109236467
 30
0.0
 11
21.01174264939365
 21
69.47303125607546
 31
0.0
  0
SOLID
  5
628
330
616
100
AcDbEntity
  8
0
 62
     0
100
AcDbTrace
 10
20.92840931606032
 20
80.92067109236468
 30
0.0
 11
21.09507598272699
 21
80.92067109236468
 31
0.0
 12
21.01174264939365
 22
81.42067109236469
 32
0.0
 13
21.01174264939365
 23
81.42067109236469
 33
0.0
  0
SOLID
  5
629
330
616
100
AcDbEntity
  8
0
 62
     0
100
AcDbTrace
 10
20.92840931606032
 20
58.92067109236467
 30
0.0
 11
21.09507598272698
 21
58.92067109236467
 31
0.0
 12
21.01174264939365
 22
58.42067109236467
 32
0.0
 13
21.01174264939365
 23
58.42067109236467
 33
0.0
  0
MTEXT
  5
62A
330
616
100
AcDbEntity
  8
0
 62
     0
100
AcDbMText
 10
21.01174264939364
 20
69.92067109236469
 30
0.0
 40
0.7
 41
0.0
 71
     5
 72
     1
  1
\A1;23
 73
     1
 44
1.0
1001
ACAD
1000
MTEXTBEGIN
1070
    73
1070
     1
1070
    44
1040
1.0
1070
    74
1070
     0
1000
MTEXTEND
  0
POINT
  5
62B
330
616
100
AcDbEntity
  8
Defpoints
 62
     0
100
AcDbPoint
 10
19.55886113351965
 20
81.42067109236469
 30
3.5
  0
POINT
  5
62C
330
616
100
AcDbEntity
  8
Defpoints
 62
     0
100
AcDbPoint
 10
18.73344245264843
 20
58.42067109236467
 30
1.75
  0
POINT
  5
62D
330
616
100
AcDbEntity
  8
Defpoints
 62
     0
100
AcDbPoint
 10
21.01174264939365
 20
58.42067109236467
 30
0.0
  0
ENDBLK
  5
618
330
616
100
AcDbEntity
  8
0
100
AcDbBlockEnd
  0
BLOCK
  5
631
330
630
100
AcDbEntity
  8
0
100
AcDbBlockBegin
  2
*D7
 70
     1
 10
0.0
 20
0.0
 30
0.0
  3
*D7
  1

  0
LINE
  5
633
330
630
100
AcDbEntity
  8
0
 62
     0
370
    -2
100
AcDbLine
 10
21.26174264939365
 20
58.42067109236467
 30
0.0
 11
23.01773046064568
 21
58.42067109236467
 31
0.0
  0
LINE
  5
634
330
630
100
AcDbEntity
  8
0
 62
     0
370
    -2
100
AcDbLine
 10
21.26174264939365
 20
92.92067109236471
 30
0.0
 11
23.01773046064568
 21
92.92067109236471
 31
0.0
  0
LINE
  5
635
330
630
100
AcDbEntity
  8
0
 62
     0
370
    -2
100
AcDbLine
 10
22.76773046064567
 20
58.92067109236467
 30
0.0
 11
22.76773046064568
 21
74.87159878677123
 31
0.0
  0
LINE
  5
636
330
630
100
AcDbEntity
  8
0
 62
     0
370
    -2
100
AcDbLine
 10
22.76773046064568
 20
92.42067109236471
 30
0.0
 11
22.76773046064568
 21
76.46974339795815
 31
0.0
  0
SOLID
  5
637
330
630
100
AcDbEntity
  8
0
 62
     0
100
AcDbTrace
 10
22.68439712731234
 20
58.92067109236467
 30
0.0
 11
22.851063793979
 21
58.92067109236467
 31
0.0
 12
22.76773046064567
 22
58.42067109236467
 32
0.0
 13
22.76773046064567
 23
58.42067109236467
 33
0.0
  0
SOLID
  5
638
330
630
100
AcDbEntity
  8
0
 62
     0
100
AcDbTrace
 10
22.68439712731235
 20
92.42067109236471
 30
0.0
 11
22.85106379397901
 21
92.42067109236471
 31
0.0
 12
22.76773046064568
 22
92.92067109236471
 32
0.0
 13
22.76773046064568
 23
92.92067109236471
 33
0.0
  0
MTEXT
  5
639
102
{ACAD_XDICTIONARY
360
73F
102
}
330
630
100
AcDbEntity
  8
0
 62
     0
100
AcDbMText
 10
22.76773046064566
 20
75.6706710923647
 30
0.0
 40
0.7
 41
0.0
 71
     5
 72
     1
  1
\A1;34\S1/2;
 73
     1
 44
1.0
1001
ACAD
1000
MTEXTBEGIN
1070
    73
1070
     1
1070
    44
1040
1.0
1070
    74
1070
     0
1000
MTEXTEND
  0
POINT
  5
63A
330
630
100
AcDbEntity
  8
Defpoints
 62
     0
100
AcDbPoint
 10
21.01174264939365
 20
58.42067109236467
 30
0.0
  0
POINT
  5
63B
330
630
100
AcDbEntity
  8
Defpoints
 62
     0
100
AcDbPoint
 10
21.01174264939365
 20
92.92067109236471
 30
0.0
  0
POINT
  5
63C
330
630
100
AcDbEntity
  8
Defpoints
 62
     0
100
AcDbPoint
 10
22.76773046064568
 20
92.92067109236471
 30
0.0
  0
ENDBLK
  5
632
330
630
100
AcDbEntity
  8
0
100
AcDbBlockEnd
  0
BLOCK
  5
63F
330
63E
100
AcDbEntity
  8
0
100
AcDbBlockBegin
  2
*D8
 70
     1
 10
0.0
 20
0.0
 30
0.0
  3
*D8
  1

  0
LINE
  5
64C
330
63E
100
AcDbEntity
  8
0
 62
     0
370
    -2
100
AcDbLine
 10
16.88427981439082
 20
58.17067109236468
 30
0.0
 11
16.88427981439082
 21
56.7497439747503
 31
0.0
  0
LINE
  5
64D
330
63E
100
AcDbEntity
  8
0
 62
     0
370
    -2
100
AcDbLine
 10
18.73344245264843
 20
58.17067109236468
 30
0.0
 11
18.73344245264843
 21
56.7497439747503
 31
0.0
  0
LINE
  5
64E
330
63E
100
AcDbEntity
  8
0
 62
     0
370
    -2
100
AcDbLine
 10
16.38427981439082
 20
56.9997439747503
 30
0.0
 11
15.88427981439082
 21
56.9997439747503
 31
0.0
  0
LINE
  5
64F
330
63E
100
AcDbEntity
  8
0
 62
     0
370
    -2
100
AcDbLine
 10
19.23344245264843
 20
56.9997439747503
 30
0.0
 11
19.73344245264843
 21
56.9997439747503
 31
0.0
  0
SOLID
  5
650
330
63E
100
AcDbEntity
  8
0
 62
     0
100
AcDbTrace
 10
16.38427981439082
 20
57.08307730808364
 30
0.0
 11
16.38427981439082
 21
56.91641064141697
 31
0.0
 12
16.88427981439082
 22
56.9997439747503
 32
0.0
 13
16.88427981439082
 23
56.9997439747503
 33
0.0
  0
SOLID
  5
651
330
63E
100
AcDbEntity
  8
0
 62
     0
100
AcDbTrace
 10
19.23344245264843
 20
57.08307730808364
 30
0.0
 11
19.23344245264843
 21
56.91641064141697
 31
0.0
 12
18.73344245264843
 22
56.9997439747503
 32
0.0
 13
18.73344245264843
 23
56.9997439747503
 33
0.0
  0
MTEXT
  5
652
102
{ACAD_XDICTIONARY
360
741
102
}
330
63E
100
AcDbEntity
  8
0
 62
     0
100
AcDbMText
 10
17.80886113351963
 20
56.9997439747503
 30
0.0
 40
0.7
 41
0.0
 71
     5
 72
     1
  1
\A1;1\S7/8;
 73
     1
 44
1.0
1001
ACAD
1000
MTEXTBEGIN
1070
    73
1070
     1
1070
    44
1040
1.0
1070
    74
1070
     0
1000
MTEXTEND
  0
POINT
  5
653
330
63E
100
AcDbEntity
  8
Defpoints
 62
     0
100
AcDbPoint
 10
16.88427981439082
 20
58.42067109236467
 30
1.749999999999999
  0
POINT
  5
654
330
63E
100
AcDbEntity
  8
Defpoints
 62
     0
100
AcDbPoint
 10
18.73344245264843
 20
58.42067109236467
 30
1.75
  0
POINT
  5
655
330
63E
100
AcDbEntity
  8
Defpoints
 62
     0
100
AcDbPoint
 10
18.73344245264843
 20
56.9997439747503
 30
0.0
  0
ENDBLK
  5
640
330
63E
100
AcDbEntity
  8
0
100
AcDbBlockEnd
  0
ENDSEC
  0
SECTION
  2
ENTITIES
  0
3DSOLID
  5
5DB
330
1F
100
AcDbEntity
  8
0
100
AcDbModelerGeometry
 70
     1
  1
koo kki n o         
  1
ni ^ *+0;:,4 ^ *+0\^ [ nf ^ LR mnhqoqoqkjol QK o  
  1
mjqlffffffffffffff fqfffffffffffffffj:rooh n:rono 
  1
=0;& {n {m {rn {rn |
  1
-:9@)+r:&:r>++-6= {rn {rn {rn {o {l {k |
  1
3*2/ {j {rn {i {o |
  1
:&:@-:961:2:1+ {rn j 8-6;  n l +-6 n k ,*-9 o l >;5 o k 8->; o f /0,+<7:<4 o k ,+03 oqonhkmiilmlkkhmmhkg k 1+03 lo k ;,63 o g 93>+1:,, o h /6'>-:> o k 72>' o i 8-6;>- o j 28-6; looo j *8-6; o j )8-6; o no :1;@96:3;, |
  1
):-+:'@+:2/3>+: {rn l o n g |
  1
-:9@)+r:&:r>++-6= {rn {rn {rn {m {l {k |
  1
,7:33 {h {rn {rn {g {rn {m |
  1
-:9@)+r:&:r>++-6= {rn {rn {rn {i {l {k |
  1
9><: {f {no {nn {i {rn {nm 90-(>-; ,6183: |
  1
/:-,*=:1+r><>;L036;W6,+0-&r>++-6= {rn {rn {rn {g m l m o k ng o |
  1
9><: {nl {nk {nj {i {rn {ni 90-(>-; ,6183: |
  1
300/ {rn {rn {nh {g |
  1
/3>1:r,*-9><: {rn roqgmjkngigoghnmojk nqhjoooooooooooomm ljqjoooooooooooooh nqglifhonfghmnomfh:roni iqnmlmllffjhlihii:ronh n o rn iqnmlmllffjhlihii:ronh 90-(>-;@) V V V V |
  1
92:,7r:&:r>++-6= {rn {ng {rn {no |
  1
9><: {nf {mo {mn {i {rn {mm 90-(>-; ,6183: |
  1
300/ {rn {ml {mk {no |
  1
+0-*,r,*-9><: {rn oqfmkjgnlnfnmggonkg lqjojhkohomgliljnf:roni kqgoohmhhllifhnhfi rnqglifhonfghmnomfh:roni riqnmlmllffjhlihii:ronh rn fqijfnohllgkoihknk rgqhklifogigmnkmfmk o n riqnmlmllffjhlihii:ronh 90-(>-;@) V V V V |
  1
<0:;8: {rn {mj {mi {mh {mg -:):-,:; {nn {rn |
  1
-:9@)+r:&:r>++-6= {rn {mf {nl {no {l {k |
  1
92:,7r:&:r>++-6= {rn {lo {rn {nk |
  1
9><: {ln {lm {ll {i {rn {lk 90-(>-; ,6183: |
  1
300/ {rn {lj {li {nk |
  1
+0-*,r,*-9><: {rn oqfmkjgnlnfnmggonkg lqlkoomllnljhkhon:roni kqjloofoifghfjlnmh rnqglifhonfghmnomfh:roni riqnmlmllffjhlihii:ronh rn mqolfknfnmhmjgknml rnqnmoiglhnlfmjffnj o n riqnmlmllffjhlihii:ronh 90-(>-;@) V V V V |
  1
300/ {rn {rn {lh {no |
  1
<0:;8: {rn {mk {mk {lg {lf -:):-,:; {nj {rn |
  1
<0:;8: {rn {ko {nh {kn {km -:):-,:; {nn {rn |
  1
<0:;8: {rn {nh {ko {kl {kk -:):-,:; {nn {rn |
  1
<0:;8: {rn {kj {ki {nh {mg 90-(>-; {kh {rn |
  1
:;8: {rn {kg {kf {mh {jo 90-(>-; |
  1
/:-,*=:1+r><>;L036;W6,+0-&r>++-6= {rn {rn {ng {no n k mg o |
  1
-:9@)+r:&:r>++-6= {rn {jn {nf {nk {l {k |
  1
92:,7r:&:r>++-6= {rn {jm {rn {mo |
  1
9><: {jl {jk {jj {i {rn {ji 90-(>-; ,6183: |
  1
300/ {rn {jh {jg {mo |
  1
<01:r,*-9><: {rn oqfmkjgnlnfnmggonkg mqhhlgolhfnikojihl:roni lqiojlgkokkghfkfmf rnqglifhonfghmnomfh:roni riqnmlmllffjhlihii:ronh rn nqmkokjmfonhllhiof rnqlfjmgiolohmfghnh:rolm rmqmhgihjonlkonfkki:roni n V V o n nqmkokjmfonhllhiof 90-(>-; V V V V |
  1
300/ {rn {rn {lg {nk |
  1
<0:;8: {rn {li {li {jf {io -:):-,:; {mn {rn |
  1
<0:;8: {rn {lh {lh {in {im 90-(>-; {ml {rn |
  1
<0:;8: {rn {lg {lg {mk {lf 90-(>-; {lj {rn |
  1
:;8: {il {ik {ik {lg {ij 90-(>-; |
  1
<0:;8: {rn {mi {mj {ii {ih -:):-,:; {nn {rn |
  1
<0:;8: {rn {ig {if {mj {km 90-(>-; {ho {rn |
  1
:;8: {rn {hn {kg {kn {hm 90-(>-; |
  1
<0:;8: {rn {hl {hk {mi {kk 90-(>-; {hj {rn |
  1
:;8: {rn {kf {hi {kl {hh 90-(>-; |
  1
<0:;8: {rn {hg {mh {hk {hf 90-(>-; {kh {rn |
  1
<0:;8: {rn {mh {hg {ig {go 90-(>-; {kh {rn |
  1
300/ {rn {rn {hg {gn |
  1
):-+:' {rn {go {gm |
  1
):-+:' {rn {hf {gl |
  1
,+->687+r<*-): {rn roqgmjkngigoghnmojk nqhjoooooooooooomm ljqjoooooooooooooh o n riqnmlmllffjhlihii:ronh V V |
  1
/:-,*=:1+r><>;L036;W6,+0-&r>++-6= {rn {rn {lo {nk n k mh o |
  1
-:9@)+r:&:r>++-6= {rn {gk {ln {mo {l {k |
  1
92:,7r:&:r>++-6= {rn {gj {rn {lm |
  1
9><: {gi {gh {gg {i {rn {gf 90-(>-; ,6183: |
  1
300/ {rn {fo {fn {lm |
  1
+0-*,r,*-9><: {rn oqfmkjgnlnfnmggonkg mqjnnhofhlhohnmohk:roni lqnhhljnfhnojhlmig rnqglifhonfghmnomfh:roni riqnmlmllffjhlihii:ronh rn nqngkljnfghmmfoj oqmfkjgmkgoghigjnk o n riqnmlmllffjhlihii:ronh 90-(>-;@) V V V V |
  1
300/ {rn {rn {jf {mo |
  1
<0:;8: {rn {jg {jg {fm {fl -:):-,:; {ll {rn |
  1
<0:;8: {rn {jf {jf {li {io 90-(>-; {jh {rn |
  1
:;8: {fk {fj {fj {jf {fi 90-(>-; |
  1
<0:;8: {rn {in {in {lh {im -:):-,:; {fh {rn |
  1
:;8: {fg {ff {ff {lh {noo 90-(>-; |
  1
/+36,+r:&:r>++-6= {rn {rn {rn {lf |
  1
):-+:' {rn {lf {non |
  1
:336/,:r<*-): {rn oqfmkjgnlnfnmggonkg lqmhhgfgmfgjfmkngj:roni kqkmgilmgkfgkjiimi rnqglifhonfghmnomfh:roni riqnmlmllffjhlihii:ronh rn oqfmlllhkjgkohloll rnqolgjggmgfkjgliif:rolm rnqifinkllfkkjholkj:roni n V V |
  1
<0:;8: {rn {nom {nol {ko {ih 90-(>-; {nok {rn |
  1
:;8: {rn {hi {hn {ii {noj 90-(>-; |
  1
<0:;8: {rn {noi {kn {ki {go -:):-,:; {ho {rn |
  1
<0:;8: {rn {kn {noi {nom {noh -:):-,:; {ho {rn |
  1
300/ {rn {rn {noi {nog |
  1
):-+:' {rn {noh {nof |
  1
,+->687+r<*-): {rn mqihkjgnlnfnmggmff rnqhkffffffffffffhg ljqjoooooooooooooh rn nqnmkgnfgliffilflm:rolm nqglifhonfghmnomfh:roni V V |
  1
<0:;8: {rn {nno {kl {nol {nnn -:):-,:; {hj {rn |
  1
<0:;8: {rn {kl {nno {kj {hf -:):-,:; {hj {rn |
  1
300/ {rn {rn {nno {nnm |
  1
):-+:' {rn {nnn {nnl |
  1
,+->687+r<*-): {rn mqihkjgnlnfnmggmff nqhjoooooooooooomm ljqjoooooooooooooh n rnqnmkgnfgliffilflm:rolm rnqglifhonfghmnomfh:roni V V |
  1
<0:;8: {rn {ki {kj {nnk {nnj -:):-,:; {kh {rn |
  1
:;8: {rn {kf {nni {kj {nnh 90-(>-; |
  1
:;8: {rn {nng {kg {ki {nnf 90-(>-; |
  1
9><: {nmo {nmn {kh {i {rn {nmm 90-(>-; ,6183: |
  1
/061+ {rn roqgmjkngigoghnmojk rnqhkffffffffffffhg ljqjoooooooooooooh |
  1
/061+ {rn roqgmjkngigoghnmojk nqhjoooooooooooomm ljqjoooooooooooooh |
  1
/:-,*=:1+r><>;L036;W6,+0-&r>++-6= {rn {rn {jm {mo n k mi o |
  1
-:9@)+r:&:r>++-6= {rn {nml {jl {lm {l {k |
  1
92:,7r:&:r>++-6= {rn {nmk {rn {jk |
  1
9><: {nmj {nmi {nmh {i {rn {nmg 90-(>-; ,6183: |
  1
300/ {rn {nmf {nlo {jk |
  1
+0-*,r,*-9><: {rn oqfmkjgnlnfnmggonkg mqmmhjkifojfkijgkj:roni mqhnlmhggjoonfjknh rnqglifhonfghmnomfh:roni riqnmlmllffjhlihii:ronh rn nqlmikngmongmnlgl roqnfohgonomklkimhgk o n riqnmlmllffjhlihii:ronh 90-(>-;@) V V V V |
  1
300/ {rn {rn {fm {lm |
  1
<0:;8: {rn {fn {fn {nln {nlm -:):-,:; {jj {rn |
  1
<0:;8: {rn {fm {fm {jg {fl 90-(>-; {fo {rn |
  1
:;8: {nll {nlk {nlk {fm {nlj 90-(>-; |
  1
/+36,+r:&:r>++-6= {rn {rn {rn {io |
  1
):-+:' {rn {io {nli |
  1
:336/,:r<*-): {rn oqfmkjgnlnfnmggonkg mqgjggnflllihimgnk:roni lqhkkmmkfinkjmngmg rnqglifhonfghmnomfh:roni riqnmlmllffjhlihii:ronh rn nqmkokjmfonhllhiof rnqlfjmgiolohmfghnh:rolm rmqmhgihjonlkonfkki:roni n V V |
  1
300/ {rn {nlh {in {nlg |
  1
/+36,+r:&:r>++-6= {rn {rn {rn {im |
  1
):-+:' {rn {im {nlf |
  1
:336/,:r<*-): {rn oqfmkjgnlnfnmggonkg lqhmkfjhkgllhlmhgk:roni jqnjghljfojonjhmkh rnqglifhonfghmnomfh:roni riqnmlmllffjhlihii:ronh rn oqfmmhkggmohffhfikg rnqolhfminhgmooikn:rolm rnqifjoimogkhnknfg:roni n V V |
  1
/061+ {rn nqgkhfnghhhjlinokg lqmhhgfgmfgjfmkngj:roni kqkmgilmgkfgkjiimi |
  1
<0:;8: {rn {nko {ii {if {noh 90-(>-; {nok {rn |
  1
<0:;8: {rn {ii {nko {hl {nnn 90-(>-; {nok {rn |
  1
300/ {rn {rn {nko {nkn |
  1
,+->687+r<*-): {rn mqihkjgnlnfnmggmff nqhjoooooooooooomm ljqjoooooooooooooh o rn iqnmlmllffjhlihii:ronh V V |
  1
<0:;8: {rn {if {ig {nkm {nkl -:):-,:; {ho {rn |
  1
:;8: {rn {hn {nkk {nom {nkj 90-(>-; |
  1
9><: {nki {rn {ho {i {rn {nkh 90-(>-; ,6183: |
  1
/061+ {rn mqihkjgnlnfnmggmff rnqhkffffffffffffhg ljqjoooooooooooooh |
  1
<0:;8: {rn {hk {hl {nkg {nkf -:):-,:; {hj {rn |
  1
:;8: {rn {njo {hi {nol {njn 90-(>-; |
  1
9><: {njm {gn {hj {i {rn {njl -:):-,:; ,6183: |
  1
/061+ {rn mqihkjgnlnfnmggmff nqhjoooooooooooomm ljqjoooooooooooooh |
  1
<0:;8: {rn {nkg {nkm {hg {nnj 90-(>-; {njk {rn |
  1
:;8: {njj {nng {nni {hg {nji 90-(>-; |
  1
):-+:' {rn {nnj {njh |
  1
,+->687+r<*-): {rn roqgmjkngigoghnmojim nqhjoooooooooooomm lkqjoooooooooooooh rnqglifhonfghmnomfh:roni riqnmlmllffjhlihii:ronh rn V V |
  1
):-+:' {rn {go {njg |
  1
,+->687+r<*-): {rn roqgmjkngigoghnmojim rnqhkffffffffffffhg lkqjoooooooooooooh mqmmokkiokfmjolnln:roni o n V V |
  1
92:,7r:&:r>++-6= {rn {njf {rn {gn |
  1
9><: {nio {nog {nin {i {rn {nim 90-(>-; ,6183: |
  1
/3>1:r,*-9><: {rn roqgmjkngigoghnmnmhl nqhj rnqigngllhgmjjffljf:roni rn nqnmkgnfgliffilflm:rolm nqglifhonfghmnomfh:roni o n riqnmlmllffjhlihii:ronh 90-(>-;@) V V V V |
  1
/:-,*=:1+r><>;L036;W6,+0-&r>++-6= {rn {rn {gj {lm n k mj o |
  1
-:9@)+r:&:r>++-6= {rn {nil {gi {jk {l {k |
  1
92:,7r:&:r>++-6= {rn {nik {rn {gh |
  1
9><: {nij {nii {nih {i {rn {nig 90-(>-; ,6183: |
  1
300/ {rn {nif {nho {gh |
  1
+0-*,r,*-9><: {rn oqfmkjgnlnfnmggonkg nqhoghhgilijhikg:roni nqgiioijfhmkmiflog rnqglifhonfghmnomfh:roni riqnmlmllffjhlihii:ronh rn oqhnhlglollognlhjhk oqgjmilfoikjfjmjmmf o n riqnmlmllffjhlihii:ronh 90-(>-;@) V V V V |
  1
300/ {rn {rn {nln {jk |
  1
<0:;8: {rn {nlo {nlo {nhn {nhm -:):-,:; {gg {rn |
  1
<0:;8: {rn {nln {nln {fn {nlm 90-(>-; {nmf {rn |
  1
:;8: {nhl {nhk {nhk {nln {nhj 90-(>-; |
  1
/+36,+r:&:r>++-6= {rn {rn {rn {fl |
  1
):-+:' {rn {fl {nhi |
  1
:336/,:r<*-): {rn oqfmkjgnlnfnmggonkg mqigghggmkfiokgjmm:roni lqkiijklnmgloigoln rnqglifhonfghmnomfh:roni riqnmlmllffjhlihii:ronh rn nqmkokjmfonhllhiof rnqlfjmgiolohmfghnh:rolm rmqmhgihjonlkonfkki:roni n V V |
  1
/061+ {rn mqnijolkmmogimjimk mqgjggnflllihimgnk:roni lqhkkmmkfinkjmngmg |
  1
300/ {rn {rn {nhh {nlg |
  1
9><: {nhg {nkn {fh {i {rn {nhf 90-(>-; ,6183: |
  1
/061+ {rn nqgkhllonlffmgjfg lqhmkfjhkgllhlmhgk:roni jqnjghljfojonjhmkh |
  1
<0:;8: {rn {nol {nom {ngo {ngn -:):-,:; {nok {rn |
  1
9><: {ngm {nnm {nok {i {rn {ngl 90-(>-; ,6183: |
  1
<0:;8: {rn {nnk {ngo {noi {nkl 90-(>-; {njk {rn |
  1
:;8: {ngk {nkk {nng {noi {ngj 90-(>-; |
  1
):-+:' {rn {nkl {ngi |
  1
,+->687+r<*-): {rn mqihkjgnlnfnmggnjh rnqhj kqinmfgnnjfkhflmml:ronh rnqglifhonfghmnomfh:roni riqnmlmllffjhlihii:ronh rn V V |
  1
92:,7r:&:r>++-6= {rn {ngh {rn {nog |
  1
/3>1:r,*-9><: {rn oqfmkjgnlnfnmggnjif rnqhkffffffffffffgf nhqmkffffffffffffl o rn iqnmlmllffjhlihii:ronh rnqglifhonfghmnomfh:roni riqnmlmllffjhlihii:ronh rn 90-(>-;@) V V V V |
  1
<0:;8: {rn {ngo {nnk {nno {nkf 90-(>-; {njk {rn |
  1
:;8: {ngg {nni {njo {nno {ngf 90-(>-; |
  1
):-+:' {rn {nnn {nfo |
  1
,+->687+r<*-): {rn mqihkjgnlnfnmggnjh nqhj rnqigngllhgmjjffljf:roni nqglifhonfghmnomfh:roni iqnmlmllffjhlihii:ronh n V V |
  1
92:,7r:&:r>++-6= {rn {nfn {rn {nnm |
  1
/3>1:r,*-9><: {rn oqfmkjgnlnfnmggnjif nqhjoooooooooooonn nhqmkffffffffffffl o rn iqnmlmllffjhlihii:ronh rnqglifhonfghmnomfh:roni riqnmlmllffjhlihii:ronh rn 90-(>-;@) V V V V |
  1
300/ {rn {nfm {nnk {nfl |
  1
/+36,+r:&:r>++-6= {rn {rn {rn {nnj |
  1
61+<*-):r<*-): {rn 90-(>-; $ ,*-961+<*- 1*=, l 0/:1 f 
  1
 nmqffnjmohkoljflii l nlqoifjfngkffflojg m nlqggljfngfjjgfkil m nkqmfojfnfnglghiii m nkqifhjfnfknngjgig m 
  1
 njqnokjfnfilfgkoh m njqjnnjfnfgihgmmhj m niqlmjjfmolmlhgig m niqkoliilnkmonmlhl l 
  1
 roqgmjkngigoghnmnmhl rnqhjooooooooooomjg mlqooooooooooooomn 
  1
 roqgmjkngigoghnmnmhl rnqhmjjokfinjhmgnoi mmqfgfohnlhniooofh 
  1
 roqgmjkngigoghnmnmhl rnqhonmkgmfkgngmogm mmqfhgkfjihghigmll 
  1
 roqgmjkngigoghnmnmhl rnqkmhhmnkjgjkfkmgm mmqgingjgmijfhgklk 
  1
 roqgmjkngigoghnmnmhl rnqnkjnkhmmgklkhnfh mmqhigollojgoihig 
  1
 roqgmjkngigoghnmnmhl roqhnnjjllkjngjgglof mmqihkjmiogkggomoi 
  1
 roqgmjkngigoghnmojim roqjijkogglhfihmhlgn mmqijofgmkglojhjgm 
  1
 roqgmjkngigoghnmojim roqmhhkiinifkgjnjgig mmqimomginihngmjlj 
  1
 roqgmjkngigoghnmnmhl roqnljiiiihkmiioiioj mmqinlnkjfihknnmhg 
  1
 roqgmjkngigoghnmnmhl oqnljiiiihkmiioigfl mmqinlnkjfihknnmhg 
  1
 roqgmjkngigoghnmojim oqmhhkiinifkgjninlk mmqimomginihngmjlj 
  1
 roqgmjkngigoghnmojim oqjijkogglhfihmhikg mmqijofgmkglojhjgm 
  1
 roqgmjkngigoghnmnmhl oqhnnjjllkjngjgghhj mmqihkjmiogkggonfm 
  1
 roqgmjkngigoghnmnmhl nqnkjnkhmmgklkhmlf mmqhigollojgoihig 
  1
 roqgmjkngigoghnmnmhl nqkmhhmnkjgjkfklnl mmqgingjgmijfhgklk 
  1
 roqgmjkngigoghnmnfgl nqhonmkgmfkgngmnnl mmqfhgkfjihghigmll 
  1
 roqgmjkngigoghnmnmhl nqhmjjokfinjhmgnmi mmqfgfohnlhniooofh 
  1
 roqgmjkngigoghnmnmhl nqhjooooooooooomgk mlqooooooooooooomn 
  1
 oqooolhllmmkjlkknkhfin 
  1
 +0-*, oqfmkjgnlnfnmggnjif nqhjgohffignomjhlh:ronj mhqhghoklkkmonmknn rnqglifhonfghmnomfh:roni riqnmlmllffjhlihii:ronh rn roqjkjjikofmjkhfhh jqiiomgjmfnkjijhli o n riqnmlmllffjhlihii:ronh 90-(>-;@) V V V V 
  1
 /3>1: roqgmjkngigoghnmnmhl nqhj rnqigngllhgmjjffljf:roni rn nqnmkgnfgliffilflm:rolm nqglifhonfghmnomfh:roni o n riqnmlmllffjhlihii:ronh 90-(>-;@) V V V V 
  1
 1*33=, 
  1
 1*33=, 
  1
 V V 
  1
 o 
  1
 o 
  1
 o 
  1
 " V V |
  1
/061+ {rn roqgmjkngigoghnmnmhl nqhjooooooooooomgk mlqooooooooooooomn |
  1
/061+ {rn roqgmjkngigoghnmnmhl rnqhjooooooooooomjg mlqooooooooooooomn |
  1
-:9@)+r:&:r>++-6= {rn {nfk {nmo {gn {l {k |
  1
92:,7r:&:r>++-6= {rn {nfj {rn {nmn |
  1
300/ {rn {rn {nfi {nmn |
  1
/3>1:r,*-9><: {rn mqihkjgnlnfnmggnjh nqhj rnqigngllhgmjjffljf:roni rnqglifhonfghmnomfh:roni riqnmlmllffjhlihii:ronh rn o n riqnmlmllffjhlihii:ronh 90-(>-;@) V V V V |
  1
/:-,*=:1+r><>;L036;W6,+0-&r>++-6= {rn {rn {nmk {jk n k mk o |
  1
-:9@)+r:&:r>++-6= {rn {nfh {nmj {gh {l {k |
  1
92:,7r:&:r>++-6= {rn {nfg {rn {nmi |
  1
9><: {nff {nfl {moo {i {rn {mon 90-(>-; ,6183: |
  1
300/ {rn {mom {mol {nmi |
  1
+0-*,r,*-9><: {rn oqfmkjgnlnfnmggonkg nqihglgjkmihfnoihm:roni nqgnikloofkojjngjk rnqglifhonfghmnomfh:roni riqnmlmllffjhlihii:ronh rn roqmknljmifgfnloinii nqgohlkljjookloikk o n riqnmlmllffjhlihii:ronh 90-(>-;@) V V V V |
  1
300/ {rn {rn {nhn {gh |
  1
<0:;8: {rn {nho {nho {mok {moj -:):-,:; {nmh {rn |
  1
<0:;8: {rn {nhn {nhn {nlo {nhm 90-(>-; {nif {rn |
  1
:;8: {moi {moh {moh {nhn {mog 90-(>-; |
  1
/+36,+r:&:r>++-6= {rn {rn {rn {nlm |
  1
):-+:' {rn {nlm {mof |
  1
:336/,:r<*-): {rn oqfmkjgnlnfnmggonkg mqllfhngflmhfknikj:roni mqgfikifihnflhiloi rnqglifhonfghmnomfh:roni riqnmlmllffjhlihii:ronh rn nqmhlnklhmnjlljnkg rnqklmojhlnllmglofi:rolm rmqllghmhohjnkjgjm:roni n V V |
  1
/061+ {rn mqnijolkmmogimjimk mqigghggmkfiokgjmm:roni lqkiijklnmgloigoln |
  1
<0:;8: {rn {nhh {nhh {mno {mnn 90-(>-; {nlh {rn |
  1
92:,7r:&:r>++-6= {rn {mnm {rn {nlg |
  1
+0-*,r,*-9><: {rn oqfmkjgnlnfnmggonkg nqhhjfjmhllojihhml:roni nqfhjhifjfhmmmlion rnqglifhonfghmnomfh:roni riqnmlmllffjhlihii:ronh rn jgqgohkimfhngglijm rjhqfhmnioinfmfknon o n riqnmlmllffjhlihii:ronh 90-(>-;@) V V V V |
  1
<0:;8: {rn {nkm {nkg {nko {ngn 90-(>-; {njk {rn |
  1
:;8: {mnl {njo {nkk {nko {mnk 90-(>-; |
  1
92:,7r:&:r>++-6= {rn {mnj {rn {nkn |
  1
/3>1:r,*-9><: {rn mqihkjgnlnfnmggmff nqhjoooooooooooomm lkqjoooooooooooooh n rnqnmkgnfgliffilflm:rolm rnqglifhonfghmnomfh:roni o rn iqnmlmllffjhlihii:ronh 90-(>-;@) V V V V |
  1
/+36,+r:&:r>++-6= {rn {rn {rn {nkl |
  1
61+<*-):r<*-): {rn 90-(>-; $ ,*-961+<*- 1*=, l 0/:1 f 
  1
 nmqffnjmohkoljflg l nlqoifjfngkffflofm m nlqggljfngfjjgfkfn m nkqmfojfnfnglghif m nkqifhjfnfknngjgfn m 
  1
 njqnokjfnfilfgkofm m njqjnnjfnfgihgmmfn m niqlmjjfmolmlhgif m niqkoliilnkmonmkml l 
  1
 mqihkjgnlnfnmggmff rnqhjooooooooooolmf mlqooooooooooooomn 
  1
 mqijoogimgohonjfh rnqhjooooooooooolmf mmqfgfohnlhniooofh 
  1
 mqimjgmfinlfkhonjk rnqhkffffffffffffgh mmqfhgkfjihghigmll 
  1
 mqljmlomhhhihgmklj rnqhkffffffffffffgh mmqgingjgmijfhgklk 
  1
 mqoifhmgjkhjiljjlm rnqhkffffffffffffgh mmqhigollojgoihig 
  1
 nqilinlkiiklnkhoii rnqhkffffffffffffgh mmqihkjmiogkggonfm 
  1
 nqkgfffonjhofiogkl rnqhkffffffffffffgh mmqijofgmkglojhjgm 
  1
 nqmomokhkgginlfihk rnqhkffffffffffffgh mmqimomginihngmjlj 
  1
 nqoiomkhffllfkghhf rnqhkffffffffffffgh mmqinlnkjfihknnmil 
  1
 oqhggfnkikkgimhjljl rnqhkffffffffffffgh mmqinlnkjfihknnmil 
  1
 oqikhnnjnkfikliikon rnqhkffffffffffffgh mmqimomginihngmjlj 
  1
 oqljfnhmkgnninjkhn rnqhkffffffffffffgh mmqijofgmkglojhjgm 
  1
 oqmnlomhfhlfkmfmkgl rnqhkffffffffffffgh mmqihkjmiogkggonfm 
  1
 roqmmojijfoflojfmnhf rnqhkffffffffffffgh mmqhigollojgoihig 
  1
 roqjolnkonlfkmoinmof rnqhkffffffffffffgh mmqgingjgmijfhgklk 
  1
 roqhhiiiifhjigflfgmk rnqhkffffffffffffgh mmqfhgkfjihghigmll 
  1
 roqgoofmlikmkklfgifj rnqhjooooooooooomjg mmqfgfohnlhniooofh 
  1
 roqgmjkngigoghnmnmhl rnqhjooooooooooomjg mlqooooooooooooomn 
  1
 oqooolhllmmkjlkkllkmlm 
  1
 +0-*, oqfmkjgnlnfnmggnjif nqhjgohffignomjhlh:ronj mhqhghoklkkmonmknn rnqglifhonfghmnomfh:roni riqnmlmllffjhlihii:ronh rn roqjkjjikofmjkhfhh jqiiomgjmfnkjijhli o n riqnmlmllffjhlihii:ronh 90-(>-;@) V V V V 
  1
 /3>1: oqfmkjgnlnfnmggnjif rnqhkffffffffffffgf nhqmkffffffffffffl o rn iqnmlmllffjhlihii:ronh rnqglifhonfghmnomfh:roni riqnmlmllffjhlihii:ronh rn 90-(>-;@) V V V V 
  1
 1*33=, 
  1
 1*33=, 
  1
 V V 
  1
 o 
  1
 o 
  1
 o 
  1
 " V V |
  1
/061+ {rn mqihkjgnlnfnmggmff rnqhjooooooooooolmf mlqooooooooooooomn |
  1
-:9@)+r:&:r>++-6= {rn {mni {nki {nog {l {k |
  1
/+36,+r:&:r>++-6= {rn {rn {rn {nkf |
  1
61+<*-):r<*-): {rn 90-(>-; $ ,*-961+<*- 1*=, l 0/:1 f 
  1
 nmqffnjmohkoljflhj l nlqoifjfngkffflofk m nlqggljfngfjjgfkfl m nkqmfojfnfnglghifm m nkqifhjfnfknngjgfn m 
  1
 njqnokjfnfilfgkofm m njqjnnjfnfgihgmmfn m niqlmjjfmolmlhgif m niqkoliilnkmonmknm l 
  1
 roqgmjkngigoghnmnmhl nqhjooooooooooomgk mlqooooooooooooomn 
  1
 roqgoofmlikmkklfgifj nqhjooooooooooomgk mmqfgfohnlhniooofh 
  1
 roqhhiiiifhjigflfgmk nqhjoooooooooooonl mmqfhgkfjihghigmll 
  1
 roqjolnkonlfkmoinmof nqhjoooooooooooonl mmqgingjgmijfhgkm 
  1
 roqmmojijfoflojfmnhf nqhjoooooooooooonl mmqhigollojgoihiij 
  1
 oqmnlomhfhlfkmfmkgl nqhjoooooooooooonl mmqihkjmiogkggonhg 
  1
 oqljfnhmkgnninjkhn nqhjoooooooooooonl mmqijofgmkglojhjgm 
  1
 oqikhnnjnkfikliikon nqhjoooooooooooonl mmqimomginihngmjm 
  1
 oqhggfnkikkgimhjljl nqhjoooooooooooonl mmqinlnkjfihknnmil 
  1
 nqoiomkhffllfkghhf nqhjoooooooooooonl mmqinlnkjfihknnmil 
  1
 nqmomokhkgginlfihk nqhjoooooooooooonl mmqimomginihngmjm 
  1
 nqkgfffonjhofiogkl nqhjoooooooooooonl mmqijofgmkglojhjgm 
  1
 nqilinlkiiklnkhoii nqhjoooooooooooonl mmqihkjmiogkggonhg 
  1
 mqoifhmgjkhjiljjlm nqhjoooooooooooonl mmqhigollojgoihiij 
  1
 mqljmlomhhhihgmklj nqhjoooooooooooonl mmqgingjgmijfhgkm 
  1
 mqimjgmfinlfkhomfi nqhjoooooooooooonl mmqfhgkfjihghigmll 
  1
 mqijoogimgohonjfh nqhjoooooooooooljj mmqfgfohnlhniooofh 
  1
 mqihkjgnlnfnmggmff nqhjoooooooooooljj mlqooooooooooooomn 
  1
 oqooolhllmmkjlklimkmjl 
  1
 +0-*, oqfmkjgnlnfnmggnjif nqhjgohffignomjhlh:ronj mhqhghoklkkmonmknn rnqglifhonfghmnomfh:roni riqnmlmllffjhlihii:ronh rn roqjkjjikofmjkhfhh jqiiomgjmfnkjijhli o n riqnmlmllffjhlihii:ronh 90-(>-;@) V V V V 
  1
 /3>1: oqfmkjgnlnfnmggnjif nqhjoooooooooooonn nhqmkffffffffffffl o n riqnmlmllffjhlihii:ronh rnqglifhonfghmnomfh:roni riqnmlmllffjhlihii:ronh rn -:):-,:@) V V V V 
  1
 1*33=, 
  1
 1*33=, 
  1
 V V 
  1
 o 
  1
 o 
  1
 o 
  1
 " V V |
  1
/061+ {rn mqihkjgnlnfnmggmff nqhjoooooooooooljj mlqooooooooooooomn |
  1
-:9@)+r:&:r>++-6= {rn {mnh {njm {nnm {l {k |
  1
300/ {rn {rn {mng {nfl |
  1
9><: {mnf {mmo {njk {i {rn {mmn 90-(>-; ,6183: |
  1
/:-,*=:1+r><>;L036;W6,+0-&r>++-6= {rn {rn {njf {gn n l n o |
  1
-:9@)+r:&:r>++-6= {rn {mmm {nio {nmn {l {k |
  1
<0:;8: {rn {nfi {nfi {mml {mmk -:):-,:; {nin {rn |
  1
/:-,*=:1+r><>;L036;W6,+0-&r>++-6= {rn {rn {nik {gh n k ml o |
  1
-:9@)+r:&:r>++-6= {rn {mmj {nij {nmi {l {k |
  1
92:,7r:&:r>++-6= {rn {mmi {rn {nii |
  1
300/ {rn {mmh {mml {nii |
  3
<01:r,*-9><: {rn oqfmkjgnlnfnmggonkg hqofmggmfooihogfli:ronh oqmllhhklikkmnimhkn rnqglifhonfghmnomfh:roni riqnmlmllffjhlihii:ronh rn oqfklohmfoioliingfh rnqoiohghnnmkklgmkj:rolm rnqhlmlfigmlinojoif:roni n V V roqohggjlgkjllinngig oqffigginghimkofhik oqfkl
  1
ohmfoioliingfh 90-(>-; V V V V |
  1
300/ {rn {rn {mok {nmi |
  1
<0:;8: {rn {mol {mol {mmg {mmf -:):-,:; {nih {rn |
  1
<0:;8: {rn {mok {mok {nho {moj 90-(>-; {mom {rn |
  1
:;8: {mlo {mln {mln {mok {mlm 90-(>-; |
  1
/+36,+r:&:r>++-6= {rn {rn {rn {nhm |
  1
):-+:' {rn {nhm {mll |
  1
:336/,:r<*-): {rn oqfmkjgnlnfnmggonkg mqnlnfknhmgiloglfk:roni mqjjhnklhkiiokhl rnqglifhonfghmnomfh:roni riqnmlmllffjhlihii:ronh rn nqmnihghjiloogoigh rnqligiiihggmgnfhkm:rolm rmqmljmomkfnkmomofn:roni n V V |
  1
/061+ {rn mqnfhhmjokoiimlnil mqllfhngflmhfknikj:roni mqgfikifihnflhiloi |
  1
<0:;8: {rn {mno {mno {nhh {mnn -:):-,:; {mlk {rn |
  1
:;8: {mlj {mli {mli {nhh {mlh 90-(>-; |
  1
-:9@)+r:&:r>++-6= {rn {mlg {nhg {nlg {l {k |
  1
/+36,+r:&:r>++-6= {rn {rn {rn {ngn |
  1
61+<*-):r<*-): {rn 90-(>-; $ ,*-961+<*- 1*=, l 0/:1 f 
  1
 nmqffnjmohkoljflik l nlqoifjfngkfffloih m nlqggljfngfjjgfkh m nkqmfojfnfnglghihl m nkqifhjfnfknngjghl m 
  1
 njqnokjfnfilfgkohk m njqjnnjfnfgihgmmhi m niqlmjjfmolmlhgig m niqkoliilnkmonmlgk l 
  1
 mqihkjgnlnfnmggmff nqhjoooooooooooljj mlqooooooooooooomn 
  1
 mqihkjgnlnfnmggmff nqhmjjokfinjhmgnhl mmqfgfohnlhniooofh 
  1
 mqihkjgnlnfnmggnjh nqhonmkgmfkgngmnog mmqfhgkfjihghigmll 
  1
 mqihkjgnlnfnmggmff nqkmhhmnkjgjkfkmg mmqgingjgmijfhgklk 
  1
 mqihkjgnlnfnmggnjh nqnkjnkhmmgklkhmog mmqhigollojgoihig 
  1
 mqihkjgnlnfnmggnjh oqhnnjjllkjngjggjof mmqihkjmiogkggonfm 
  1
 mqihkjgnlnfnmggnjh oqjijkogglhfihmhkh mmqijofgmkglojhjgm 
  1
 mqihkjgnlnfnmggnjh oqmhhkiinifkgjnioml mmqimomginihngmjlj 
  1
 mqihkjgnlnfnmggmff oqnljiiiihkmiioigkf mmqinlnkjfihknnmhg 
  1
 mqihkjgnlnfnmggmff roqnljiiiihkmiioiji mmqinlnkjfihknnmhg 
  1
 mqihkjgnlnfnmggnjh roqmhhkiinifkgjnjif mmqimomginihngmjlj 
  1
 mqihkjgnlnfnmggnjh roqjijkogglhfihmhnnj mmqijofgmkglojhjgm 
  1
 mqihkjgnlnfnmggnjh roqhnnjjllkjngjggmm mmqihkjmiogkggonfm 
  1
 mqihkjgnlnfnmggnjh rnqnkjnkhmmgklkhnhf mmqhigollojgoihig 
  1
 mqihkjgnlnfnmggmff rnqkmhhmnkjgjkfkmji mmqgingjgmijfhgklk 
  1
 mqihkjgnlnfnmggmff rnqhonmkgmfkgngmogi mmqfhgkfjihghigmll 
  1
 mqihkjgnlnfnmggmff rnqhmjjokfinjhmgnmf mmqfgfohnlhniooofh 
  1
 mqihkjgnlnfnmggmff rnqhjooooooooooolmf mlqooooooooooooomn 
  1
 oqooolhllmmkjlkknfffoj 
  1
 +0-*, oqfmkjgnlnfnmggnjif nqhjgohffignomjhlh:ronj mhqhghoklkkmonmknn rnqglifhonfghmnomfh:roni riqnmlmllffjhlihii:ronh rn roqjkjjikofmjkhfhh jqiiomgjmfnkjijhli o n riqnmlmllffjhlihii:ronh 90-(>-;@) V V V V 
  1
 /3>1: mqihkjgnlnfnmggmff nqhjoooooooooooomm lkqjoooooooooooooh n rnqnmkgnfgliffilflm:rolm rnqglifhonfghmnomfh:roni o rn iqnmlmllffjhlihii:ronh 90-(>-;@) V V V V 
  1
 1*33=, 
  1
 1*33=, 
  1
 V V 
  1
 o 
  1
 o 
  1
 o 
  1
 " V V |
  1
-:9@)+r:&:r>++-6= {rn {mlf {ngm {nkn {l {k |
  1
/:-,*=:1+r><>;L036;W6,+0-&r>++-6= {rn {rn {ngh {nog n l nooooooooo m |
  1
/:-,*=:1+r><>;L036;W6,+0-&r>++-6= {rn {rn {nfn {nnm n l nooooooooo n |
  1
<0:;8: {rn {mng {mng {mko {mkn -:):-,:; {nfm {rn |
  1
92:,7r:&:r>++-6= {rn {mkm {rn {nfl |
  1
9><: {mkl {mkk {mkj {i {rn {mki 90-(>-; ,6183: |
  1
+0-*,r,*-9><: {rn oqfmkjgnlnfnmggnjif nqhjgohffignomjhlh:ronj mhqhghoklkkmonmknn rnqglifhonfghmnomfh:roni riqnmlmllffjhlihii:ronh rn roqjkjjikofmjkhfhh jqiiomgjmfnkjijhli o n riqnmlmllffjhlihii:ronh 90-(>-;@) V V V V |
  1
/:-,*=:1+r><>;L036;W6,+0-&r>++-6= {rn {rn {nfj {nmn m l k o k mo o |
  1
<0:;8: {rn {mml {mml {nfi {mmk 90-(>-; {moo {rn |
  1
:;8: {mkh {mkg {mkg {nfi {mkf 90-(>-; |
  1
/:-,*=:1+r><>;L036;W6,+0-&r>++-6= {rn {rn {nfg {nmi n k mm o |
  1
-:9@)+r:&:r>++-6= {rn {mjo {nff {nii {l {k |
  1
300/ {rn {rn {mmg {nii |
  1
<0:;8: {rn {mmg {mmg {mol {mmf 90-(>-; {mmh {rn |
  1
:;8: {mjn {mjm {mjm {mmg {mjl 90-(>-; |
  1
/+36,+r:&:r>++-6= {rn {rn {rn {moj |
  1
):-+:' {rn {moj {mjk |
  1
:336/,:r<*-): {rn oqfmkjgnlnfnmggonkg nqijjhjnnggolnjmjh:roni nqhhfkijjhifhfmknl rnqglifhonfghmnomfh:roni riqnmlmllffjhlihii:ronh rn nqjijinmgojoohiggh rnqhinolmlkonmgmnkl:rolm rmqghjfgkoijjljnimh:roni n V V |
  1
/061+ {rn mqnknligggmnlighom mqnlnfknhmgiloglfk:roni mqjjhnklhkiiokhl |
  1
300/ {rn {mjj {mno {mji |
  1
/+36,+r:&:r>++-6= {rn {rn {rn {mnn |
  1
):-+:' {rn {mnn {mjh |
  1
:336/,:r<*-): {rn oqfmkjgnlnfnmggnjif hqkjjgmhlflljifjih:roni nnqmjnhoggjkjhljnj rnqglifhonfghmnomfh:roni riqnmlmllffjhlihii:ronh rn nqjgmmmoijfokkkmlf rnqhhfhnlnglhfgihkh:rolm rmqfoikfmnfgkijljlf:roni n V V |
  1
/:-,*=:1+r><>;L036;W6,+0-&r>++-6= {rn {rn {mnm {nlg n k n o |
  1
/:-,*=:1+r><>;L036;W6,+0-&r>++-6= {rn {rn {mnj {nkn n l l o |
  1
<0:;8: {rn {mko {mko {mng {mkn 90-(>-; {mjg {rn |
  1
:;8: {mjf {mio {mio {mko {min 90-(>-; |
  1
-:9@)+r:&:r>++-6= {rn {mim {mnf {nfl {l {k |
  1
92:,7r:&:r>++-6= {rn {mil {rn {mmo |
  1
9><: {mik {mij {mii {i {rn {mih 90-(>-; ,6183: |
  1
300/ {rn {mjg {mig {mmo |
  1
+0-*,r,*-9><: {rn oqfmkjgnlnfnmggnjif nqkommmjjighohkijn:ronj mnqfhjjooohoiolln rnqglifhonfghmnomfh:roni riqnmlmllffjhlihii:ronh rn nqngokgjfofmgfjgih oqkigfhgihnmjgmljkj o n riqnmlmllffjhlihii:ronh 90-(>-;@) V V V V |
  1
/+36,+r:&:r>++-6= {rn {rn {rn {mmk |
  1
):-+:' {rn {mmk {mif |
  1
:336/,:r<*-): {rn oqfmkjgnlnfnmggonkg jqiinkmhhijnnmimf:ronh riqnomihgllloioonhf:ronh nqglifhonfghmnomfh:roni iqnmlmllffjhlihii:ronh n oqfmkjgnlnfnmggomfl rnqolffghkogihmlhok:rolm rnqifgkmglmfjllhggf:roni n V V |
  1
/:-,*=:1+r><>;L036;W6,+0-&r>++-6= {rn {rn {mmi {nii n k mn o |
  1
/+36,+r:&:r>++-6= {rn {rn {rn {mmf |
  1
):-+:' {rn {mmf {mho |
  1
:336/,:r<*-): {rn oqfmkjgnlnfnmggonkg gqjmkllgolimmfmggf:ronh oqkihjkghmggklmhim rnqglifhonfghmnomfh:roni riqnmlmllffjhlihii:ronh rn oqfinjikkfmfkkklmfn rnqognjgignimnjmhik:rolm rnqhiilijlnhighmmn:roni n V V |
  1
/061+ {rn mqkfonfknmknlikfom nqijjhjnnggolnjmjh:roni nqhhfkijjhifhfmknl |
  1
300/ {rn {rn {mhn {mji |
  1
9><: {mhm {nlg {mlk {i {rn {mhl 90-(>-; ,6183: |
  1
/061+ {rn mqjoigonfhgnhlmlfi hqkjjgmhlflljifjih:roni nnqmjnhoggjkjhljnj |
  1
300/ {rn {rn {mko {mmo |
  1
/+36,+r:&:r>++-6= {rn {rn {rn {mkn |
  1
):-+:' {rn {mkn {mhk |
  1
:336/,:r<*-): {rn oqfmkjgnlnfnmggnjif nqklonhigmnmffohij:ronj mmqklnfhgiiigfgjlh rnqglifhonfghmnomfh:roni riqnmlmllffjhlihii:ronh rn nqmggoknghmkghiihh rnqkkggnjokfojinohl:rolm rmqliiofkjlkkikihhg:roni n V V |
  1
/:-,*=:1+r><>;L036;W6,+0-&r>++-6= {rn {rn {mkm {nfl n k ni o |
  1
-:9@)+r:&:r>++-6= {rn {mhj {mkl {mmo {l {k |
  1
92:,7r:&:r>++-6= {rn {mhi {rn {mkk |
  1
9><: {mhh {mhg {mhf {i {rn {mgo 90-(>-; ,6183: |
  1
300/ {rn {mgn {mgm {mkk |
  1
+0-*,r,*-9><: {rn oqfmkjgnlnfnmggnjif nqljjnfimohioojmmn:ronj mnqmohkjmlnhhlhfih rnqglifhonfghmnomfh:roni riqnmlmllffjhlihii:ronh rn nqminfnmkkmioonlkf oqlnmiimgfjgljmllgg o n riqnmlmllffjhlihii:ronh 90-(>-;@) V V V V |
  1
<0:;8: {rn {mig {mig {mgl {mgk -:):-,:; {mkj {rn |
  1
/061+ {rn nqgkfnimilgmjhioij jqiinkmhhijnnmjgki:ronh rhqniikjknkoflniomj:ronj |
  1
/061+ {rn nqgginkjgnmohlmlkk gqjmkllgolimmfmggf:ronh oqkihjkghmggklmhim |
  1
<0:;8: {rn {mhn {mhn {mgj {mgi 90-(>-; {mjj {rn |
  1
92:,7r:&:r>++-6= {rn {mgh {rn {mji |
  1
+0-*,r,*-9><: {rn oqfmkjgnlnfnmggnjif gqngfjghhnmhjlnfi:roni nmqkjoololfkfihmmm rnqglifhonfghmnomfh:roni riqnmlmllffjhlihii:ronh rn rjqjjoliiojgjgjffll hqmlmjkfnfogflnihi o n riqnmlmllffjhlihii:ronh 90-(>-;@) V V V V |
  1
/061+ {rn mqmnmimlnfninikglk nqklonhigmnmffohij:ronj mmqklnfhgiiigfgjlh |
  1
/:-,*=:1+r><>;L036;W6,+0-&r>++-6= {rn {rn {mil {mmo n k nj o |
  1
-:9@)+r:&:r>++-6= {rn {mgg {mik {mkk {l {k |
  1
92:,7r:&:r>++-6= {rn {mgf {rn {mij |
  1
9><: {mfo {mfn {mfm {i {rn {mfl 90-(>-; ,6183: |
  1
300/ {rn {mfk {mfj {mij |
  1
<01:r,*-9><: {rn oqfmkjgnlnfnmggnjif nqlmhijlgljmfiglgg:ronj moqhjhijnmklmfnifh rnqglifhonfghmnomfh:roni riqnmlmllffjhlihii:ronh rn nqmggoknghmkghhmkj rnqkkggnjokfojinhnl:rolm rmqliiofkjlkkikhgmk:roni n V V o n nqmggoknghmkghhmkj 90-(>-; V V V V |
  1
300/ {rn {rn {mgl {mkk |
  1
<0:;8: {rn {mgm {mgm {mfi {mfh -:):-,:; {mii {rn |
  1
<0:;8: {rn {mgl {mgl {mig {mgk 90-(>-; {mgn {rn |
  1
:;8: {mfg {mff {mff {mgl {loo 90-(>-; |
  1
<0:;8: {rn {mgj {mgj {mhn {mgi -:):-,:; {lon {rn |
  1
:;8: {lom {lol {lol {mhn {lok 90-(>-; |
  1
-:9@)+r:&:r>++-6= {rn {loj {mhm {mji {l {k |
  1
/:-,*=:1+r><>;L036;W6,+0-&r>++-6= {rn {rn {mhi {mkk n k nk o |
  1
-:9@)+r:&:r>++-6= {rn {loi {mhh {mij {l {k |
  1
92:,7r:&:r>++-6= {rn {loh {rn {mhg |
  1
9><: {log {lof {lno {i {rn {lnn 90-(>-; ,6183: |
  1
300/ {rn {lnm {lnl {mhg |
  1
+0-*,r,*-9><: {rn oqfmkjgnlnfnmggnjif nqmgohilmkgjmnhjhm:ronj nfqffngifgkhmjioim rnqglifhonfghmnomfh:roni riqnmlmllffjhlihii:ronh rn nqjfninhmhhiimkfll roqifhnmoojhmnojfnji o n riqnmlmllffjhlihii:ronh 90-(>-;@) V V V V |
  1
300/ {rn {rn {mfi {mij |
  1
<0:;8: {rn {mfj {mfj {lnk {lnj -:):-,:; {mhf {rn |
  1
<0:;8: {rn {mfi {mfi {mgm {mfh 90-(>-; {mfk {rn |
  1
:;8: {lni {lnh {lnh {mfi {lng 90-(>-; |
  1
/+36,+r:&:r>++-6= {rn {rn {rn {mgk |
  1
):-+:' {rn {mgk {lnf |
  1
:336/,:r<*-): {rn oqfmkjgnlnfnmggnjif nqlhkmhklninnjgjki:ronj mnqjnfomnkhklogofh rnqglifhonfghmnomfh:roni riqnmlmllffjhlihii:ronh rn nqmggoknghmkghgofg rnqkkggnjokfojimihk:rolm rmqliiofkjlkkikflfn:roni n V V |
  1
300/ {rn {lmo {mgj {lmn |
  1
/+36,+r:&:r>++-6= {rn {rn {rn {mgi |
  1
):-+:' {rn {mgi {lmm |
  1
:336/,:r<*-): {rn oqfmkjgnlnfnmggnjif fqjfiiilhhkkhihkk:roni nkqhkhfjfffonglofg rnqglifhonfghmnomfh:roni riqnmlmllffjhlihii:ronh rn nqlohkmkmnokjmiofl rnqkhoiniighmgikkng:rolm rmqkonifflnnighgnkh:roni n V V |
  1
/:-,*=:1+r><>;L036;W6,+0-&r>++-6= {rn {rn {mgh {mji n k m o |
  1
/:-,*=:1+r><>;L036;W6,+0-&r>++-6= {rn {rn {mgf {mij n k nl o |
  1
-:9@)+r:&:r>++-6= {rn {lml {mfo {mhg {l {k |
  1
92:,7r:&:r>++-6= {rn {lmk {rn {mfn |
  1
9><: {lmj {lmi {lmh {i {rn {lmg 90-(>-; ,6183: |
  1
300/ {rn {lmf {llo {mfn |
  1
+0-*,r,*-9><: {rn oqfmkjgnlnfnmggnjif nqmgmlnhkfkmonfkjl:ronj moqonhmjmiojkhmggl rnqglifhonfghmnomfh:roni riqnmlmllffjhlihii:ronh rn mqnkkggmjolgiihnn rnqmkffnkighknnkhom o n riqnmlmllffjhlihii:ronh 90-(>-;@) V V V V |
  1
300/ {rn {rn {lnk {mhg |
  1
<0:;8: {rn {lnl {lnl {lln {llm -:):-,:; {mfm {rn |
  1
<0:;8: {rn {lnk {lnk {mfj {lnj 90-(>-; {lnm {rn |
  1
:;8: {lll {llk {llk {lnk {llj 90-(>-; |
  1
/+36,+r:&:r>++-6= {rn {rn {rn {mfh |
  1
):-+:' {rn {mfh {lli |
  1
:336/,:r<*-): {rn oqfmkjgnlnfnmggnjif nqllinngoffogjnggg:ronj moqgfjgglninnihgmk rnqglifhonfghmnomfh:roni riqnmlmllffjhlihii:ronh rn nqmggoknghmkghhmkj rnqkkggnjokfojinhnl:rolm rmqliiofkjlkkikhgmk:roni n V V |
  1
/061+ {rn mqmnmimlnfniniimjj nqlhkmhklninnjgjki:ronj mnqjnfomnkhklogofh |
  1
300/ {rn {rn {llh {lmn |
  1
9><: {llg {mji {lon {i {rn {llf 90-(>-; ,6183: |
  1
/061+ {rn mqmlmoojjmfjgnkmj fqjfiiilhhkkhihkk:roni nkqhkhfjfffonglofg |
  1
/:-,*=:1+r><>;L036;W6,+0-&r>++-6= {rn {rn {loh {mhg n k nm o |
  1
-:9@)+r:&:r>++-6= {rn {lko {log {mfn {l {k |
  1
92:,7r:&:r>++-6= {rn {lkn {rn {lof |
  1
9><: {lkm {lkl {lkk {i {rn {lkj 90-(>-; ,6183: |
  1
300/ {rn {lki {lkh {lof |
  1
+0-*,r,*-9><: {rn oqfmkjgnlnfnmggnjif nqnjfhkgjjnhhfijoh:ronj ngqonjjkfgifjoilii rnqglifhonfghmnomfh:roni riqnmlmllffjhlihii:ronh rn roqnmjkkhohjmnilgjkl nqhhghmommjiimfjom o n riqnmlmllffjhlihii:ronh 90-(>-;@) V V V V |
  1
300/ {rn {rn {lln {mfn |
  1
<0:;8: {rn {llo {llo {lkg {lkf -:):-,:; {lno {rn |
  1
<0:;8: {rn {lln {lln {lnl {llm 90-(>-; {lmf {rn |
  1
:;8: {ljo {ljn {ljn {lln {ljm 90-(>-; |
  1
/+36,+r:&:r>++-6= {rn {rn {rn {lnj |
  1
):-+:' {rn {lnj {ljl |
  1
:336/,:r<*-): {rn oqfmkjgnlnfnmggnjif nqlnfngfjhnjogkgfn:ronj moqinfknflmjknjjhn rnqglifhonfghmnomfh:roni riqnmlmllffjhlihii:ronh rn nqmggoknghmkghhmkj rnqkkggnjokfojinhnl:rolm rmqliiofkjlkkikhgmk:roni n V V |
  1
/061+ {rn mqmnmimlnfninijkom nqllinngoffogjnggg:ronj moqgfjgglninnihgmk |
  1
<0:;8: {rn {llh {llh {ljk {ljj 90-(>-; {lmo {rn |
  1
92:,7r:&:r>++-6= {rn {lji {rn {lmn |
  1
<01:r,*-9><: {rn oqfmkjgnlnfnmggnjif fqiimjnllhjifhlkjk:roni nkqgjjjoojjooihhn rnqglifhonfghmnomfh:roni riqnmlmllffjhlihii:ronh rn nqlohkmkmnokjmiofl rnqkhoiniighmgikkng:rolm rmqkonifflnnighgnkh:roni n V V o n nqlohkmkmnokjmiofl 90-(>-; V V V V |
  1
/:-,*=:1+r><>;L036;W6,+0-&r>++-6= {rn {rn {lmk {mfn n k nn o |
  1
-:9@)+r:&:r>++-6= {rn {ljh {lmj {lof {l {k |
  1
92:,7r:&:r>++-6= {rn {ljg {rn {lmi |
  1
9><: {ljf {lio {lin {i {rn {lim 90-(>-; ,6183: |
  1
300/ {rn {lil {lik {lmi |
  3
<01:r,*-9><: {rn oqfmkjgnlnfnmggnjif nqogglonnmmmgnifni:ronj niqgkghmkhfhmokiki rnqglifhonfghmnomfh:roni riqnmlmllffjhlihii:ronh rn nqlmokjngogknhomi rnqkgjmholghfojmlng:rolm rmqkmjiloimofoflihj:roni n V V oqfmlghfjlmjnnmgkil oqlgmiglklmlijofjoi nqlmokjng
  1
ogknhomi 90-(>-; V V V V |
  1
300/ {rn {rn {lkg {lof |
  1
<0:;8: {rn {lkh {lkh {lij {lii -:):-,:; {lmh {rn |
  1
<0:;8: {rn {lkg {lkg {llo {lkf 90-(>-; {lki {rn |
  1
:;8: {lih {lig {lig {lkg {lif 90-(>-; |
  1
/+36,+r:&:r>++-6= {rn {rn {rn {llm |
  1
):-+:' {rn {llm {lho |
  1
:336/,:r<*-): {rn oqfmkjgnlnfnmggnjif nqmgmllnkhfigiiknk:ronj moqonhkgnoojhhofmj rnqglifhonfghmnomfh:roni riqnmlmllffjhlihii:ronh rn oqgfkfihglhlmllkfin rnqooiihhjhigfjoikh:rolm rnqikkomfmkjfhigolg:roni n V V |
  1
/061+ {rn mqmnmimlnfninijkom nqlnfngfjhnjogkgfn:ronj moqinfknflmjknjjhn |
  1
<0:;8: {rn {ljk {ljk {llh {ljj -:):-,:; {lhn {rn |
  1
:;8: {lhm {lhl {lhl {llh {lhk 90-(>-; |
  1
-:9@)+r:&:r>++-6= {rn {lhj {llg {lmn {l {k |
  1
/:-,*=:1+r><>;L036;W6,+0-&r>++-6= {rn {rn {lkn {lof n k no o |
  1
-:9@)+r:&:r>++-6= {rn {lhi {lkm {lmi {l {k |
  1
92:,7r:&:r>++-6= {rn {lhh {rn {lkl |
  1
9><: {lhg {lhf {lgo {i {rn {lgn 90-(>-; ,6183: |
  1
300/ {rn {lgm {lgl {lkl |
  1
<01:r,*-9><: {rn oqfmkjgnlnfnmggnjif nqognkofnomhjnmfkf:ronj niqhlinifjhiimigkl rnqglifhonfghmnomfh:roni riqnmlmllffjhlihii:ronh rn nqlfiflifjnkmlonjm rnqjhnlomlflfflghki:rolm rmqjiinlnjkfmjimgjg:roni n V V o n nqlfiflifjnkmlonjm 90-(>-; V V V V |
  1
300/ {rn {rn {lij {lmi |
  1
<0:;8: {rn {lik {lik {lgk {lgj -:):-,:; {lkk {rn |
  1
<0:;8: {rn {lij {lij {lkh {lii 90-(>-; {lil {rn |
  1
:;8: {lgi {lgh {lgh {lij {lgg 90-(>-; |
  1
/+36,+r:&:r>++-6= {rn {rn {rn {lkf |
  1
):-+:' {rn {lkf {lgf |
  1
:336/,:r<*-): {rn oqfmkjgnlnfnmggnjif nqmlknilokngjllggi:ronj nfqmloglohngmkijjg rnqglifhonfghmnomfh:roni riqnmlmllffjhlihii:ronh rn nqnhllhkhliffngolj rnqlnfgljngolfggoin:rolm rmqnjjkjkkmlhgioifl:roni n V V |
  1
/061+ {rn nqgnfjkfnjikjmnijl nqmgmllnkhfigiiknk:ronj moqonhkgnoojhhofmj |
  1
300/ {rn {lfo {ljk {lfn |
  1
/+36,+r:&:r>++-6= {rn {rn {rn {ljj |
  1
):-+:' {rn {ljj {lfm |
  1
:336/,:r<*-): {rn oqfmkjgnlnfnmggnjif fqhmglimfhifnhfjkg:roni nkqfiloknnoffjmlli rnqglifhonfghmnomfh:roni riqnmlmllffjhlihii:ronh rn nqlohkmkmnokjmiofl rnqkhoiniighmgikkng:rolm rmqkonifflnnighgnkh:roni n V V |
  1
/:-,*=:1+r><>;L036;W6,+0-&r>++-6= {rn {rn {lji {lmn n k l o |
  1
/:-,*=:1+r><>;L036;W6,+0-&r>++-6= {rn {rn {ljg {lmi n k f o |
  1
-:9@)+r:&:r>++-6= {rn {lfl {ljf {lkl {l {k |
  1
92:,7r:&:r>++-6= {rn {lfk {rn {lio |
  1
9><: {lfj {lfi {lfh {i {rn {lfg 90-(>-; ,6183: |
  1
300/ {rn {lff {koo {lio |
  1
+0-*,r,*-9><: {rn oqfmkjgnlnfnmggnjif nqojfgfhlmofijmggh:ronj niqlgkgjjjnflijgik rnqglifhonfghmnomfh:roni riqnmlmllffjhlihii:ronh rn nqlningmimffiflngf oqmgmmlflhjlninkjoh o n riqnmlmllffjhlihii:ronh 90-(>-;@) V V V V |
  1
300/ {rn {rn {lgk {lkl |
  1
<0:;8: {rn {lgl {lgl {kon {kom -:):-,:; {lin {rn |
  1
<0:;8: {rn {lgk {lgk {lik {lgj 90-(>-; {lgm {rn |
  1
:;8: {kol {kok {kok {lgk {koj 90-(>-; |
  1
/+36,+r:&:r>++-6= {rn {rn {rn {lii |
  1
):-+:' {rn {lii {koi |
  1
:336/,:r<*-): {rn oqfmkjgnlnfnmggnjif nqofomknoljmglmigf:ronj niqggokojfgohjhhhf rnqglifhonfghmnomfh:roni riqnmlmllffjhlihii:ronh rn nqmklfiiiijknnolig rnqlffmlglgngnijgfn:rolm rmqmgjnmfifmjimkkgg:roni n V V |
  1
/061+ {rn mqofhfjiojinmoinfm nqmlknilokngjllggi:ronj nfqmloglohngmkijjg |
  1
300/ {rn {rn {koh {lfn |
  1
9><: {kog {lmn {lhn {i {rn {kof 90-(>-; ,6183: |
  1
/061+ {rn mqmlmoojjmfjgnkmj fqhmglimfhifnhfjkg:roni nkqfiloknnoffjmlli |
  1
/:-,*=:1+r><>;L036;W6,+0-&r>++-6= {rn {rn {lhh {lkl n k g o |
  1
-:9@)+r:&:r>++-6= {rn {kno {lhg {lio {l {k |
  1
92:,7r:&:r>++-6= {rn {knn {rn {lhf |
  1
9><: {knm {lfn {knl {i {rn {knk 90-(>-; ,6183: |
  1
300/ {rn {knj {kni {lhf |
  1
+0-*,r,*-9><: {rn oqfmkjgnlnfnmggnjif nqomihhhfhokjofngn:ronj njqgklfhjkhggflloi rnqglifhonfghmnomfh:roni riqnmlmllffjhlihii:ronh rn nqlningmimffiflngf oqmgmmlflhjlninkjoh o n riqnmlmllffjhlihii:ronh 90-(>-;@) V V V V |
  1
300/ {rn {rn {kon {lio |
  1
<0:;8: {rn {koo {koo {knh {kng -:):-,:; {lgo {rn |
  1
<0:;8: {rn {kon {kon {lgl {kom 90-(>-; {lff {rn |
  1
:;8: {knf {kmo {kmo {kon {kmn 90-(>-; |
  1
/+36,+r:&:r>++-6= {rn {rn {rn {lgj |
  1
):-+:' {rn {lgj {kmm |
  1
:336/,:r<*-): {rn oqfmkjgnlnfnmggnjif nqogilinmofmgonnjj:ronj niqgnhoklinlijnjmg rnqglifhonfghmnomfh:roni riqnmlmllffjhlihii:ronh rn nqlfiflifjnkmlonjm rnqjhnlomlflfflghki:rolm rmqjiinlnjkfmjimgjg:roni n V V |
  1
/061+ {rn mqnigjkhfgkjlfgjmj nqofomknoljmglmigf:ronj niqggokojfgohjhhhf |
  1
<0:;8: {rn {koh {koh {kml {kmk 90-(>-; {lfo {rn |
  1
92:,7r:&:r>++-6= {rn {kmj {rn {lfn |
  1
+0-*,r,*-9><: {rn oqfmkjgnlnfnmggnjif fqgfkmnfhgflhmgimg:roni njqmllfojgkomogmkk rnqglifhonfghmnomfh:roni riqnmlmllffjhlihii:ronh rn nqlilojihmklnokihf roqmhijnggjhhjinngnh o n riqnmlmllffjhlihii:ronh 90-(>-;@) V V V V |
  1
/:-,*=:1+r><>;L036;W6,+0-&r>++-6= {rn {rn {lfk {lio n k h o |
  1
-:9@)+r:&:r>++-6= {rn {kmi {lfj {lhf {l {k |
  1
92:,7r:&:r>++-6= {rn {kmh {rn {lfi |
  1
300/ {rn {kmg {kml {lfi |
  1
+0-*,r,*-9><: {rn oqfmkjgnlnfnmggnjif fqhhkggfngmnfjnjjl:roni njqolfomknifknonnf rnqglifhonfghmnomfh:roni riqnmlmllffjhlihii:ronh rn nqjhlikjfohilijnhf roqjimfilfngjokfjikm o n riqnmlmllffjhlihii:ronh 90-(>-;@) V V V V |
  1
300/ {rn {rn {knh {lhf |
  1
<0:;8: {rn {kni {kni {kmf {klo -:):-,:; {lfh {rn |
  1
<0:;8: {rn {knh {knh {koo {kng 90-(>-; {knj {rn |
  1
:;8: {kln {klm {klm {knh {kll 90-(>-; |
  1
/+36,+r:&:r>++-6= {rn {rn {rn {kom |
  1
):-+:' {rn {kom {klk |
  1
:336/,:r<*-): {rn oqfmkjgnlnfnmggnjif nqohikjiffimmmkhkg:ronj niqijjmfjjlfiomnjh rnqglifhonfghmnomfh:roni riqnmlmllffjhlihii:ronh rn nqlfiflifjnkmlonjm rnqjhnlomlflfflghki:rolm rmqjiinlnjkfmjimgjg:roni n V V |
  1
/061+ {rn mqlmnjngmhojjnglof nqogilinmofmgonnjj:ronj niqgnhoklinlijnjmg |
  1
<0:;8: {rn {kml {kml {koh {kmk -:):-,:; {knl {rn |
  1
:;8: {klj {kli {kli {koh {klh 90-(>-; |
  1
-:9@)+r:&:r>++-6= {rn {klg {kog {lfn {l {k |
  1
/:-,*=:1+r><>;L036;W6,+0-&r>++-6= {rn {rn {knn {lhf n k i o |
  1
-:9@)+r:&:r>++-6= {rn {klf {knm {lfi {l {k |
  1
300/ {rn {rn {kmf {lfi |
  1
<0:;8: {rn {kmf {kmf {kni {klo 90-(>-; {kmg {rn |
  1
:;8: {kko {kkn {kkn {kmf {kkm 90-(>-; |
  1
/+36,+r:&:r>++-6= {rn {rn {rn {kng |
  1
):-+:' {rn {kng {kkl |
  1
:336/,:r<*-): {rn oqfmkjgnlnfnmggnjif nqoklllhikjhognomi:ronj niqnnkknjkffnmfjhn rnqglifhonfghmnomfh:roni riqnmlmllffjhlihii:ronh rn nqlfiflifjnkmlonjm rnqjhnlomlflfflghki:rolm rmqjiinlnjkfmjimgjg:roni n V V |
  1
/061+ {rn mqlmnjngmhojjnglof nqohikjiffimmmkhkg:ronj niqijjmfjjlfiomnjh |
  1
/+36,+r:&:r>++-6= {rn {rn {rn {kmk |
  1
):-+:' {rn {kmk {kkk |
  1
:336/,:r<*-): {rn oqfmkjgnlnfnmggnjif fqffgjiiijolglkkon:roni njqkoklnhnfijooogn rnqglifhonfghmnomfh:roni riqnmlmllffjhlihii:ronh rn nqnkjmgfloilnmkilk rnqmggmkknlogkoofhm:rolm rmqnolgimlmkiofghin:roni n V V |
  1
/:-,*=:1+r><>;L036;W6,+0-&r>++-6= {rn {rn {kmj {lfn n k k o |
  1
/:-,*=:1+r><>;L036;W6,+0-&r>++-6= {rn {rn {kmh {lfi n k j o |
  1
/+36,+r:&:r>++-6= {rn {rn {rn {klo |
  1
):-+:' {rn {klo {kkj |
  1
:336/,:r<*-): {rn oqfmkjgnlnfnmggnjif nqonomngmfjnflhlm:ronj njqjhljljkjgijhonm rnqglifhonfghmnomfh:roni riqnmlmllffjhlihii:ronh rn nqlfiflifjnkmlonjm rnqjhnlomlflfflghki:rolm rmqjiinlnjkfmjimgjg:roni n V V |
  1
/061+ {rn mqlmnjngmhojjnglof nqoklllhikjhognomi:ronj niqnnkknjkffnmfjhn |
  1
/061+ {rn mqoifghoimjkknmhfn fqffgjiiijolglkkon:roni njqkoklnhnfijooogn |
  1
/061+ {rn mqlmnjngmhojjnglof nqonomngmfjnflhlm:ronj njqjhljljkjgijhonm |
  0
ENDSEC
  0
SECTION
  2
OBJECTS
  0
DICTIONARY
  5
C
330
0
100
AcDbDictionary
281
     1
  3
ACAD_ASSOCPERSSUBENTMANAGER
350
1BC
  3
ACAD_BACKGROUND
350
1B8
  3
ACAD_CIP_PREVIOUS_PRODUCT_INFO
350
345
  3
ACAD_COLOR
350
73
  3
ACAD_GROUP
350
D
  3
ACAD_IMAGE_DICT
350
346
  3
ACAD_IMAGE_VARS
350
347
  3
ACAD_LAYOUT
350
1A
  3
ACAD_MATERIAL
350
72
  3
ACAD_MLEADERSTYLE
350
D7
  3
ACAD_MLINESTYLE
350
17
  3
ACAD_PERSUBENTMGR
350
1BD
  3
ACAD_PLOTSETTINGS
350
19
  3
ACAD_PLOTSTYLENAME
350
E
  3
ACAD_SCALELIST
350
B6
  3
ACAD_TABLESTYLE
350
86
  3
ACAD_VISUALSTYLE
350
99
  3
ACDB_RECOMPOSE_DATA
350
6FE
  3
AcDbVariableDictionary
350
66
  3
DWGPROPS
350
6FF
  0
DICTIONARY
  5
E6
330
10
100
AcDbDictionary
280
     1
281
     1
  0
DICTIONARY
  5
15D
330
1F
100
AcDbDictionary
280
     1
281
     1
  3
ACAD_SORTENTS
360
399
  0
DICTIONARY
  5
73B
330
5F6
100
AcDbDictionary
280
     1
281
     1
  3
ACAD_MTEXT_RT
360
73C
  0
DICTIONARY
  5
73D
330
610
100
AcDbDictionary
280
     1
281
     1
  3
ACAD_MTEXT_RT
360
73E
  0
DICTIONARY
  5
73F
330
639
100
AcDbDictionary
280
     1
281
     1
  3
ACAD_MTEXT_RT
360
740
  0
DICTIONARY
  5
741
330
652
100
AcDbDictionary
280
     1
281
     1
  3
ACAD_MTEXT_RT
360
742
  0
ACDBASSOCPERSSUBENTMANAGER
  5
1BC
102
{ACAD_REACTORS
330
C
102
}
330
C
100
AcDbAssocPersSubentManager
 90
        1
 90
        3
 90
        0
 90
        2
 90
        4
 90
        0
 90
        0
 90
        0
290
     0
  0
DICTIONARY
  5
1B8
102
{ACAD_REACTORS
330
C
102
}
330
C
100
AcDbDictionary
281
     1
  0
XRECORD
  5
345
102
{ACAD_REACTORS
330
C
102
}
330
C
100
AcDbXrecord
280
     1
300
ACD
300
2012
300
ACD_F_S
  0
DICTIONARY
  5
73
102
{ACAD_REACTORS
330
C
102
}
330
C
100
AcDbDictionary
281
     1
  0
DICTIONARY
  5
D
102
{ACAD_REACTORS
330
C
102
}
330
C
100
AcDbDictionary
281
     1
  0
DICTIONARY
  5
346
102
{ACAD_REACTORS
330
C
102
}
330
C
100
AcDbDictionary
281
     1
  3
leg
350
348
  0
RASTERVARIABLES
  5
347
102
{ACAD_REACTORS
330
C
102
}
330
C
100
AcDbRasterVariables
 90
        0
 70
     1
 71
     1
 72
     5
  0
DICTIONARY
  5
1A
102
{ACAD_REACTORS
330
C
102
}
330
C
100
AcDbDictionary
281
     1
  3
Layout1
350
59
  3
Layout2
350
5E
  3
Model
350
22
  0
DICTIONARY
  5
72
102
{ACAD_REACTORS
330
C
102
}
330
C
100
AcDbDictionary
281
     1
  3
ByBlock
350
97
  3
ByLayer
350
96
  3
Global
350
98
  0
DICTIONARY
  5
D7
102
{ACAD_REACTORS
330
C
102
}
330
C
100
AcDbDictionary
281
     1
  3
Annotative
350
E5
  3
Standard
350
D8
  0
DICTIONARY
  5
17
102
{ACAD_REACTORS
330
C
102
}
330
C
100
AcDbDictionary
281
     1
  3
Standard
350
18
  0
ACDBPERSSUBENTMANAGER
  5
1BD
102
{ACAD_REACTORS
330
C
102
}
330
C
100
AcDbPersSubentManager
 90
        2
 90
        0
 90
        2
 90
        4
 90
        0
 90
        2
 90
        3
 90
        4
  0
DICTIONARY
  5
19
102
{ACAD_REACTORS
330
C
102
}
330
C
100
AcDbDictionary
281
     1
  0
ACDBDICTIONARYWDFLT
  5
E
102
{ACAD_REACTORS
330
C
102
}
330
C
100
AcDbDictionary
281
     1
  3
Normal
350
F
100
AcDbDictionaryWithDefault
340
F
  0
DICTIONARY
  5
B6
102
{ACAD_REACTORS
330
C
102
}
330
C
100
AcDbDictionary
281
     1
  3
A0
350
B7
  3
A1
350
124
  3
A2
350
125
  3
A3
350
126
  3
A4
350
127
  3
A5
350
128
  3
A6
350
129
  3
A7
350
12A
  3
A8
350
12B
  3
A9
350
12C
  3
B0
350
12D
  3
B1
350
12E
  3
B2
350
12F
  3
B3
350
130
  3
B4
350
131
  3
B5
350
132
  3
B6
350
133
  3
B7
350
134
  3
B8
350
135
  3
B9
350
136
  3
C0
350
137
  3
C1
350
138
  3
C2
350
139
  3
C3
350
13A
  3
C4
350
13B
  3
C5
350
13C
  3
C6
350
13D
  3
C7
350
13E
  3
C8
350
13F
  3
C9
350
140
  3
D0
350
141
  3
D1
350
142
  3
D2
350
143
  0
DICTIONARY
  5
86
102
{ACAD_REACTORS
330
C
102
}
330
C
100
AcDbDictionary
281
     1
  3
Standard
350
87
  0
DICTIONARY
  5
99
102
{ACAD_REACTORS
330
C
102
}
330
C
100
AcDbDictionary
281
     1
  3
2dWireframe
350
9F
  3
3D Hidden
350
A1
  3
3dWireframe
350
A0
  3
Basic
350
9E
  3
Brighten
350
A5
  3
ColorChange
350
A9
  3
Conceptual
350
A2
  3
Dim
350
A4
  3
EdgeColorOff
350
175
  3
Facepattern
350
A8
  3
Flat
350
9A
  3
FlatWithEdges
350
9B
  3
Gouraud
350
9C
  3
GouraudWithEdges
350
9D
  3
Hidden
350
17F
  3
JitterOff
350
173
  3
Linepattern
350
A7
  3
OverhangOff
350
174
  3
Realistic
350
A3
  3
Shaded
350
184
  3
Shaded with edges
350
183
  3
Shades of Gray
350
180
  3
Sketchy
350
181
  3
Thicken
350
A6
  3
Wireframe
350
17E
  3
X-Ray
350
182
  0
XRECORD
  5
6FE
102
{ACAD_REACTORS
330
C
102
}
330
C
100
AcDbXrecord
280
     1
 90
        1
330
87
  0
DICTIONARY
  5
66
102
{ACAD_REACTORS
330
C
102
}
330
C
100
AcDbDictionary
281
     1
  3
CANNOSCALE
350
F0
  3
CMLEADERSTYLE
350
EF
  3
CTABLESTYLE
350
89
  3
DIMASSOC
350
67
  3
HIDETEXT
350
6B
  3
INDEXCTL
350
39E
  3
LAYEREVAL
350
14D
  3
LAYERNOTIFY
350
14E
  3
LIGHTINGUNITS
350
39C
  3
MSLTSCALE
350
39B
  3
SOLIDHIST
350
39F
  3
SORTENTS
350
39D
  3
XCLIPFRAME
350
6F7
  0
XRECORD
  5
6FF
102
{ACAD_REACTORS
330
C
102
}
330
C
100
AcDbXrecord
280
     1
  1
DWGPROPS COOKIE
  2

  3

  4

  6

  7

  8
Haden
  9

300
=
301
=
302
=
303
=
304
=
305
=
306
=
307
=
308
=
309
=
 40
0.0108519791666667
 41
2456048.482104005
 42
2456064.562496679
  1

 90
        0
  0
SORTENTSTABLE
  5
399
102
{ACAD_REACTORS
330
15D
102
}
330
15D
100
AcDbSortentsTable
330
1F
  0
XRECORD
  5
73C
102
{ACAD_REACTORS
330
73B
102
}
330
73B
100
AcDbXrecord
280
     1
 40
3957.0
  1
\A1;3{\H1.000000x;\S1#2;}
  0
XRECORD
  5
73E
102
{ACAD_REACTORS
330
73D
102
}
330
73D
100
AcDbXrecord
280
     1
 40
4621.0
  1
\A1;11{\H1.000000x;\S1#2;}
  0
XRECORD
  5
740
102
{ACAD_REACTORS
330
73F
102
}
330
73F
100
AcDbXrecord
280
     1
 40
4649.0
  1
\A1;34{\H1.000000x;\S1#2;}
  0
XRECORD
  5
742
102
{ACAD_REACTORS
330
741
102
}
330
741
100
AcDbXrecord
280
     1
 40
4055.0
  1
\A1;1{\H1.000000x;\S7#8;}
  0
IMAGEDEF
  5
348
102
{ACAD_REACTORS
330
346
102
}
330
346
100
AcDbRasterImageDef
 90
        0
  1
C:\Users\Haden\Desktop\leg.jpg
 10
300.0
 20
676.0
 11
0.2645833333333333
 21
0.2645833333333333
280
     1
281
     5
  0
LAYOUT
  5
59
102
{ACAD_XDICTIONARY
360
702
102
}
102
{ACAD_REACTORS
330
1A
102
}
330
1A
100
AcDbPlotSettings
  1

  2
None
  4

  6

 40
0.0
 41
0.0
 42
0.0
 43
0.0
 44
0.0
 45
0.0
 46
0.0
 47
0.0
 48
0.0
 49
0.0
140
0.0
141
0.0
142
1.0
143
1.0
 70
   688
 72
     0
 73
     0
 74
     5
  7

 75
    16
147
1.0
148
0.0
149
0.0
100
AcDbLayout
  1
Layout1
 70
     1
 71
     1
 10
0.0
 20
0.0
 11
12.0
 21
9.0
 12
0.0
 22
0.0
 32
0.0
 14
0.0
 24
0.0
 34
0.0
 15
0.0
 25
0.0
 35
0.0
146
0.0
 13
0.0
 23
0.0
 33
0.0
 16
1.0
 26
0.0
 36
0.0
 17
0.0
 27
1.0
 37
0.0
 76
     0
330
58
  0
LAYOUT
  5
5E
102
{ACAD_XDICTIONARY
360
704
102
}
102
{ACAD_REACTORS
330
1A
102
}
330
1A
100
AcDbPlotSettings
  1

  2
None
  4

  6

 40
0.0
 41
0.0
 42
0.0
 43
0.0
 44
0.0
 45
0.0
 46
0.0
 47
0.0
 48
0.0
 49
0.0
140
0.0
141
0.0
142
1.0
143
1.0
 70
   688
 72
     0
 73
     0
 74
     5
  7

 75
    16
147
1.0
148
0.0
149
0.0
100
AcDbLayout
  1
Layout2
 70
     1
 71
     2
 10
0.0
 20
0.0
 11
12.0
 21
9.0
 12
0.0
 22
0.0
 32
0.0
 14
0.0
 24
0.0
 34
0.0
 15
0.0
 25
0.0
 35
0.0
146
0.0
 13
0.0
 23
0.0
 33
0.0
 16
1.0
 26
0.0
 36
0.0
 17
0.0
 27
1.0
 37
0.0
 76
     0
330
5D
  0
LAYOUT
  5
22
102
{ACAD_XDICTIONARY
360
700
102
}
102
{ACAD_REACTORS
330
1A
102
}
330
1A
100
AcDbPlotSettings
  1

  2
none_device
  4
ANSI_A_(8.50_x_11.00_Inches)
  6

 40
6.349999904632567
 41
19.04999923706055
 42
6.350006103515625
 43
19.04998779296875
 44
215.8999938964844
 45
279.3999938964844
 46
0.0
 47
0.0
 48
0.0
 49
0.0
140
0.0
141
0.0
142
1.0
143
2.584895464708373
 70
 11952
 72
     0
 73
     1
 74
     0
  7

 75
     0
147
0.3868628397755418
148
0.0
149
0.0
100
AcDbLayout
  1
Model
 70
     1
 71
     0
 10
0.0
 20
0.0
 11
12.0
 21
9.0
 12
0.0
 22
0.0
 32
0.0
 14
0.0
 24
0.0
 34
0.0
 15
0.0
 25
0.0
 35
0.0
146
0.0
 13
0.0
 23
0.0
 33
0.0
 16
1.0
 26
0.0
 36
0.0
 17
0.0
 27
1.0
 37
0.0
 76
     0
330
1F
331
94
  0
MATERIAL
  5
97
102
{ACAD_XDICTIONARY
360
3B2
102
}
102
{ACAD_REACTORS
330
72
102
}
330
72
100
AcDbMaterial
  1
ByBlock
  0
MATERIAL
  5
96
102
{ACAD_XDICTIONARY
360
3B0
102
}
102
{ACAD_REACTORS
330
72
102
}
330
72
100
AcDbMaterial
  1
ByLayer
  0
MATERIAL
  5
98
102
{ACAD_XDICTIONARY
360
110
102
}
102
{ACAD_REACTORS
330
72
102
}
330
72
100
AcDbMaterial
  1
Global
 43
0.0208000000566244
 43
0.0
 43
0.0
 43
0.0
 43
0.0
 43
0.0208000000566244
 43
0.0
 43
0.0
 43
0.0
 43
0.0
 43
1.0
 43
0.0
 43
0.0
 43
0.0
 43
0.0
 43
1.0
 49
0.0208000000566244
 49
0.0
 49
0.0
 49
0.0
 49
0.0
 49
0.0208000000566244
 49
0.0
 49
0.0
 49
0.0
 49
0.0
 49
1.0
 49
0.0
 49
0.0
 49
0.0
 49
0.0
 49
1.0
142
0.0208000000566244
142
0.0
142
0.0
142
0.0
142
0.0
142
0.0208000000566244
142
0.0
142
0.0
142
0.0
142
0.0
142
1.0
142
0.0
142
0.0
142
0.0
142
0.0
142
1.0
144
0.0208000000566244
144
0.0
144
0.0
144
0.0
144
0.0
144
0.0208000000566244
144
0.0
144
0.0
144
0.0
144
0.0
144
1.0
144
0.0
144
0.0
144
0.0
144
0.0
144
1.0
1001
ACAD
1070
    -1
1070
     3
1070
     0
1000

1071
        0
1070
     0
  0
MLEADERSTYLE
  5
E5
102
{ACAD_XDICTIONARY
360
6FB
102
}
102
{ACAD_REACTORS
330
D7
102
}
330
D7
100
AcDbMLeaderStyle
170
     2
171
     1
172
     0
 90
        2
 40
0.0
 41
0.0
173
     1
 91
-1056964608
340
14
 92
       -2
290
     1
 42
0.09
291
     1
 43
0.36
  3
Standard
 44
0.18
300

342
11
174
     1
178
     1
175
     1
176
     0
 93
-1056964608
 45
0.18
292
     0
297
     0
 46
0.18
 94
-1056964608
 47
1.0
 49
1.0
140
1.0
293
     1
141
0.0
294
     1
177
     0
142
1.0
295
     0
296
     1
143
0.125
1001
ACAD_MLEADERVER
1070
     2
  0
MLEADERSTYLE
  5
D8
102
{ACAD_XDICTIONARY
360
6F9
102
}
102
{ACAD_REACTORS
330
D7
102
}
330
D7
100
AcDbMLeaderStyle
170
     2
171
     1
172
     0
 90
        2
 40
0.0
 41
0.0
173
     1
 91
-1056964608
340
14
 92
       -2
290
     1
 42
0.09
291
     1
 43
0.36
  3
Standard
 44
0.18
300

342
11
174
     1
178
     1
175
     1
176
     0
 93
-1056964608
 45
0.18
292
     0
297
     0
 46
0.18
 94
-1056964608
 47
1.0
 49
1.0
140
1.0
293
     1
141
0.0
294
     1
177
     0
142
1.0
295
     0
296
     0
143
0.125
1001
ACAD_MLEADERVER
1070
     2
  0
MLINESTYLE
  5
18
102
{ACAD_REACTORS
330
17
102
}
330
17
100
AcDbMlineStyle
  2
STANDARD
 70
     0
  3

 62
   256
 51
90.0
 52
90.0
 71
     2
 49
0.5
 62
   256
  6
BYLAYER
 49
-0.5
 62
   256
  6
BYLAYER
  0
ACDBPLACEHOLDER
  5
F
102
{ACAD_REACTORS
330
E
102
}
330
E
  0
SCALE
  5
B7
102
{ACAD_REACTORS
330
B6
102
}
330
B6
100
AcDbScale
 70
     0
300
1:1
140
1.0
141
1.0
290
     1
  0
SCALE
  5
124
102
{ACAD_REACTORS
330
B6
102
}
330
B6
100
AcDbScale
 70
     0
300
1:2
140
1.0
141
2.0
290
     0
  0
SCALE
  5
125
102
{ACAD_REACTORS
330
B6
102
}
330
B6
100
AcDbScale
 70
     0
300
1:4
140
1.0
141
4.0
290
     0
  0
SCALE
  5
126
102
{ACAD_REACTORS
330
B6
102
}
330
B6
100
AcDbScale
 70
     0
300
1:5
140
1.0
141
5.0
290
     0
  0
SCALE
  5
127
102
{ACAD_REACTORS
330
B6
102
}
330
B6
100
AcDbScale
 70
     0
300
1:8
140
1.0
141
8.0
290
     0
  0
SCALE
  5
128
102
{ACAD_REACTORS
330
B6
102
}
330
B6
100
AcDbScale
 70
     0
300
1:10
140
1.0
141
10.0
290
     0
  0
SCALE
  5
129
102
{ACAD_REACTORS
330
B6
102
}
330
B6
100
AcDbScale
 70
     0
300
1:16
140
1.0
141
16.0
290
     0
  0
SCALE
  5
12A
102
{ACAD_REACTORS
330
B6
102
}
330
B6
100
AcDbScale
 70
     0
300
1:20
140
1.0
141
20.0
290
     0
  0
SCALE
  5
12B
102
{ACAD_REACTORS
330
B6
102
}
330
B6
100
AcDbScale
 70
     0
300
1:30
140
1.0
141
30.0
290
     0
  0
SCALE
  5
12C
102
{ACAD_REACTORS
330
B6
102
}
330
B6
100
AcDbScale
 70
     0
300
1:40
140
1.0
141
40.0
290
     0
  0
SCALE
  5
12D
102
{ACAD_REACTORS
330
B6
102
}
330
B6
100
AcDbScale
 70
     0
300
1:50
140
1.0
141
50.0
290
     0
  0
SCALE
  5
12E
102
{ACAD_REACTORS
330
B6
102
}
330
B6
100
AcDbScale
 70
     0
300
1:100
140
1.0
141
100.0
290
     0
  0
SCALE
  5
12F
102
{ACAD_REACTORS
330
B6
102
}
330
B6
100
AcDbScale
 70
     0
300
2:1
140
2.0
141
1.0
290
     0
  0
SCALE
  5
130
102
{ACAD_REACTORS
330
B6
102
}
330
B6
100
AcDbScale
 70
     0
300
4:1
140
4.0
141
1.0
290
     0
  0
SCALE
  5
131
102
{ACAD_REACTORS
330
B6
102
}
330
B6
100
AcDbScale
 70
     0
300
8:1
140
8.0
141
1.0
290
     0
  0
SCALE
  5
132
102
{ACAD_REACTORS
330
B6
102
}
330
B6
100
AcDbScale
 70
     0
300
10:1
140
10.0
141
1.0
290
     0
  0
SCALE
  5
133
102
{ACAD_REACTORS
330
B6
102
}
330
B6
100
AcDbScale
 70
     0
300
100:1
140
100.0
141
1.0
290
     0
  0
SCALE
  5
134
102
{ACAD_REACTORS
330
B6
102
}
330
B6
100
AcDbScale
 70
     0
300
1/128" = 1'-0"
140
0.0078125
141
12.0
290
     0
  0
SCALE
  5
135
102
{ACAD_REACTORS
330
B6
102
}
330
B6
100
AcDbScale
 70
     0
300
1/64" = 1'-0"
140
0.015625
141
12.0
290
     0
  0
SCALE
  5
136
102
{ACAD_REACTORS
330
B6
102
}
330
B6
100
AcDbScale
 70
     0
300
1/32" = 1'-0"
140
0.03125
141
12.0
290
     0
  0
SCALE
  5
137
102
{ACAD_REACTORS
330
B6
102
}
330
B6
100
AcDbScale
 70
     0
300
1/16" = 1'-0"
140
0.0625
141
12.0
290
     0
  0
SCALE
  5
138
102
{ACAD_REACTORS
330
B6
102
}
330
B6
100
AcDbScale
 70
     0
300
3/32" = 1'-0"
140
0.09375
141
12.0
290
     0
  0
SCALE
  5
139
102
{ACAD_REACTORS
330
B6
102
}
330
B6
100
AcDbScale
 70
     0
300
1/8" = 1'-0"
140
0.125
141
12.0
290
     0
  0
SCALE
  5
13A
102
{ACAD_REACTORS
330
B6
102
}
330
B6
100
AcDbScale
 70
     0
300
3/16" = 1'-0"
140
0.1875
141
12.0
290
     0
  0
SCALE
  5
13B
102
{ACAD_REACTORS
330
B6
102
}
330
B6
100
AcDbScale
 70
     0
300
1/4" = 1'-0"
140
0.25
141
12.0
290
     0
  0
SCALE
  5
13C
102
{ACAD_REACTORS
330
B6
102
}
330
B6
100
AcDbScale
 70
     0
300
3/8" = 1'-0"
140
0.375
141
12.0
290
     0
  0
SCALE
  5
13D
102
{ACAD_REACTORS
330
B6
102
}
330
B6
100
AcDbScale
 70
     0
300
1/2" = 1'-0"
140
0.5
141
12.0
290
     0
  0
SCALE
  5
13E
102
{ACAD_REACTORS
330
B6
102
}
330
B6
100
AcDbScale
 70
     0
300
3/4" = 1'-0"
140
0.75
141
12.0
290
     0
  0
SCALE
  5
13F
102
{ACAD_REACTORS
330
B6
102
}
330
B6
100
AcDbScale
 70
     0
300
1" = 1'-0"
140
1.0
141
12.0
290
     0
  0
SCALE
  5
140
102
{ACAD_REACTORS
330
B6
102
}
330
B6
100
AcDbScale
 70
     0
300
1-1/2" = 1'-0"
140
1.5
141
12.0
290
     0
  0
SCALE
  5
141
102
{ACAD_REACTORS
330
B6
102
}
330
B6
100
AcDbScale
 70
     0
300
3" = 1'-0"
140
3.0
141
12.0
290
     0
  0
SCALE
  5
142
102
{ACAD_REACTORS
330
B6
102
}
330
B6
100
AcDbScale
 70
     0
300
6" = 1'-0"
140
6.0
141
12.0
290
     0
  0
SCALE
  5
143
102
{ACAD_REACTORS
330
B6
102
}
330
B6
100
AcDbScale
 70
     0
300
1'-0" = 1'-0"
140
12.0
141
12.0
290
     0
  0
TABLESTYLE
  5
87
102
{ACAD_XDICTIONARY
360
104
102
}
102
{ACAD_REACTORS
330
86
102
}
330
86
100
AcDbTableStyle
  3
Standard
 70
     0
 71
     0
 40
0.06
 41
0.06
280
     0
281
     0
  7
Standard
140
0.18
170
     2
 62
     0
 63
     7
283
     0
274
    -2
284
     1
 64
     0
275
    -2
285
     1
 65
     0
276
    -2
286
     1
 66
     0
277
    -2
287
     1
 67
     0
278
    -2
288
     1
 68
     0
279
    -2
289
     1
 69
     0
  7
Standard
140
0.25
170
     5
 62
     0
 63
     7
283
     0
274
    -2
284
     1
 64
     0
275
    -2
285
     1
 65
     0
276
    -2
286
     1
 66
     0
277
    -2
287
     1
 67
     0
278
    -2
288
     1
 68
     0
279
    -2
289
     1
 69
     0
  7
Standard
140
0.18
170
     5
 62
     0
 63
     7
283
     0
274
    -2
284
     1
 64
     0
275
    -2
285
     1
 65
     0
276
    -2
286
     1
 66
     0
277
    -2
287
     1
 67
     0
278
    -2
288
     1
 68
     0
279
    -2
289
     1
 69
     0
  0
VISUALSTYLE
  5
9F
102
{ACAD_XDICTIONARY
360
711
102
}
102
{ACAD_REACTORS
330
99
102
}
330
99
100
AcDbVisualStyle
  2

 70
     4
 71
     0
 72
     2
 73
     1
 90
        0
 40
-0.6
 41
-30.0
 62
     5
 63
     7
 74
     1
 91
        4
 64
     7
 65
   257
 75
     1
175
     1
 42
1.0
 92
        0
 66
   257
 43
1.0
 76
     1
 77
     6
 78
     2
 67
     7
 79
     5
170
     0
171
     0
290
     0
174
     0
 93
        1
 44
0.0
173
     0
291
     0
 45
0.0
1001
ACAD
1000
AcDbSavedByObjectVersion
1070
     0
  0
VISUALSTYLE
  5
A1
102
{ACAD_XDICTIONARY
360
715
102
}
102
{ACAD_REACTORS
330
99
102
}
330
99
100
AcDbVisualStyle
  2

 70
     6
 71
     1
 72
     2
 73
     2
 90
        0
 40
-0.6
 41
-30.0
 62
     5
 63
     7
 74
     2
 91
        2
 64
     7
 65
   257
 75
     2
175
     1
 42
40.0
 92
        0
 66
   257
 43
1.0
 76
     1
 77
     6
 78
     2
 67
     7
 79
     3
170
     0
171
     0
290
     0
174
     0
 93
        1
 44
0.0
173
     0
291
     0
 45
0.0
1001
ACAD
1000
AcDbSavedByObjectVersion
1070
     0
  0
VISUALSTYLE
  5
A0
102
{ACAD_XDICTIONARY
360
713
102
}
102
{ACAD_REACTORS
330
99
102
}
330
99
100
AcDbVisualStyle
  2

 70
     5
 71
     0
 72
     2
 73
     1
 90
        0
 40
-0.6
 41
-30.0
 62
     5
 63
     7
 74
     1
 91
        4
 64
     7
 65
   257
 75
     1
175
     1
 42
1.0
 92
        0
 66
   257
 43
1.0
 76
     1
 77
     6
 78
     2
 67
     7
 79
     5
170
     0
171
     0
290
     0
174
     0
 93
        1
 44
0.0
173
     0
291
     0
 45
0.0
1001
ACAD
1000
AcDbSavedByObjectVersion
1070
     0
  0
VISUALSTYLE
  5
9E
102
{ACAD_XDICTIONARY
360
70F
102
}
102
{ACAD_REACTORS
330
99
102
}
330
99
100
AcDbVisualStyle
  2

 70
     7
 71
     1
 72
     0
 73
     1
 90
        0
 40
-0.6
 41
-30.0
 62
     5
 63
     7
 74
     0
 91
        4
 64
     7
 65
   257
 75
     1
175
     1
 42
1.0
 92
        8
 66
     7
 43
1.0
 76
     1
 77
     6
 78
     2
 67
     7
 79
     5
170
     0
171
     0
290
     0
174
     0
 93
        1
 44
0.0
173
     0
291
     1
 45
0.0
1001
ACAD
1000
AcDbSavedByObjectVersion
1070
     0
  0
VISUALSTYLE
  5
A5
102
{ACAD_XDICTIONARY
360
71D
102
}
102
{ACAD_REACTORS
330
99
102
}
330
99
100
AcDbVisualStyle
  2

 70
    12
 71
     2
 72
     2
 73
     1
 90
        0
 40
-0.6
 41
-30.0
 62
     5
 63
     7
 74
     1
 91
        4
 64
     7
 65
   257
 75
     1
175
     1
 42
1.0
 92
        8
 66
     7
 43
1.0
 76
     1
 77
     6
 78
     2
 67
     7
 79
     5
170
     0
171
     0
290
     0
174
     0
 93
        1
 44
50.0
173
     0
291
     1
 45
0.0
1001
ACAD
1000
AcDbSavedByObjectVersion
1070
     0
  0
VISUALSTYLE
  5
A9
102
{ACAD_XDICTIONARY
360
725
102
}
102
{ACAD_REACTORS
330
99
102
}
330
99
100
AcDbVisualStyle
  2

 70
    16
 71
     2
 72
     2
 73
     3
 90
        0
 40
-0.6
 41
-30.0
 62
     5
 63
     8
 74
     1
 91
        4
 64
     7
 65
   257
 75
     1
175
     1
 42
1.0
 92
        8
 66
     8
 43
1.0
 76
     1
 77
     6
 78
     2
 67
     7
 79
     5
170
     0
171
     0
290
     0
174
     0
 93
        1
 44
0.0
173
     0
291
     1
 45
0.0
1001
ACAD
1000
AcDbSavedByObjectVersion
1070
     0
  0
VISUALSTYLE
  5
A2
102
{ACAD_XDICTIONARY
360
717
102
}
102
{ACAD_REACTORS
330
99
102
}
330
99
100
AcDbVisualStyle
  2

 70
     9
 71
     3
 72
     2
 73
     1
 90
        0
 40
-0.6
 41
-30.0
 62
     5
 63
     7
 74
     2
 91
        2
 64
     7
 65
   257
 75
     1
175
     1
 42
40.0
 92
        8
 66
     7
 43
1.0
 76
     1
 77
     6
 78
     2
 67
     7
 79
     3
170
     0
171
     0
290
     0
174
     0
 93
        1
 44
0.0
173
     0
291
     0
 45
0.0
1001
ACAD
1000
AcDbSavedByObjectVersion
1070
     0
  0
VISUALSTYLE
  5
A4
102
{ACAD_XDICTIONARY
360
71B
102
}
102
{ACAD_REACTORS
330
99
102
}
330
99
100
AcDbVisualStyle
  2

 70
    11
 71
     2
 72
     2
 73
     1
 90
        0
 40
-0.6
 41
-30.0
 62
     5
 63
     7
 74
     1
 91
        4
 64
     7
 65
   257
 75
     1
175
     1
 42
1.0
 92
        8
 66
     7
 43
1.0
 76
     1
 77
     6
 78
     2
 67
     7
 79
     5
170
     0
171
     0
290
     0
174
     0
 93
        1
 44
-50.0
173
     0
291
     1
 45
0.0
1001
ACAD
1000
AcDbSavedByObjectVersion
1070
     0
  0
VISUALSTYLE
  5
175
102
{ACAD_XDICTIONARY
360
72B
102
}
102
{ACAD_REACTORS
330
99
102
}
330
99
100
AcDbVisualStyle
  2

 70
    22
 71
     2
 72
     2
 73
     0
 90
        0
 40
-0.6
 41
-30.0
 62
     5
 63
     7
 74
     1
 91
        4
 64
     7
 65
   257
 75
     1
175
     1
 42
1.0
 92
        8
 66
     7
 43
1.0
 76
     1
 77
     6
 78
     2
 67
     7
 79
     5
170
     0
171
     0
290
     0
174
     0
 93
        1
 44
0.0
173
     0
291
     1
 45
0.0
1001
ACAD
1000
AcDbSavedByObjectVersion
1070
     0
  0
VISUALSTYLE
  5
A8
102
{ACAD_XDICTIONARY
360
723
102
}
102
{ACAD_REACTORS
330
99
102
}
330
99
100
AcDbVisualStyle
  2

 70
    15
 71
     2
 72
     2
 73
     1
 90
        0
 40
-0.6
 41
-30.0
 62
     5
 63
     7
 74
     1
 91
        4
 64
     7
 65
   257
 75
     1
175
     1
 42
1.0
 92
        8
 66
     7
 43
1.0
 76
     1
 77
     6
 78
     2
 67
     7
 79
     5
170
     0
171
     0
290
     0
174
     0
 93
        1
 44
0.0
173
     0
291
     1
 45
0.0
1001
ACAD
1000
AcDbSavedByObjectVersion
1070
     0
  0
VISUALSTYLE
  5
9A
102
{ACAD_XDICTIONARY
360
707
102
}
102
{ACAD_REACTORS
330
99
102
}
330
99
100
AcDbVisualStyle
  2

 70
     0
 71
     2
 72
     1
 73
     1
 90
        2
 40
-0.6
 41
30.0
 62
     5
 63
     7
 74
     0
 91
        4
 64
     7
 65
   257
 75
     1
175
     1
 42
1.0
 92
        8
 66
     7
 43
1.0
 76
     1
 77
     6
 78
     2
 67
     7
 79
     5
170
     0
171
     0
290
     0
174
     0
 93
        1
 44
0.0
173
     0
291
     1
 45
0.0
1001
ACAD
1000
AcDbSavedByObjectVersion
1070
     0
  0
VISUALSTYLE
  5
9B
102
{ACAD_XDICTIONARY
360
709
102
}
102
{ACAD_REACTORS
330
99
102
}
330
99
100
AcDbVisualStyle
  2

 70
     1
 71
     2
 72
     1
 73
     1
 90
        2
 40
-0.6
 41
30.0
 62
     5
 63
     7
 74
     1
 91
        4
 64
     7
 65
   257
 75
     1
175
     1
 42
1.0
 92
        0
 66
   257
 43
1.0
 76
     1
 77
     6
 78
     2
 67
     7
 79
     5
170
     0
171
     0
290
     0
174
     0
 93
        1
 44
0.0
173
     0
291
     1
 45
0.0
1001
ACAD
1000
AcDbSavedByObjectVersion
1070
     0
  0
VISUALSTYLE
  5
9C
102
{ACAD_XDICTIONARY
360
70B
102
}
102
{ACAD_REACTORS
330
99
102
}
330
99
100
AcDbVisualStyle
  2

 70
     2
 71
     2
 72
     2
 73
     1
 90
        2
 40
-0.6
 41
30.0
 62
     5
 63
     7
 74
     0
 91
        4
 64
     7
 65
   257
 75
     1
175
     1
 42
1.0
 92
        0
 66
     7
 43
1.0
 76
     1
 77
     6
 78
     2
 67
     7
 79
     5
170
     0
171
     0
290
     0
174
     0
 93
        1
 44
0.0
173
     0
291
     1
 45
0.0
1001
ACAD
1000
AcDbSavedByObjectVersion
1070
     0
  0
VISUALSTYLE
  5
9D
102
{ACAD_XDICTIONARY
360
70D
102
}
102
{ACAD_REACTORS
330
99
102
}
330
99
100
AcDbVisualStyle
  2

 70
     3
 71
     2
 72
     2
 73
     1
 90
        2
 40
-0.6
 41
30.0
 62
     5
 63
     7
 74
     1
 91
        4
 64
     7
 65
   257
 75
     1
175
     1
 42
1.0
 92
        0
 66
   257
 43
1.0
 76
     1
 77
     6
 78
     2
 67
     7
 79
     5
170
     0
171
     0
290
     0
174
     0
 93
        1
 44
0.0
173
     0
291
     1
 45
0.0
1001
ACAD
1000
AcDbSavedByObjectVersion
1070
     0
  0
VISUALSTYLE
  5
17F
102
{ACAD_XDICTIONARY
360
72F
102
}
102
{ACAD_REACTORS
330
99
102
}
330
99
100
AcDbVisualStyle
  2

 70
     6
 71
     1
 72
     2
 73
     2
 90
        0
 40
-0.6
 41
-30.0
 62
     5
 63
     7
 74
     2
 91
        2
 64
     7
 65
   257
 75
     2
175
     1
 42
40.0
 92
        0
 66
   257
 43
1.0
 76
     1
 77
     6
 78
     2
 67
     7
 79
     3
170
     0
171
     0
290
     0
174
     0
 93
        1
 44
0.0
173
     0
291
     0
 45
0.0
1001
ACAD
1000
AcDbSavedByObjectVersion
1070
     0
  0
VISUALSTYLE
  5
173
102
{ACAD_XDICTIONARY
360
727
102
}
102
{ACAD_REACTORS
330
99
102
}
330
99
100
AcDbVisualStyle
  2

 70
    20
 71
     2
 72
     2
 73
     0
 90
        0
 40
-0.6
 41
-30.0
 62
     5
 63
     7
 74
     1
 91
        4
 64
     7
 65
   257
 75
     1
175
     1
 42
1.0
 92
       10
 66
     7
 43
1.0
 76
     1
 77
     6
 78
     2
 67
     7
 79
     5
170
     0
171
     0
290
     0
174
     0
 93
        1
 44
0.0
173
     0
291
     1
 45
0.0
1001
ACAD
1000
AcDbSavedByObjectVersion
1070
     0
  0
VISUALSTYLE
  5
A7
102
{ACAD_XDICTIONARY
360
721
102
}
102
{ACAD_REACTORS
330
99
102
}
330
99
100
AcDbVisualStyle
  2

 70
    14
 71
     2
 72
     2
 73
     1
 90
        0
 40
-0.6
 41
-30.0
 62
     5
 63
     7
 74
     1
 91
        4
 64
     7
 65
   257
 75
     7
175
     7
 42
1.0
 92
        8
 66
     7
 43
1.0
 76
     1
 77
     6
 78
     2
 67
     7
 79
     5
170
     0
171
     0
290
     0
174
     0
 93
        1
 44
0.0
173
     0
291
     1
 45
0.0
1001
ACAD
1000
AcDbSavedByObjectVersion
1070
     0
  0
VISUALSTYLE
  5
174
102
{ACAD_XDICTIONARY
360
729
102
}
102
{ACAD_REACTORS
330
99
102
}
330
99
100
AcDbVisualStyle
  2

 70
    21
 71
     2
 72
     2
 73
     0
 90
        0
 40
-0.6
 41
-30.0
 62
     5
 63
     7
 74
     1
 91
        4
 64
     7
 65
   257
 75
     1
175
     1
 42
1.0
 92
        9
 66
     7
 43
1.0
 76
     1
 77
     6
 78
     2
 67
     7
 79
     5
170
     0
171
     0
290
     0
174
     0
 93
        1
 44
0.0
173
     0
291
     1
 45
0.0
1001
ACAD
1000
AcDbSavedByObjectVersion
1070
     0
  0
VISUALSTYLE
  5
A3
102
{ACAD_XDICTIONARY
360
719
102
}
102
{ACAD_REACTORS
330
99
102
}
330
99
100
AcDbVisualStyle
  2

 70
     8
 71
     2
 72
     2
 73
     1
 90
        0
 40
-0.6
 41
-30.0
 62
     5
 63
     7
 74
     1
 91
        0
 64
     7
 65
   257
 75
     1
175
     1
 42
1.0
 92
        8
 66
     8
 43
1.0
 76
     1
 77
     6
 78
     2
 67
     7
 79
     5
170
     0
171
     0
290
     0
174
     0
 93
       13
 44
0.0
173
     0
291
     0
 45
0.0
1001
ACAD
1000
AcDbSavedByObjectVersion
1070
     0
  0
VISUALSTYLE
  5
184
102
{ACAD_XDICTIONARY
360
739
102
}
102
{ACAD_REACTORS
330
99
102
}
330
99
100
AcDbVisualStyle
  2

 70
    27
 71
     2
 72
     2
 73
     1
 90
        2
 40
-0.6
 41
30.0
 62
     5
 63
     7
 74
     0
 91
        4
 64
     7
 65
   257
 75
     1
175
     1
 42
1.0
 92
        8
 66
   257
 43
1.0
 76
     1
 77
     6
 78
     2
 67
     8
 79
     3
170
     0
171
     0
290
     0
174
     0
 93
        5
 44
0.0
173
     0
291
     0
 45
0.0
1001
ACAD
1000
AcDbSavedByObjectVersion
1070
     0
  0
VISUALSTYLE
  5
183
102
{ACAD_XDICTIONARY
360
737
102
}
102
{ACAD_REACTORS
330
99
102
}
330
99
100
AcDbVisualStyle
  2

 70
    26
 71
     2
 72
     2
 73
     1
 90
        2
 40
-0.6
 41
30.0
 62
     5
 63
     7
 74
     1
 91
       10
 64
     7
 65
   257
 75
     2
175
     1
 42
1.0
 92
        8
 66
   257
 43
1.0
 76
     1
 77
     6
 78
     2
 67
     7
 79
     3
170
     0
171
     0
290
     0
174
     0
 93
        5
 44
0.0
173
     0
291
     0
 45
0.0
1001
ACAD
1000
AcDbSavedByObjectVersion
1070
     0
  0
VISUALSTYLE
  5
180
102
{ACAD_XDICTIONARY
360
731
102
}
102
{ACAD_REACTORS
330
99
102
}
330
99
100
AcDbVisualStyle
  2

 70
    23
 71
     2
 72
     2
 73
     3
 90
        0
 40
-0.6
 41
-30.0
 62
     5
 63
     7
 74
     2
 91
        2
 64
     7
 65
     7
 75
     1
175
     1
 42
40.0
 92
        8
 66
     7
 43
1.0
 76
     1
 77
     6
 78
     2
 67
     7
 79
     3
170
     0
171
     0
290
     0
174
     0
 93
        1
 44
0.0
173
     0
291
     0
 45
0.0
1001
ACAD
1000
AcDbSavedByObjectVersion
1070
     0
  0
VISUALSTYLE
  5
181
102
{ACAD_XDICTIONARY
360
733
102
}
102
{ACAD_REACTORS
330
99
102
}
330
99
100
AcDbVisualStyle
  2

 70
    24
 71
     1
 72
     2
 73
     2
 90
        0
 40
-0.6
 41
-30.0
 62
     5
 63
     7
 74
     2
 91
        2
 64
     7
 65
     7
 75
     1
175
     1
 42
40.0
 92
       11
 66
     7
 43
1.0
 76
     1
 77
     6
 78
     2
 67
     7
 79
     6
170
     0
171
     0
290
     0
174
     0
 93
        1
 44
0.0
173
     0
291
     0
 45
0.0
1001
ACAD
1000
AcDbSavedByObjectVersion
1070
     0
  0
VISUALSTYLE
  5
A6
102
{ACAD_XDICTIONARY
360
71F
102
}
102
{ACAD_REACTORS
330
99
102
}
330
99
100
AcDbVisualStyle
  2

 70
    13
 71
     2
 72
     2
 73
     1
 90
        0
 40
-0.6
 41
-30.0
 62
     5
 63
     7
 74
     1
 91
        4
 64
     7
 65
   257
 75
     1
175
     1
 42
1.0
 92
       12
 66
     7
 43
1.0
 76
     1
 77
     6
 78
     2
 67
     7
 79
     5
170
     0
171
     0
290
     0
174
     0
 93
        1
 44
0.0
173
     0
291
     1
 45
0.0
1001
ACAD
1000
AcDbSavedByObjectVersion
1070
     0
  0
VISUALSTYLE
  5
17E
102
{ACAD_XDICTIONARY
360
72D
102
}
102
{ACAD_REACTORS
330
99
102
}
330
99
100
AcDbVisualStyle
  2

 70
     5
 71
     0
 72
     2
 73
     0
 90
        0
 40
-0.6
 41
-30.0
 62
     5
 63
     7
 74
     1
 91
        4
 64
     7
 65
   257
 75
     1
175
     1
 42
1.0
 92
        0
 66
   257
 43
1.0
 76
     1
 77
     6
 78
     2
 67
     7
 79
     3
170
     0
171
     0
290
     0
174
     0
 93
        1
 44
0.0
173
     0
291
     0
 45
0.0
1001
ACAD
1000
AcDbSavedByObjectVersion
1070
     0
  0
VISUALSTYLE
  5
182
102
{ACAD_XDICTIONARY
360
735
102
}
102
{ACAD_REACTORS
330
99
102
}
330
99
100
AcDbVisualStyle
  2

 70
    25
 71
     2
 72
     2
 73
     1
 90
        1
 40
0.5
 41
-30.0
 62
     5
 63
     7
 74
     1
 91
        0
 64
     7
 65
   257
 75
     1
175
     1
 42
1.0
 92
        8
 66
     7
 43
1.0
 76
     1
 77
     6
 78
     2
 67
     7
 79
     3
170
     0
171
     0
290
     0
174
     0
 93
       13
 44
0.0
173
     0
291
     0
 45
0.0
1001
ACAD
1000
AcDbSavedByObjectVersion
1070
     0
  0
DICTIONARYVAR
  5
F0
102
{ACAD_REACTORS
330
66
102
}
330
66
100
DictionaryVariables
280
     0
  1
1:1
  0
DICTIONARYVAR
  5
EF
102
{ACAD_REACTORS
330
66
102
}
330
66
100
DictionaryVariables
280
     0
  1
STANDARD
  0
DICTIONARYVAR
  5
89
102
{ACAD_REACTORS
330
66
102
}
330
66
100
DictionaryVariables
280
     0
  1
STANDARD
  0
DICTIONARYVAR
  5
67
102
{ACAD_REACTORS
330
66
102
}
330
66
100
DictionaryVariables
280
     0
  1
2
  0
DICTIONARYVAR
  5
6B
102
{ACAD_REACTORS
330
66
102
}
330
66
100
DictionaryVariables
280
     0
  1
1
  0
DICTIONARYVAR
  5
39E
102
{ACAD_REACTORS
330
66
102
}
330
66
100
DictionaryVariables
280
     0
  1
0
  0
DICTIONARYVAR
  5
14D
102
{ACAD_REACTORS
330
66
102
}
330
66
100
DictionaryVariables
280
     0
  1
0
  0
DICTIONARYVAR
  5
14E
102
{ACAD_REACTORS
330
66
102
}
330
66
100
DictionaryVariables
280
     0
  1
0
  0
DICTIONARYVAR
  5
39C
102
{ACAD_REACTORS
330
66
102
}
330
66
100
DictionaryVariables
280
     0
  1
2
  0
DICTIONARYVAR
  5
39B
102
{ACAD_REACTORS
330
66
102
}
330
66
100
DictionaryVariables
280
     0
  1
1
  0
DICTIONARYVAR
  5
39F
102
{ACAD_REACTORS
330
66
102
}
330
66
100
DictionaryVariables
280
     0
  1
1
  0
DICTIONARYVAR
  5
39D
102
{ACAD_REACTORS
330
66
102
}
330
66
100
DictionaryVariables
280
     0
  1
127
  0
DICTIONARYVAR
  5
6F7
102
{ACAD_REACTORS
330
66
102
}
330
66
100
DictionaryVariables
280
     0
  1
2
  0
DICTIONARY
  5
702
330
59
100
AcDbDictionary
280
     1
281
     1
  3
ACAD_XREC_ROUNDTRIP
360
703
  0
DICTIONARY
  5
704
330
5E
100
AcDbDictionary
280
     1
281
     1
  3
ACAD_XREC_ROUNDTRIP
360
705
  0
DICTIONARY
  5
700
330
22
100
AcDbDictionary
280
     1
281
     1
  3
ACAD_XREC_ROUNDTRIP
360
701
  0
DICTIONARY
  5
3B2
330
97
100
AcDbDictionary
280
     1
281
     1
  3
ACAD_XREC_ROUNDTRIP
360
3B3
  0
DICTIONARY
  5
3B0
330
96
100
AcDbDictionary
280
     1
281
     1
  3
ACAD_XREC_ROUNDTRIP
360
3B1
  0
DICTIONARY
  5
110
330
98
100
AcDbDictionary
280
     1
281
     1
  3
ACAD_XREC_ROUNDTRIP
360
3B4
  3
BUMPTILE
360
112
  3
DIFFUSETILE
360
111
  3
OPACITYTILE
360
113
  3
REFLECTIONTILE
360
114
  0
DICTIONARY
  5
6FB
330
E5
100
AcDbDictionary
280
     1
281
     1
  3
ACAD_XREC_ROUNDTRIP
360
6FC
  0
DICTIONARY
  5
6F9
330
D8
100
AcDbDictionary
280
     1
281
     1
  3
ACAD_XREC_ROUNDTRIP
360
6FA
  0
DICTIONARY
  5
104
330
87
100
AcDbDictionary
280
     1
281
     1
  3
ACAD_ROUNDTRIP_2008_TABLESTYLE_CELLSTYLEMAP
360
6F8
  3
ACAD_XREC_ROUNDTRIP
360
706
  0
DICTIONARY
  5
711
330
9F
100
AcDbDictionary
280
     1
281
     1
  3
ACAD_XREC_ROUNDTRIP
360
712
  0
DICTIONARY
  5
715
330
A1
100
AcDbDictionary
280
     1
281
     1
  3
ACAD_XREC_ROUNDTRIP
360
716
  0
DICTIONARY
  5
713
330
A0
100
AcDbDictionary
280
     1
281
     1
  3
ACAD_XREC_ROUNDTRIP
360
714
  0
DICTIONARY
  5
70F
330
9E
100
AcDbDictionary
280
     1
281
     1
  3
ACAD_XREC_ROUNDTRIP
360
710
  0
DICTIONARY
  5
71D
330
A5
100
AcDbDictionary
280
     1
281
     1
  3
ACAD_XREC_ROUNDTRIP
360
71E
  0
DICTIONARY
  5
725
330
A9
100
AcDbDictionary
280
     1
281
     1
  3
ACAD_XREC_ROUNDTRIP
360
726
  0
DICTIONARY
  5
717
330
A2
100
AcDbDictionary
280
     1
281
     1
  3
ACAD_XREC_ROUNDTRIP
360
718
  0
DICTIONARY
  5
71B
330
A4
100
AcDbDictionary
280
     1
281
     1
  3
ACAD_XREC_ROUNDTRIP
360
71C
  0
DICTIONARY
  5
72B
330
175
100
AcDbDictionary
280
     1
281
     1
  3
ACAD_XREC_ROUNDTRIP
360
72C
  0
DICTIONARY
  5
723
330
A8
100
AcDbDictionary
280
     1
281
     1
  3
ACAD_XREC_ROUNDTRIP
360
724
  0
DICTIONARY
  5
707
330
9A
100
AcDbDictionary
280
     1
281
     1
  3
ACAD_XREC_ROUNDTRIP
360
708
  0
DICTIONARY
  5
709
330
9B
100
AcDbDictionary
280
     1
281
     1
  3
ACAD_XREC_ROUNDTRIP
360
70A
  0
DICTIONARY
  5
70B
330
9C
100
AcDbDictionary
280
     1
281
     1
  3
ACAD_XREC_ROUNDTRIP
360
70C
  0
DICTIONARY
  5
70D
330
9D
100
AcDbDictionary
280
     1
281
     1
  3
ACAD_XREC_ROUNDTRIP
360
70E
  0
DICTIONARY
  5
72F
330
17F
100
AcDbDictionary
280
     1
281
     1
  3
ACAD_XREC_ROUNDTRIP
360
730
  0
DICTIONARY
  5
727
330
173
100
AcDbDictionary
280
     1
281
     1
  3
ACAD_XREC_ROUNDTRIP
360
728
  0
DICTIONARY
  5
721
330
A7
100
AcDbDictionary
280
     1
281
     1
  3
ACAD_XREC_ROUNDTRIP
360
722
  0
DICTIONARY
  5
729
330
174
100
AcDbDictionary
280
     1
281
     1
  3
ACAD_XREC_ROUNDTRIP
360
72A
  0
DICTIONARY
  5
719
330
A3
100
AcDbDictionary
280
     1
281
     1
  3
ACAD_XREC_ROUNDTRIP
360
71A
  0
DICTIONARY
  5
739
330
184
100
AcDbDictionary
280
     1
281
     1
  3
ACAD_XREC_ROUNDTRIP
360
73A
  0
DICTIONARY
  5
737
330
183
100
AcDbDictionary
280
     1
281
     1
  3
ACAD_XREC_ROUNDTRIP
360
738
  0
DICTIONARY
  5
731
330
180
100
AcDbDictionary
280
     1
281
     1
  3
ACAD_XREC_ROUNDTRIP
360
732
  0
DICTIONARY
  5
733
330
181
100
AcDbDictionary
280
     1
281
     1
  3
ACAD_XREC_ROUNDTRIP
360
734
  0
DICTIONARY
  5
71F
330
A6
100
AcDbDictionary
280
     1
281
     1
  3
ACAD_XREC_ROUNDTRIP
360
720
  0
DICTIONARY
  5
72D
330
17E
100
AcDbDictionary
280
     1
281
     1
  3
ACAD_XREC_ROUNDTRIP
360
72E
  0
DICTIONARY
  5
735
330
182
100
AcDbDictionary
280
     1
281
     1
  3
ACAD_XREC_ROUNDTRIP
360
736
  0
XRECORD
  5
703
102
{ACAD_REACTORS
330
702
102
}
330
702
100
AcDbXrecord
280
     1
102
SHADEPLOT
 70
     0
102
SHADEPLOTRESLEVEL
 70
     2
102
SHADEPLOTCUSTOMDPI
 70
   300
  0
XRECORD
  5
705
102
{ACAD_REACTORS
330
704
102
}
330
704
100
AcDbXrecord
280
     1
102
SHADEPLOT
 70
     0
102
SHADEPLOTRESLEVEL
 70
     2
102
SHADEPLOTCUSTOMDPI
 70
   300
  0
XRECORD
  5
701
102
{ACAD_REACTORS
330
700
102
}
330
700
100
AcDbXrecord
280
     1
102
SHADEPLOT
 70
     0
102
SHADEPLOTRESLEVEL
 70
     2
102
SHADEPLOTCUSTOMDPI
 70
   300
  0
XRECORD
  5
3B3
102
{ACAD_REACTORS
330
3B2
102
}
330
3B2
100
AcDbXrecord
280
     1
102
MATERIAL
148
0.0
149
0.0
149
0.0
 93
        0
 94
      127
282
     0
 72
     1
 77
     1
171
     1
175
     1
179
     1
273
     0
  0
XRECORD
  5
3B1
102
{ACAD_REACTORS
330
3B0
102
}
330
3B0
100
AcDbXrecord
280
     1
102
MATERIAL
148
0.0
149
0.0
149
0.0
 93
        0
 94
      127
282
     0
 72
     1
 77
     1
171
     1
175
     1
179
     1
273
     0
  0
XRECORD
  5
3B4
102
{ACAD_REACTORS
330
110
102
}
330
110
100
AcDbXrecord
280
     1
102
MATERIAL
148
0.0
149
0.0
149
0.0
 93
        0
 94
      127
282
     0
 72
     1
 77
     1
171
     1
175
     1
179
     1
273
     0
  0
XRECORD
  5
112
102
{ACAD_REACTORS
330
110
102
}
330
110
100
AcDbXrecord
280
     1
270
     1
271
     1
  0
XRECORD
  5
111
102
{ACAD_REACTORS
330
110
102
}
330
110
100
AcDbXrecord
280
     1
270
     1
271
     1
  0
XRECORD
  5
113
102
{ACAD_REACTORS
330
110
102
}
330
110
100
AcDbXrecord
280
     1
270
     1
271
     1
  0
XRECORD
  5
114
102
{ACAD_REACTORS
330
110
102
}
330
110
100
AcDbXrecord
280
     1
270
     1
271
     1
  0
XRECORD
  5
6FC
102
{ACAD_REACTORS
330
6FB
102
}
330
6FB
100
AcDbXrecord
280
     1
102
ACAD_ROUNDTRIP_2012_MLEADER_STYLE
298
     1
  0
XRECORD
  5
6FA
102
{ACAD_REACTORS
330
6F9
102
}
330
6F9
100
AcDbXrecord
280
     1
102
ACAD_ROUNDTRIP_2012_MLEADER_STYLE
298
     1
  0
CELLSTYLEMAP
  5
6F8
102
{ACAD_REACTORS
330
104
102
}
330
104
100
AcDbCellStyleMap
 90
        3
300
CELLSTYLE
  1
TABLEFORMAT_BEGIN
 90
        5
170
     1
 91
        0
 92
    32768
 62
   257
 93
        1
300
CONTENTFORMAT
  1
CONTENTFORMAT_BEGIN
 90
        0
 91
        0
 92
      512
 93
        0
300

 40
0.0
140
1.0
 94
        5
 62
     0
340
11
144
0.25
309
CONTENTFORMAT_END
171
     1
301
MARGIN
  1
CELLMARGIN_BEGIN
 40
0.06
 40
0.06
 40
0.06
 40
0.06
 40
0.18
 40
0.18
309
CELLMARGIN_END
 94
        6
 95
        1
302
GRIDFORMAT
  1
GRIDFORMAT_BEGIN
 90
        0
 91
        1
 62
     0
 92
       -2
340
0
 93
        0
 40
0.045
309
GRIDFORMAT_END
 95
        2
302
GRIDFORMAT
  1
GRIDFORMAT_BEGIN
 90
        0
 91
        1
 62
     0
 92
       -2
340
0
 93
        0
 40
0.045
309
GRIDFORMAT_END
 95
        4
302
GRIDFORMAT
  1
GRIDFORMAT_BEGIN
 90
        0
 91
        1
 62
     0
 92
       -2
340
0
 93
        0
 40
0.045
309
GRIDFORMAT_END
 95
        8
302
GRIDFORMAT
  1
GRIDFORMAT_BEGIN
 90
        0
 91
        1
 62
     0
 92
       -2
340
0
 93
        0
 40
0.045
309
GRIDFORMAT_END
 95
       16
302
GRIDFORMAT
  1
GRIDFORMAT_BEGIN
 90
        0
 91
        1
 62
     0
 92
       -2
340
0
 93
        0
 40
0.045
309
GRIDFORMAT_END
 95
       32
302
GRIDFORMAT
  1
GRIDFORMAT_BEGIN
 90
        0
 91
        1
 62
     0
 92
       -2
340
0
 93
        0
 40
0.045
309
GRIDFORMAT_END
309
TABLEFORMAT_END
  1
CELLSTYLE_BEGIN
 90
        1
 91
        1
300
_TITLE
309
CELLSTYLE_END
300
CELLSTYLE
  1
TABLEFORMAT_BEGIN
 90
        5
170
     1
 91
        0
 92
        0
 62
   257
 93
        1
300
CONTENTFORMAT
  1
CONTENTFORMAT_BEGIN
 90
        0
 91
        0
 92
      512
 93
        0
300

 40
0.0
140
1.0
 94
        5
 62
     0
340
11
144
0.18
309
CONTENTFORMAT_END
171
     1
301
MARGIN
  1
CELLMARGIN_BEGIN
 40
0.06
 40
0.06
 40
0.06
 40
0.06
 40
0.18
 40
0.18
309
CELLMARGIN_END
 94
        6
 95
        1
302
GRIDFORMAT
  1
GRIDFORMAT_BEGIN
 90
        0
 91
        1
 62
     0
 92
       -2
340
0
 93
        0
 40
0.045
309
GRIDFORMAT_END
 95
        2
302
GRIDFORMAT
  1
GRIDFORMAT_BEGIN
 90
        0
 91
        1
 62
     0
 92
       -2
340
0
 93
        0
 40
0.045
309
GRIDFORMAT_END
 95
        4
302
GRIDFORMAT
  1
GRIDFORMAT_BEGIN
 90
        0
 91
        1
 62
     0
 92
       -2
340
0
 93
        0
 40
0.045
309
GRIDFORMAT_END
 95
        8
302
GRIDFORMAT
  1
GRIDFORMAT_BEGIN
 90
        0
 91
        1
 62
     0
 92
       -2
340
0
 93
        0
 40
0.045
309
GRIDFORMAT_END
 95
       16
302
GRIDFORMAT
  1
GRIDFORMAT_BEGIN
 90
        0
 91
        1
 62
     0
 92
       -2
340
0
 93
        0
 40
0.045
309
GRIDFORMAT_END
 95
       32
302
GRIDFORMAT
  1
GRIDFORMAT_BEGIN
 90
        0
 91
        1
 62
     0
 92
       -2
340
0
 93
        0
 40
0.045
309
GRIDFORMAT_END
309
TABLEFORMAT_END
  1
CELLSTYLE_BEGIN
 90
        2
 91
        1
300
_HEADER
309
CELLSTYLE_END
300
CELLSTYLE
  1
TABLEFORMAT_BEGIN
 90
        5
170
     1
 91
        0
 92
        0
 62
   257
 93
        1
300
CONTENTFORMAT
  1
CONTENTFORMAT_BEGIN
 90
        0
 91
        0
 92
      512
 93
        0
300

 40
0.0
140
1.0
 94
        2
 62
     0
340
11
144
0.18
309
CONTENTFORMAT_END
171
     1
301
MARGIN
  1
CELLMARGIN_BEGIN
 40
0.06
 40
0.06
 40
0.06
 40
0.06
 40
0.18
 40
0.18
309
CELLMARGIN_END
 94
        6
 95
        1
302
GRIDFORMAT
  1
GRIDFORMAT_BEGIN
 90
        0
 91
        1
 62
     0
 92
       -2
340
0
 93
        0
 40
0.045
309
GRIDFORMAT_END
 95
        2
302
GRIDFORMAT
  1
GRIDFORMAT_BEGIN
 90
        0
 91
        1
 62
     0
 92
       -2
340
0
 93
        0
 40
0.045
309
GRIDFORMAT_END
 95
        4
302
GRIDFORMAT
  1
GRIDFORMAT_BEGIN
 90
        0
 91
        1
 62
     0
 92
       -2
340
0
 93
        0
 40
0.045
309
GRIDFORMAT_END
 95
        8
302
GRIDFORMAT
  1
GRIDFORMAT_BEGIN
 90
        0
 91
        1
 62
     0
 92
       -2
340
0
 93
        0
 40
0.045
309
GRIDFORMAT_END
 95
       16
302
GRIDFORMAT
  1
GRIDFORMAT_BEGIN
 90
        0
 91
        1
 62
     0
 92
       -2
340
0
 93
        0
 40
0.045
309
GRIDFORMAT_END
 95
       32
302
GRIDFORMAT
  1
GRIDFORMAT_BEGIN
 90
        0
 91
        1
 62
     0
 92
       -2
340
0
 93
        0
 40
0.045
309
GRIDFORMAT_END
309
TABLEFORMAT_END
  1
CELLSTYLE_BEGIN
 90
        3
 91
        2
300
_DATA
309
CELLSTYLE_END
  0
XRECORD
  5
706
102
{ACAD_REACTORS
330
104
102
}
330
104
100
AcDbXrecord
280
     1
102
ACAD_ROUNDTRIP_PRE2007_TABLESTYLE
 90
      512
 91
        0
  1

 92
      512
 93
        0
  2

 94
      512
 95
        0
  3

  0
XRECORD
  5
712
102
{ACAD_REACTORS
330
711
102
}
330
711
100
AcDbXrecord
280
     1
102
RTVSPropertyOp0
 70
     1
102
RTVSPropertyOp1
 70
     1
102
RTVSPropertyOp2
 70
     1
102
RTVSPropertyOp3
 70
     1
102
RTVSPropertyOp4
 70
     1
102
RTVSPropertyOp5
 70
     1
102
RTVSPropertyOp6
 70
     1
102
RTVSPropertyOp7
 70
     1
102
RTVSPropertyOp8
 70
     1
102
RTVSPropertyOp9
 70
     1
102
RTVSPropertyOp10
 70
     1
102
RTVSPropertyOp11
 70
     1
102
RTVSPropertyOp12
 70
     1
102
RTVSPropertyOp13
 70
     1
102
RTVSPropertyOp14
 70
     1
102
RTVSPropertyOp15
 70
     1
102
RTVSPropertyOp16
 70
     1
102
RTVSPropertyOp17
 70
     1
102
RTVSPropertyOp18
 70
     1
102
RTVSPropertyOp19
 70
     1
102
RTVSPropertyOp20
 70
     1
102
RTVSPropertyOp21
 70
     1
102
RTVSPropertyOp22
 70
     1
102
RTVSPropertyOp23
 70
     1
102
RTVSPropertyOp24
 70
     1
102
RTVSPropertyOp25
 70
     1
102
RTVSPropertyOp26
 70
     1
102
RTVSPropertyOp27
 70
     1
102
RTVSPropertyOp28
 70
     1
102
RTVSPropertyOp29
 70
     1
102
RTVSPropertyOp30
 70
     1
102
RTVSPropertyOp31
 70
     1
102
RTVSPropertyOp32
 70
     1
  0
XRECORD
  5
716
102
{ACAD_REACTORS
330
715
102
}
330
715
100
AcDbXrecord
280
     1
102
RTVSPropertyOp0
 70
     1
102
RTVSPropertyOp1
 70
     1
102
RTVSPropertyOp2
 70
     1
102
RTVSPropertyOp3
 70
     1
102
RTVSPropertyOp4
 70
     1
102
RTVSPropertyOp5
 70
     1
102
RTVSPropertyOp6
 70
     1
102
RTVSPropertyOp7
 70
     1
102
RTVSPropertyOp8
 70
     1
102
RTVSPropertyOp9
 70
     1
102
RTVSPropertyOp10
 70
     1
102
RTVSPropertyOp11
 70
     1
102
RTVSPropertyOp12
 70
     1
102
RTVSPropertyOp13
 70
     1
102
RTVSPropertyOp14
 70
     1
102
RTVSPropertyOp15
 70
     1
102
RTVSPropertyOp16
 70
     1
102
RTVSPropertyOp17
 70
     1
102
RTVSPropertyOp18
 70
     1
102
RTVSPropertyOp19
 70
     1
102
RTVSPropertyOp20
 70
     1
102
RTVSPropertyOp21
 70
     1
102
RTVSPropertyOp22
 70
     1
102
RTVSPropertyOp23
 70
     1
102
RTVSPropertyOp24
 70
     1
102
RTVSPropertyOp25
 70
     1
102
RTVSPropertyOp26
 70
     1
102
RTVSPropertyOp27
 70
     1
102
RTVSPropertyOp28
 70
     1
102
RTVSPropertyOp29
 70
     1
102
RTVSPropertyOp30
 70
     1
102
RTVSPropertyOp31
 70
     1
102
RTVSPropertyOp32
 70
     1
  0
XRECORD
  5
714
102
{ACAD_REACTORS
330
713
102
}
330
713
100
AcDbXrecord
280
     1
102
RTVSPropertyOp0
 70
     1
102
RTVSPropertyOp1
 70
     1
102
RTVSPropertyOp2
 70
     1
102
RTVSPropertyOp3
 70
     1
102
RTVSPropertyOp4
 70
     1
102
RTVSPropertyOp5
 70
     1
102
RTVSPropertyOp6
 70
     1
102
RTVSPropertyOp7
 70
     1
102
RTVSPropertyOp8
 70
     1
102
RTVSPropertyOp9
 70
     1
102
RTVSPropertyOp10
 70
     1
102
RTVSPropertyOp11
 70
     1
102
RTVSPropertyOp12
 70
     1
102
RTVSPropertyOp13
 70
     1
102
RTVSPropertyOp14
 70
     1
102
RTVSPropertyOp15
 70
     1
102
RTVSPropertyOp16
 70
     1
102
RTVSPropertyOp17
 70
     1
102
RTVSPropertyOp18
 70
     1
102
RTVSPropertyOp19
 70
     1
102
RTVSPropertyOp20
 70
     1
102
RTVSPropertyOp21
 70
     1
102
RTVSPropertyOp22
 70
     1
102
RTVSPropertyOp23
 70
     1
102
RTVSPropertyOp24
 70
     1
102
RTVSPropertyOp25
 70
     1
102
RTVSPropertyOp26
 70
     1
102
RTVSPropertyOp27
 70
     1
102
RTVSPropertyOp28
 70
     1
102
RTVSPropertyOp29
 70
     1
102
RTVSPropertyOp30
 70
     1
102
RTVSPropertyOp31
 70
     1
102
RTVSPropertyOp32
 70
     1
  0
XRECORD
  5
710
102
{ACAD_REACTORS
330
70F
102
}
330
70F
100
AcDbXrecord
280
     1
102
RTVSPropertyOp0
 70
     1
102
RTVSPropertyOp1
 70
     1
102
RTVSPropertyOp2
 70
     1
102
RTVSPropertyOp3
 70
     1
102
RTVSPropertyOp4
 70
     1
102
RTVSPropertyOp5
 70
     1
102
RTVSPropertyOp6
 70
     1
102
RTVSPropertyOp7
 70
     1
102
RTVSPropertyOp8
 70
     1
102
RTVSPropertyOp9
 70
     1
102
RTVSPropertyOp10
 70
     1
102
RTVSPropertyOp11
 70
     1
102
RTVSPropertyOp12
 70
     1
102
RTVSPropertyOp13
 70
     1
102
RTVSPropertyOp14
 70
     1
102
RTVSPropertyOp15
 70
     1
102
RTVSPropertyOp16
 70
     1
102
RTVSPropertyOp17
 70
     1
102
RTVSPropertyOp18
 70
     1
102
RTVSPropertyOp19
 70
     1
102
RTVSPropertyOp20
 70
     1
102
RTVSPropertyOp21
 70
     1
102
RTVSPropertyOp22
 70
     1
102
RTVSPropertyOp23
 70
     1
102
RTVSPropertyOp24
 70
     1
102
RTVSPropertyOp25
 70
     1
102
RTVSPropertyOp26
 70
     1
102
RTVSPropertyOp27
 70
     1
102
RTVSPropertyOp28
 70
     1
102
RTVSPropertyOp29
 70
     1
102
RTVSPropertyOp30
 70
     1
102
RTVSPropertyOp31
 70
     1
102
RTVSPropertyOp32
 70
     1
  0
XRECORD
  5
71E
102
{ACAD_REACTORS
330
71D
102
}
330
71D
100
AcDbXrecord
280
     1
102
RTVSPropertyOp0
 70
     1
102
RTVSPropertyOp1
 70
     1
102
RTVSPropertyOp2
 70
     1
102
RTVSPropertyOp3
 70
     1
102
RTVSPropertyOp4
 70
     1
102
RTVSPropertyOp5
 70
     1
102
RTVSPropertyOp6
 70
     1
102
RTVSPropertyOp7
 70
     1
102
RTVSPropertyOp8
 70
     1
102
RTVSPropertyOp9
 70
     1
102
RTVSPropertyOp10
 70
     1
102
RTVSPropertyOp11
 70
     1
102
RTVSPropertyOp12
 70
     1
102
RTVSPropertyOp13
 70
     1
102
RTVSPropertyOp14
 70
     1
102
RTVSPropertyOp15
 70
     1
102
RTVSPropertyOp16
 70
     1
102
RTVSPropertyOp17
 70
     1
102
RTVSPropertyOp18
 70
     1
102
RTVSPropertyOp19
 70
     1
102
RTVSPropertyOp20
 70
     1
102
RTVSPropertyOp21
 70
     1
102
RTVSPropertyOp22
 70
     1
102
RTVSPropertyOp23
 70
     1
102
RTVSPropertyOp24
 70
     1
102
RTVSPropertyOp25
 70
     1
102
RTVSPropertyOp26
 70
     1
102
RTVSPropertyOp27
 70
     1
102
RTVSPropertyOp28
 70
     1
102
RTVSPropertyOp29
 70
     1
102
RTVSPropertyOp30
 70
     1
102
RTVSPropertyOp31
 70
     1
102
RTVSPropertyOp32
 70
     1
  0
XRECORD
  5
726
102
{ACAD_REACTORS
330
725
102
}
330
725
100
AcDbXrecord
280
     1
102
RTVSPropertyOp0
 70
     1
102
RTVSPropertyOp1
 70
     1
102
RTVSPropertyOp2
 70
     1
102
RTVSPropertyOp3
 70
     1
102
RTVSPropertyOp4
 70
     1
102
RTVSPropertyOp5
 70
     1
102
RTVSPropertyOp6
 70
     1
102
RTVSPropertyOp7
 70
     1
102
RTVSPropertyOp8
 70
     1
102
RTVSPropertyOp9
 70
     1
102
RTVSPropertyOp10
 70
     1
102
RTVSPropertyOp11
 70
     1
102
RTVSPropertyOp12
 70
     1
102
RTVSPropertyOp13
 70
     1
102
RTVSPropertyOp14
 70
     1
102
RTVSPropertyOp15
 70
     1
102
RTVSPropertyOp16
 70
     1
102
RTVSPropertyOp17
 70
     1
102
RTVSPropertyOp18
 70
     1
102
RTVSPropertyOp19
 70
     1
102
RTVSPropertyOp20
 70
     1
102
RTVSPropertyOp21
 70
     1
102
RTVSPropertyOp22
 70
     1
102
RTVSPropertyOp23
 70
     1
102
RTVSPropertyOp24
 70
     1
102
RTVSPropertyOp25
 70
     1
102
RTVSPropertyOp26
 70
     1
102
RTVSPropertyOp27
 70
     1
102
RTVSPropertyOp28
 70
     1
102
RTVSPropertyOp29
 70
     1
102
RTVSPropertyOp30
 70
     1
102
RTVSPropertyOp31
 70
     1
102
RTVSPropertyOp32
 70
     1
  0
XRECORD
  5
718
102
{ACAD_REACTORS
330
717
102
}
330
717
100
AcDbXrecord
280
     1
102
RTVSPropertyOp0
 70
     1
102
RTVSPropertyOp1
 70
     1
102
RTVSPropertyOp2
 70
     1
102
RTVSPropertyOp3
 70
     1
102
RTVSPropertyOp4
 70
     1
102
RTVSPropertyOp5
 70
     1
102
RTVSPropertyOp6
 70
     1
102
RTVSPropertyOp7
 70
     1
102
RTVSPropertyOp8
 70
     1
102
RTVSPropertyOp9
 70
     1
102
RTVSPropertyOp10
 70
     1
102
RTVSPropertyOp11
 70
     1
102
RTVSPropertyOp12
 70
     1
102
RTVSPropertyOp13
 70
     1
102
RTVSPropertyOp14
 70
     1
102
RTVSPropertyOp15
 70
     1
102
RTVSPropertyOp16
 70
     1
102
RTVSPropertyOp17
 70
     1
102
RTVSPropertyOp18
 70
     1
102
RTVSPropertyOp19
 70
     1
102
RTVSPropertyOp20
 70
     1
102
RTVSPropertyOp21
 70
     1
102
RTVSPropertyOp22
 70
     1
102
RTVSPropertyOp23
 70
     1
102
RTVSPropertyOp24
 70
     1
102
RTVSPropertyOp25
 70
     1
102
RTVSPropertyOp26
 70
     1
102
RTVSPropertyOp27
 70
     1
102
RTVSPropertyOp28
 70
     1
102
RTVSPropertyOp29
 70
     1
102
RTVSPropertyOp30
 70
     1
102
RTVSPropertyOp31
 70
     1
102
RTVSPropertyOp32
 70
     1
  0
XRECORD
  5
71C
102
{ACAD_REACTORS
330
71B
102
}
330
71B
100
AcDbXrecord
280
     1
102
RTVSPropertyOp0
 70
     1
102
RTVSPropertyOp1
 70
     1
102
RTVSPropertyOp2
 70
     1
102
RTVSPropertyOp3
 70
     1
102
RTVSPropertyOp4
 70
     1
102
RTVSPropertyOp5
 70
     1
102
RTVSPropertyOp6
 70
     1
102
RTVSPropertyOp7
 70
     1
102
RTVSPropertyOp8
 70
     1
102
RTVSPropertyOp9
 70
     1
102
RTVSPropertyOp10
 70
     1
102
RTVSPropertyOp11
 70
     1
102
RTVSPropertyOp12
 70
     1
102
RTVSPropertyOp13
 70
     1
102
RTVSPropertyOp14
 70
     1
102
RTVSPropertyOp15
 70
     1
102
RTVSPropertyOp16
 70
     1
102
RTVSPropertyOp17
 70
     1
102
RTVSPropertyOp18
 70
     1
102
RTVSPropertyOp19
 70
     1
102
RTVSPropertyOp20
 70
     1
102
RTVSPropertyOp21
 70
     1
102
RTVSPropertyOp22
 70
     1
102
RTVSPropertyOp23
 70
     1
102
RTVSPropertyOp24
 70
     1
102
RTVSPropertyOp25
 70
     1
102
RTVSPropertyOp26
 70
     1
102
RTVSPropertyOp27
 70
     1
102
RTVSPropertyOp28
 70
     1
102
RTVSPropertyOp29
 70
     1
102
RTVSPropertyOp30
 70
     1
102
RTVSPropertyOp31
 70
     1
102
RTVSPropertyOp32
 70
     1
  0
XRECORD
  5
72C
102
{ACAD_REACTORS
330
72B
102
}
330
72B
100
AcDbXrecord
280
     1
102
RTVSPropertyOp0
 70
     0
102
RTVSPropertyOp1
 70
     0
102
RTVSPropertyOp2
 70
     0
102
RTVSPropertyOp3
 70
     0
102
RTVSPropertyOp4
 70
     0
102
RTVSPropertyOp5
 70
     0
102
RTVSPropertyOp6
 70
     0
102
RTVSPropertyOp7
 70
     0
102
RTVSPropertyOp8
 70
     0
102
RTVSPropertyOp9
 70
     0
102
RTVSPropertyOp10
 70
     0
102
RTVSPropertyOp11
 70
     0
102
RTVSPropertyOp12
 70
     0
102
RTVSPropertyOp13
 70
     0
102
RTVSPropertyOp14
 70
     2
102
RTVSPropertyOp15
 70
     0
102
RTVSPropertyOp16
 70
     0
102
RTVSPropertyOp17
 70
     0
102
RTVSPropertyOp18
 70
     0
102
RTVSPropertyOp19
 70
     0
102
RTVSPropertyOp20
 70
     0
102
RTVSPropertyOp21
 70
     0
102
RTVSPropertyOp22
 70
     0
102
RTVSPropertyOp23
 70
     0
102
RTVSPropertyOp24
 70
     0
102
RTVSPropertyOp25
 70
     0
102
RTVSPropertyOp26
 70
     0
102
RTVSPropertyOp27
 70
     0
102
RTVSPropertyOp28
 70
     1
102
RTVSPropertyOp29
 70
     1
102
RTVSPropertyOp30
 70
     1
102
RTVSPropertyOp31
 70
     1
102
RTVSPropertyOp32
 70
     1
  0
XRECORD
  5
724
102
{ACAD_REACTORS
330
723
102
}
330
723
100
AcDbXrecord
280
     1
102
RTVSPropertyOp0
 70
     1
102
RTVSPropertyOp1
 70
     1
102
RTVSPropertyOp2
 70
     1
102
RTVSPropertyOp3
 70
     1
102
RTVSPropertyOp4
 70
     1
102
RTVSPropertyOp5
 70
     1
102
RTVSPropertyOp6
 70
     1
102
RTVSPropertyOp7
 70
     1
102
RTVSPropertyOp8
 70
     1
102
RTVSPropertyOp9
 70
     1
102
RTVSPropertyOp10
 70
     1
102
RTVSPropertyOp11
 70
     1
102
RTVSPropertyOp12
 70
     1
102
RTVSPropertyOp13
 70
     1
102
RTVSPropertyOp14
 70
     1
102
RTVSPropertyOp15
 70
     1
102
RTVSPropertyOp16
 70
     1
102
RTVSPropertyOp17
 70
     1
102
RTVSPropertyOp18
 70
     1
102
RTVSPropertyOp19
 70
     1
102
RTVSPropertyOp20
 70
     1
102
RTVSPropertyOp21
 70
     1
102
RTVSPropertyOp22
 70
     1
102
RTVSPropertyOp23
 70
     1
102
RTVSPropertyOp24
 70
     1
102
RTVSPropertyOp25
 70
     1
102
RTVSPropertyOp26
 70
     1
102
RTVSPropertyOp27
 70
     1
102
RTVSPropertyOp28
 70
     1
102
RTVSPropertyOp29
 70
     1
102
RTVSPropertyOp30
 70
     1
102
RTVSPropertyOp31
 70
     1
102
RTVSPropertyOp32
 70
     1
  0
XRECORD
  5
708
102
{ACAD_REACTORS
330
707
102
}
330
707
100
AcDbXrecord
280
     1
102
RTVSPropertyOp0
 70
     1
102
RTVSPropertyOp1
 70
     1
102
RTVSPropertyOp2
 70
     1
102
RTVSPropertyOp3
 70
     1
102
RTVSPropertyOp4
 70
     1
102
RTVSPropertyOp5
 70
     1
102
RTVSPropertyOp6
 70
     1
102
RTVSPropertyOp7
 70
     1
102
RTVSPropertyOp8
 70
     1
102
RTVSPropertyOp9
 70
     1
102
RTVSPropertyOp10
 70
     1
102
RTVSPropertyOp11
 70
     1
102
RTVSPropertyOp12
 70
     1
102
RTVSPropertyOp13
 70
     1
102
RTVSPropertyOp14
 70
     1
102
RTVSPropertyOp15
 70
     1
102
RTVSPropertyOp16
 70
     1
102
RTVSPropertyOp17
 70
     1
102
RTVSPropertyOp18
 70
     1
102
RTVSPropertyOp19
 70
     1
102
RTVSPropertyOp20
 70
     1
102
RTVSPropertyOp21
 70
     1
102
RTVSPropertyOp22
 70
     1
102
RTVSPropertyOp23
 70
     1
102
RTVSPropertyOp24
 70
     1
102
RTVSPropertyOp25
 70
     1
102
RTVSPropertyOp26
 70
     1
102
RTVSPropertyOp27
 70
     1
102
RTVSPropertyOp28
 70
     1
102
RTVSPropertyOp29
 70
     1
102
RTVSPropertyOp30
 70
     1
102
RTVSPropertyOp31
 70
     1
102
RTVSPropertyOp32
 70
     1
  0
XRECORD
  5
70A
102
{ACAD_REACTORS
330
709
102
}
330
709
100
AcDbXrecord
280
     1
102
RTVSPropertyOp0
 70
     1
102
RTVSPropertyOp1
 70
     1
102
RTVSPropertyOp2
 70
     1
102
RTVSPropertyOp3
 70
     1
102
RTVSPropertyOp4
 70
     1
102
RTVSPropertyOp5
 70
     1
102
RTVSPropertyOp6
 70
     1
102
RTVSPropertyOp7
 70
     1
102
RTVSPropertyOp8
 70
     1
102
RTVSPropertyOp9
 70
     1
102
RTVSPropertyOp10
 70
     1
102
RTVSPropertyOp11
 70
     1
102
RTVSPropertyOp12
 70
     1
102
RTVSPropertyOp13
 70
     1
102
RTVSPropertyOp14
 70
     1
102
RTVSPropertyOp15
 70
     1
102
RTVSPropertyOp16
 70
     1
102
RTVSPropertyOp17
 70
     1
102
RTVSPropertyOp18
 70
     1
102
RTVSPropertyOp19
 70
     1
102
RTVSPropertyOp20
 70
     1
102
RTVSPropertyOp21
 70
     1
102
RTVSPropertyOp22
 70
     1
102
RTVSPropertyOp23
 70
     1
102
RTVSPropertyOp24
 70
     1
102
RTVSPropertyOp25
 70
     1
102
RTVSPropertyOp26
 70
     1
102
RTVSPropertyOp27
 70
     1
102
RTVSPropertyOp28
 70
     1
102
RTVSPropertyOp29
 70
     1
102
RTVSPropertyOp30
 70
     1
102
RTVSPropertyOp31
 70
     1
102
RTVSPropertyOp32
 70
     1
  0
XRECORD
  5
70C
102
{ACAD_REACTORS
330
70B
102
}
330
70B
100
AcDbXrecord
280
     1
102
RTVSPropertyOp0
 70
     1
102
RTVSPropertyOp1
 70
     1
102
RTVSPropertyOp2
 70
     1
102
RTVSPropertyOp3
 70
     1
102
RTVSPropertyOp4
 70
     1
102
RTVSPropertyOp5
 70
     1
102
RTVSPropertyOp6
 70
     1
102
RTVSPropertyOp7
 70
     1
102
RTVSPropertyOp8
 70
     1
102
RTVSPropertyOp9
 70
     1
102
RTVSPropertyOp10
 70
     1
102
RTVSPropertyOp11
 70
     1
102
RTVSPropertyOp12
 70
     1
102
RTVSPropertyOp13
 70
     1
102
RTVSPropertyOp14
 70
     1
102
RTVSPropertyOp15
 70
     1
102
RTVSPropertyOp16
 70
     1
102
RTVSPropertyOp17
 70
     1
102
RTVSPropertyOp18
 70
     1
102
RTVSPropertyOp19
 70
     1
102
RTVSPropertyOp20
 70
     1
102
RTVSPropertyOp21
 70
     1
102
RTVSPropertyOp22
 70
     1
102
RTVSPropertyOp23
 70
     1
102
RTVSPropertyOp24
 70
     1
102
RTVSPropertyOp25
 70
     1
102
RTVSPropertyOp26
 70
     1
102
RTVSPropertyOp27
 70
     1
102
RTVSPropertyOp28
 70
     1
102
RTVSPropertyOp29
 70
     1
102
RTVSPropertyOp30
 70
     1
102
RTVSPropertyOp31
 70
     1
102
RTVSPropertyOp32
 70
     1
  0
XRECORD
  5
70E
102
{ACAD_REACTORS
330
70D
102
}
330
70D
100
AcDbXrecord
280
     1
102
RTVSPropertyOp0
 70
     1
102
RTVSPropertyOp1
 70
     1
102
RTVSPropertyOp2
 70
     1
102
RTVSPropertyOp3
 70
     1
102
RTVSPropertyOp4
 70
     1
102
RTVSPropertyOp5
 70
     1
102
RTVSPropertyOp6
 70
     1
102
RTVSPropertyOp7
 70
     1
102
RTVSPropertyOp8
 70
     1
102
RTVSPropertyOp9
 70
     1
102
RTVSPropertyOp10
 70
     1
102
RTVSPropertyOp11
 70
     1
102
RTVSPropertyOp12
 70
     1
102
RTVSPropertyOp13
 70
     1
102
RTVSPropertyOp14
 70
     1
102
RTVSPropertyOp15
 70
     1
102
RTVSPropertyOp16
 70
     1
102
RTVSPropertyOp17
 70
     1
102
RTVSPropertyOp18
 70
     1
102
RTVSPropertyOp19
 70
     1
102
RTVSPropertyOp20
 70
     1
102
RTVSPropertyOp21
 70
     1
102
RTVSPropertyOp22
 70
     1
102
RTVSPropertyOp23
 70
     1
102
RTVSPropertyOp24
 70
     1
102
RTVSPropertyOp25
 70
     1
102
RTVSPropertyOp26
 70
     1
102
RTVSPropertyOp27
 70
     1
102
RTVSPropertyOp28
 70
     1
102
RTVSPropertyOp29
 70
     1
102
RTVSPropertyOp30
 70
     1
102
RTVSPropertyOp31
 70
     1
102
RTVSPropertyOp32
 70
     1
  0
XRECORD
  5
730
102
{ACAD_REACTORS
330
72F
102
}
330
72F
100
AcDbXrecord
280
     1
102
RTVSPropertyOp0
 70
     1
102
RTVSPropertyOp1
 70
     1
102
RTVSPropertyOp2
 70
     1
102
RTVSPropertyOp3
 70
     1
102
RTVSPropertyOp4
 70
     1
102
RTVSPropertyOp5
 70
     1
102
RTVSPropertyOp6
 70
     1
102
RTVSPropertyOp7
 70
     1
102
RTVSPropertyOp8
 70
     1
102
RTVSPropertyOp9
 70
     1
102
RTVSPropertyOp10
 70
     1
102
RTVSPropertyOp11
 70
     1
102
RTVSPropertyOp12
 70
     1
102
RTVSPropertyOp13
 70
     1
102
RTVSPropertyOp14
 70
     1
102
RTVSPropertyOp15
 70
     1
102
RTVSPropertyOp16
 70
     1
102
RTVSPropertyOp17
 70
     1
102
RTVSPropertyOp18
 70
     1
102
RTVSPropertyOp19
 70
     1
102
RTVSPropertyOp20
 70
     1
102
RTVSPropertyOp21
 70
     1
102
RTVSPropertyOp22
 70
     1
102
RTVSPropertyOp23
 70
     1
102
RTVSPropertyOp24
 70
     1
102
RTVSPropertyOp25
 70
     1
102
RTVSPropertyOp26
 70
     1
102
RTVSPropertyOp27
 70
     1
102
RTVSPropertyOp28
 70
     1
102
RTVSPropertyOp29
 70
     1
102
RTVSPropertyOp30
 70
     1
102
RTVSPropertyOp31
 70
     1
102
RTVSPropertyOp32
 70
     1
  0
XRECORD
  5
728
102
{ACAD_REACTORS
330
727
102
}
330
727
100
AcDbXrecord
280
     1
102
RTVSPropertyOp0
 70
     0
102
RTVSPropertyOp1
 70
     0
102
RTVSPropertyOp2
 70
     0
102
RTVSPropertyOp3
 70
     0
102
RTVSPropertyOp4
 70
     0
102
RTVSPropertyOp5
 70
     0
102
RTVSPropertyOp6
 70
     0
102
RTVSPropertyOp7
 70
     0
102
RTVSPropertyOp8
 70
     0
102
RTVSPropertyOp9
 70
     0
102
RTVSPropertyOp10
 70
     0
102
RTVSPropertyOp11
 70
     0
102
RTVSPropertyOp12
 70
     0
102
RTVSPropertyOp13
 70
     0
102
RTVSPropertyOp14
 70
     2
102
RTVSPropertyOp15
 70
     0
102
RTVSPropertyOp16
 70
     0
102
RTVSPropertyOp17
 70
     0
102
RTVSPropertyOp18
 70
     0
102
RTVSPropertyOp19
 70
     0
102
RTVSPropertyOp20
 70
     0
102
RTVSPropertyOp21
 70
     0
102
RTVSPropertyOp22
 70
     0
102
RTVSPropertyOp23
 70
     0
102
RTVSPropertyOp24
 70
     0
102
RTVSPropertyOp25
 70
     0
102
RTVSPropertyOp26
 70
     0
102
RTVSPropertyOp27
 70
     0
102
RTVSPropertyOp28
 70
     1
102
RTVSPropertyOp29
 70
     1
102
RTVSPropertyOp30
 70
     1
102
RTVSPropertyOp31
 70
     1
102
RTVSPropertyOp32
 70
     1
  0
XRECORD
  5
722
102
{ACAD_REACTORS
330
721
102
}
330
721
100
AcDbXrecord
280
     1
102
RTVSPropertyOp0
 70
     1
102
RTVSPropertyOp1
 70
     1
102
RTVSPropertyOp2
 70
     1
102
RTVSPropertyOp3
 70
     1
102
RTVSPropertyOp4
 70
     1
102
RTVSPropertyOp5
 70
     1
102
RTVSPropertyOp6
 70
     1
102
RTVSPropertyOp7
 70
     1
102
RTVSPropertyOp8
 70
     1
102
RTVSPropertyOp9
 70
     1
102
RTVSPropertyOp10
 70
     1
102
RTVSPropertyOp11
 70
     1
102
RTVSPropertyOp12
 70
     1
102
RTVSPropertyOp13
 70
     1
102
RTVSPropertyOp14
 70
     1
102
RTVSPropertyOp15
 70
     1
102
RTVSPropertyOp16
 70
     1
102
RTVSPropertyOp17
 70
     1
102
RTVSPropertyOp18
 70
     1
102
RTVSPropertyOp19
 70
     1
102
RTVSPropertyOp20
 70
     1
102
RTVSPropertyOp21
 70
     1
102
RTVSPropertyOp22
 70
     1
102
RTVSPropertyOp23
 70
     1
102
RTVSPropertyOp24
 70
     1
102
RTVSPropertyOp25
 70
     1
102
RTVSPropertyOp26
 70
     1
102
RTVSPropertyOp27
 70
     1
102
RTVSPropertyOp28
 70
     1
102
RTVSPropertyOp29
 70
     1
102
RTVSPropertyOp30
 70
     1
102
RTVSPropertyOp31
 70
     1
102
RTVSPropertyOp32
 70
     1
  0
XRECORD
  5
72A
102
{ACAD_REACTORS
330
729
102
}
330
729
100
AcDbXrecord
280
     1
102
RTVSPropertyOp0
 70
     0
102
RTVSPropertyOp1
 70
     0
102
RTVSPropertyOp2
 70
     0
102
RTVSPropertyOp3
 70
     0
102
RTVSPropertyOp4
 70
     0
102
RTVSPropertyOp5
 70
     0
102
RTVSPropertyOp6
 70
     0
102
RTVSPropertyOp7
 70
     0
102
RTVSPropertyOp8
 70
     0
102
RTVSPropertyOp9
 70
     0
102
RTVSPropertyOp10
 70
     0
102
RTVSPropertyOp11
 70
     0
102
RTVSPropertyOp12
 70
     0
102
RTVSPropertyOp13
 70
     0
102
RTVSPropertyOp14
 70
     2
102
RTVSPropertyOp15
 70
     0
102
RTVSPropertyOp16
 70
     0
102
RTVSPropertyOp17
 70
     0
102
RTVSPropertyOp18
 70
     0
102
RTVSPropertyOp19
 70
     0
102
RTVSPropertyOp20
 70
     0
102
RTVSPropertyOp21
 70
     0
102
RTVSPropertyOp22
 70
     0
102
RTVSPropertyOp23
 70
     0
102
RTVSPropertyOp24
 70
     0
102
RTVSPropertyOp25
 70
     0
102
RTVSPropertyOp26
 70
     0
102
RTVSPropertyOp27
 70
     0
102
RTVSPropertyOp28
 70
     1
102
RTVSPropertyOp29
 70
     1
102
RTVSPropertyOp30
 70
     1
102
RTVSPropertyOp31
 70
     1
102
RTVSPropertyOp32
 70
     1
  0
XRECORD
  5
71A
102
{ACAD_REACTORS
330
719
102
}
330
719
100
AcDbXrecord
280
     1
102
RTVSPropertyOp0
 70
     1
102
RTVSPropertyOp1
 70
     1
102
RTVSPropertyOp2
 70
     1
102
RTVSPropertyOp3
 70
     1
102
RTVSPropertyOp4
 70
     1
102
RTVSPropertyOp5
 70
     1
102
RTVSPropertyOp6
 70
     1
102
RTVSPropertyOp7
 70
     1
102
RTVSPropertyOp8
 70
     1
102
RTVSPropertyOp9
 70
     1
102
RTVSPropertyOp10
 70
     1
102
RTVSPropertyOp11
 70
     1
102
RTVSPropertyOp12
 70
     1
102
RTVSPropertyOp13
 70
     1
102
RTVSPropertyOp14
 70
     1
102
RTVSPropertyOp15
 70
     1
102
RTVSPropertyOp16
 70
     1
102
RTVSPropertyOp17
 70
     1
102
RTVSPropertyOp18
 70
     1
102
RTVSPropertyOp19
 70
     1
102
RTVSPropertyOp20
 70
     1
102
RTVSPropertyOp21
 70
     1
102
RTVSPropertyOp22
 70
     1
102
RTVSPropertyOp23
 70
     1
102
RTVSPropertyOp24
 70
     1
102
RTVSPropertyOp25
 70
     1
102
RTVSPropertyOp26
 70
     1
102
RTVSPropertyOp27
 70
     1
102
RTVSPropertyOp28
 70
     1
102
RTVSPropertyOp29
 70
     1
102
RTVSPropertyOp30
 70
     1
102
RTVSPropertyOp31
 70
     1
102
RTVSPropertyOp32
 70
     1
  0
XRECORD
  5
73A
102
{ACAD_REACTORS
330
739
102
}
330
739
100
AcDbXrecord
280
     1
102
RTVSPropertyOp0
 70
     1
102
RTVSPropertyOp1
 70
     1
102
RTVSPropertyOp2
 70
     1
102
RTVSPropertyOp3
 70
     1
102
RTVSPropertyOp4
 70
     1
102
RTVSPropertyOp5
 70
     1
102
RTVSPropertyOp6
 70
     1
102
RTVSPropertyOp7
 70
     1
102
RTVSPropertyOp8
 70
     1
102
RTVSPropertyOp9
 70
     1
102
RTVSPropertyOp10
 70
     1
102
RTVSPropertyOp11
 70
     1
102
RTVSPropertyOp12
 70
     1
102
RTVSPropertyOp13
 70
     1
102
RTVSPropertyOp14
 70
     1
102
RTVSPropertyOp15
 70
     1
102
RTVSPropertyOp16
 70
     1
102
RTVSPropertyOp17
 70
     1
102
RTVSPropertyOp18
 70
     1
102
RTVSPropertyOp19
 70
     1
102
RTVSPropertyOp20
 70
     1
102
RTVSPropertyOp21
 70
     1
102
RTVSPropertyOp22
 70
     1
102
RTVSPropertyOp23
 70
     1
102
RTVSPropertyOp24
 70
     1
102
RTVSPropertyOp25
 70
     1
102
RTVSPropertyOp26
 70
     1
102
RTVSPropertyOp27
 70
     1
102
RTVSPropertyOp28
 70
     1
102
RTVSPropertyOp29
 70
     1
102
RTVSPropertyOp30
 70
     1
102
RTVSPropertyOp31
 70
     1
102
RTVSPropertyOp32
 70
     1
  0
XRECORD
  5
738
102
{ACAD_REACTORS
330
737
102
}
330
737
100
AcDbXrecord
280
     1
102
RTVSPropertyOp0
 70
     1
102
RTVSPropertyOp1
 70
     1
102
RTVSPropertyOp2
 70
     1
102
RTVSPropertyOp3
 70
     1
102
RTVSPropertyOp4
 70
     1
102
RTVSPropertyOp5
 70
     1
102
RTVSPropertyOp6
 70
     1
102
RTVSPropertyOp7
 70
     1
102
RTVSPropertyOp8
 70
     1
102
RTVSPropertyOp9
 70
     1
102
RTVSPropertyOp10
 70
     1
102
RTVSPropertyOp11
 70
     1
102
RTVSPropertyOp12
 70
     1
102
RTVSPropertyOp13
 70
     1
102
RTVSPropertyOp14
 70
     1
102
RTVSPropertyOp15
 70
     1
102
RTVSPropertyOp16
 70
     1
102
RTVSPropertyOp17
 70
     1
102
RTVSPropertyOp18
 70
     1
102
RTVSPropertyOp19
 70
     1
102
RTVSPropertyOp20
 70
     1
102
RTVSPropertyOp21
 70
     1
102
RTVSPropertyOp22
 70
     1
102
RTVSPropertyOp23
 70
     1
102
RTVSPropertyOp24
 70
     1
102
RTVSPropertyOp25
 70
     1
102
RTVSPropertyOp26
 70
     1
102
RTVSPropertyOp27
 70
     1
102
RTVSPropertyOp28
 70
     1
102
RTVSPropertyOp29
 70
     1
102
RTVSPropertyOp30
 70
     1
102
RTVSPropertyOp31
 70
     1
102
RTVSPropertyOp32
 70
     1
  0
XRECORD
  5
732
102
{ACAD_REACTORS
330
731
102
}
330
731
100
AcDbXrecord
280
     1
102
RTVSPropertyOp0
 70
     1
102
RTVSPropertyOp1
 70
     1
102
RTVSPropertyOp2
 70
     1
102
RTVSPropertyOp3
 70
     1
102
RTVSPropertyOp4
 70
     1
102
RTVSPropertyOp5
 70
     1
102
RTVSPropertyOp6
 70
     1
102
RTVSPropertyOp7
 70
     1
102
RTVSPropertyOp8
 70
     1
102
RTVSPropertyOp9
 70
     1
102
RTVSPropertyOp10
 70
     1
102
RTVSPropertyOp11
 70
     1
102
RTVSPropertyOp12
 70
     1
102
RTVSPropertyOp13
 70
     1
102
RTVSPropertyOp14
 70
     1
102
RTVSPropertyOp15
 70
     1
102
RTVSPropertyOp16
 70
     1
102
RTVSPropertyOp17
 70
     1
102
RTVSPropertyOp18
 70
     1
102
RTVSPropertyOp19
 70
     1
102
RTVSPropertyOp20
 70
     1
102
RTVSPropertyOp21
 70
     1
102
RTVSPropertyOp22
 70
     1
102
RTVSPropertyOp23
 70
     1
102
RTVSPropertyOp24
 70
     1
102
RTVSPropertyOp25
 70
     1
102
RTVSPropertyOp26
 70
     1
102
RTVSPropertyOp27
 70
     1
102
RTVSPropertyOp28
 70
     1
102
RTVSPropertyOp29
 70
     1
102
RTVSPropertyOp30
 70
     1
102
RTVSPropertyOp31
 70
     1
102
RTVSPropertyOp32
 70
     1
  0
XRECORD
  5
734
102
{ACAD_REACTORS
330
733
102
}
330
733
100
AcDbXrecord
280
     1
102
RTVSPropertyOp0
 70
     1
102
RTVSPropertyOp1
 70
     1
102
RTVSPropertyOp2
 70
     1
102
RTVSPropertyOp3
 70
     1
102
RTVSPropertyOp4
 70
     1
102
RTVSPropertyOp5
 70
     1
102
RTVSPropertyOp6
 70
     1
102
RTVSPropertyOp7
 70
     1
102
RTVSPropertyOp8
 70
     1
102
RTVSPropertyOp9
 70
     1
102
RTVSPropertyOp10
 70
     1
102
RTVSPropertyOp11
 70
     1
102
RTVSPropertyOp12
 70
     1
102
RTVSPropertyOp13
 70
     1
102
RTVSPropertyOp14
 70
     1
102
RTVSPropertyOp15
 70
     1
102
RTVSPropertyOp16
 70
     1
102
RTVSPropertyOp17
 70
     1
102
RTVSPropertyOp18
 70
     1
102
RTVSPropertyOp19
 70
     1
102
RTVSPropertyOp20
 70
     1
102
RTVSPropertyOp21
 70
     1
102
RTVSPropertyOp22
 70
     1
102
RTVSPropertyOp23
 70
     1
102
RTVSPropertyOp24
 70
     1
102
RTVSPropertyOp25
 70
     1
102
RTVSPropertyOp26
 70
     1
102
RTVSPropertyOp27
 70
     1
102
RTVSPropertyOp28
 70
     1
102
RTVSPropertyOp29
 70
     1
102
RTVSPropertyOp30
 70
     1
102
RTVSPropertyOp31
 70
     1
102
RTVSPropertyOp32
 70
     1
  0
XRECORD
  5
720
102
{ACAD_REACTORS
330
71F
102
}
330
71F
100
AcDbXrecord
280
     1
102
RTVSPropertyOp0
 70
     1
102
RTVSPropertyOp1
 70
     1
102
RTVSPropertyOp2
 70
     1
102
RTVSPropertyOp3
 70
     1
102
RTVSPropertyOp4
 70
     1
102
RTVSPropertyOp5
 70
     1
102
RTVSPropertyOp6
 70
     1
102
RTVSPropertyOp7
 70
     1
102
RTVSPropertyOp8
 70
     1
102
RTVSPropertyOp9
 70
     1
102
RTVSPropertyOp10
 70
     1
102
RTVSPropertyOp11
 70
     1
102
RTVSPropertyOp12
 70
     1
102
RTVSPropertyOp13
 70
     1
102
RTVSPropertyOp14
 70
     1
102
RTVSPropertyOp15
 70
     1
102
RTVSPropertyOp16
 70
     1
102
RTVSPropertyOp17
 70
     1
102
RTVSPropertyOp18
 70
     1
102
RTVSPropertyOp19
 70
     1
102
RTVSPropertyOp20
 70
     1
102
RTVSPropertyOp21
 70
     1
102
RTVSPropertyOp22
 70
     1
102
RTVSPropertyOp23
 70
     1
102
RTVSPropertyOp24
 70
     1
102
RTVSPropertyOp25
 70
     1
102
RTVSPropertyOp26
 70
     1
102
RTVSPropertyOp27
 70
     1
102
RTVSPropertyOp28
 70
     1
102
RTVSPropertyOp29
 70
     1
102
RTVSPropertyOp30
 70
     1
102
RTVSPropertyOp31
 70
     1
102
RTVSPropertyOp32
 70
     1
  0
XRECORD
  5
72E
102
{ACAD_REACTORS
330
72D
102
}
330
72D
100
AcDbXrecord
280
     1
102
RTVSPropertyOp0
 70
     1
102
RTVSPropertyOp1
 70
     1
102
RTVSPropertyOp2
 70
     1
102
RTVSPropertyOp3
 70
     1
102
RTVSPropertyOp4
 70
     1
102
RTVSPropertyOp5
 70
     1
102
RTVSPropertyOp6
 70
     1
102
RTVSPropertyOp7
 70
     1
102
RTVSPropertyOp8
 70
     1
102
RTVSPropertyOp9
 70
     1
102
RTVSPropertyOp10
 70
     1
102
RTVSPropertyOp11
 70
     1
102
RTVSPropertyOp12
 70
     1
102
RTVSPropertyOp13
 70
     1
102
RTVSPropertyOp14
 70
     1
102
RTVSPropertyOp15
 70
     1
102
RTVSPropertyOp16
 70
     1
102
RTVSPropertyOp17
 70
     1
102
RTVSPropertyOp18
 70
     1
102
RTVSPropertyOp19
 70
     1
102
RTVSPropertyOp20
 70
     1
102
RTVSPropertyOp21
 70
     1
102
RTVSPropertyOp22
 70
     1
102
RTVSPropertyOp23
 70
     1
102
RTVSPropertyOp24
 70
     1
102
RTVSPropertyOp25
 70
     1
102
RTVSPropertyOp26
 70
     1
102
RTVSPropertyOp27
 70
     1
102
RTVSPropertyOp28
 70
     1
102
RTVSPropertyOp29
 70
     1
102
RTVSPropertyOp30
 70
     1
102
RTVSPropertyOp31
 70
     1
102
RTVSPropertyOp32
 70
     1
  0
XRECORD
  5
736
102
{ACAD_REACTORS
330
735
102
}
330
735
100
AcDbXrecord
280
     1
102
RTVSPropertyOp0
 70
     1
102
RTVSPropertyOp1
 70
     1
102
RTVSPropertyOp2
 70
     1
102
RTVSPropertyOp3
 70
     1
102
RTVSPropertyOp4
 70
     1
102
RTVSPropertyOp5
 70
     1
102
RTVSPropertyOp6
 70
     1
102
RTVSPropertyOp7
 70
     1
102
RTVSPropertyOp8
 70
     1
102
RTVSPropertyOp9
 70
     1
102
RTVSPropertyOp10
 70
     1
102
RTVSPropertyOp11
 70
     1
102
RTVSPropertyOp12
 70
     1
102
RTVSPropertyOp13
 70
     1
102
RTVSPropertyOp14
 70
     1
102
RTVSPropertyOp15
 70
     1
102
RTVSPropertyOp16
 70
     1
102
RTVSPropertyOp17
 70
     1
102
RTVSPropertyOp18
 70
     1
102
RTVSPropertyOp19
 70
     1
102
RTVSPropertyOp20
 70
     1
102
RTVSPropertyOp21
 70
     1
102
RTVSPropertyOp22
 70
     1
102
RTVSPropertyOp23
 70
     1
102
RTVSPropertyOp24
 70
     1
102
RTVSPropertyOp25
 70
     1
102
RTVSPropertyOp26
 70
     1
102
RTVSPropertyOp27
 70
     1
102
RTVSPropertyOp28
 70
     1
102
RTVSPropertyOp29
 70
     1
102
RTVSPropertyOp30
 70
     1
102
RTVSPropertyOp31
 70
     1
102
RTVSPropertyOp32
 70
     1
  0
ENDSEC
  0
EOF
